  0
SECTION
  2
HEADER
  9
$ACADVER
  1
AC1012
  9
$DWGCODEPAGE
  3
iso8859-1
  9
$INSBASE
 10
0.0
 20
0.0
 30
0.0
  9
$EXTMIN
 10
-2709.837358
 20
-1659.251698
 30
0.0
  9
$EXTMAX
 10
-1218.543123
 20
-1360.67646
 30
0.0
  9
$LIMMIN
 10
0.0
 20
0.0
  9
$LIMMAX
 10
210.0
 20
297.0
  9
$ORTHOMODE
 70
     1
  9
$REGENMODE
 70
     1
  9
$FILLMODE
 70
     1
  9
$QTEXTMODE
 70
     0
  9
$MIRRTEXT
 70
     1
  9
$DRAGMODE
 70
     2
  9
$LTSCALE
 40
1.0
  9
$OSMODE
 70
     0
  9
$ATTMODE
 70
     1
  9
$TEXTSIZE
 40
3.0
  9
$TRACEWID
 40
0.05
  9
$TEXTSTYLE
  7
STYLE3
  9
$CLAYER
  8
SEZIONE
  9
$CELTYPE
  6
BYLAYER
  9
$CECOLOR
 62
   256
  9
$CELTSCALE
 40
1.0
  9
$DELOBJ
 70
     1
  9
$DISPSILH
 70
     0
  9
$DIMSCALE
 40
1.0
  9
$DIMASZ
 40
2.5
  9
$DIMEXO
 40
0.625
  9
$DIMDLI
 40
3.75
  9
$DIMRND
 40
0.0
  9
$DIMDLE
 40
0.0
  9
$DIMEXE
 40
1.25
  9
$DIMTP
 40
0.0
  9
$DIMTM
 40
0.0
  9
$DIMTXT
 40
3.0
  9
$DIMCEN
 40
0.0
  9
$DIMTSZ
 40
0.0
  9
$DIMTOL
 70
     0
  9
$DIMLIM
 70
     0
  9
$DIMTIH
 70
     0
  9
$DIMTOH
 70
     0
  9
$DIMSE1
 70
     0
  9
$DIMSE2
 70
     0
  9
$DIMTAD
 70
     1
  9
$DIMZIN
 70
     8
  9
$DIMBLK
  1

  9
$DIMASO
 70
     1
  9
$DIMSHO
 70
     1
  9
$DIMPOST
  1

  9
$DIMAPOST
  1

  9
$DIMALT
 70
     0
  9
$DIMALTD
 70
     2
  9
$DIMALTF
 40
0.03937
  9
$DIMLFAC
 40
1.0
  9
$DIMTOFL
 70
     0
  9
$DIMTVP
 40
0.0
  9
$DIMTIX
 70
     0
  9
$DIMSOXD
 70
     0
  9
$DIMSAH
 70
     0
  9
$DIMBLK1
  1

  9
$DIMBLK2
  1

  9
$DIMSTYLE
  2
STANDARD
  9
$DIMCLRD
 70
     0
  9
$DIMCLRE
 70
     0
  9
$DIMCLRT
 70
     0
  9
$DIMTFAC
 40
1.0
  9
$DIMGAP
 40
0.625
  9
$DIMJUST
 70
     0
  9
$DIMSD1
 70
     0
  9
$DIMSD2
 70
     0
  9
$DIMTOLJ
 70
     1
  9
$DIMTZIN
 70
     8
  9
$DIMALTZ
 70
     0
  9
$DIMALTTZ
 70
     0
  9
$DIMFIT
 70
     3
  9
$DIMUPT
 70
     0
  9
$DIMUNIT
 70
     2
  9
$DIMDEC
 70
     2
  9
$DIMTDEC
 70
     2
  9
$DIMALTU
 70
     2
  9
$DIMALTTD
 70
     2
  9
$DIMTXSTY
  7
STANDARD
  9
$DIMAUNIT
 70
     0
  9
$LUNITS
 70
     2
  9
$LUPREC
 70
     4
  9
$SKETCHINC
 40
0.1
  9
$FILLETRAD
 40
20.0
  9
$AUNITS
 70
     0
  9
$AUPREC
 70
     0
  9
$MENU
  1
acad
  9
$ELEVATION
 40
0.0
  9
$PELEVATION
 40
0.0
  9
$THICKNESS
 40
0.0
  9
$LIMCHECK
 70
     0
  9
$BLIPMODE
 70
     1
  9
$CHAMFERA
 40
0.0
  9
$CHAMFERB
 40
0.0
  9
$CHAMFERC
 40
20.0
  9
$CHAMFERD
 40
0.0
  9
$SKPOLY
 70
     0
  9
$TDCREATE
 40
2452208.316888310
  9
$TDUPDATE
 40
2453053.338663310
  9
$TDINDWG
 40
0.1468512731
  9
$TDUSRTIMER
 40
0.1468512731
  9
$USRTIMER
 70
     1
  9
$ANGBASE
 50
0.0
  9
$ANGDIR
 70
     0
  9
$PDMODE
 70
     0
  9
$PDSIZE
 40
0.0
  9
$PLINEWID
 40
0.0
  9
$COORDS
 70
     1
  9
$SPLFRAME
 70
     0
  9
$SPLINETYPE
 70
     6
  9
$SPLINESEGS
 70
     8
  9
$ATTDIA
 70
     0
  9
$ATTREQ
 70
     1
  9
$HANDLING
 70
     1
  9
$HANDSEED
  5
16B9
  9
$SURFTAB1
 70
     6
  9
$SURFTAB2
 70
     6
  9
$SURFTYPE
 70
     6
  9
$SURFU
 70
     6
  9
$SURFV
 70
     6
  9
$UCSNAME
  2

  9
$UCSORG
 10
0.0
 20
0.0
 30
0.0
  9
$UCSXDIR
 10
1.0
 20
0.0
 30
0.0
  9
$UCSYDIR
 10
0.0
 20
1.0
 30
0.0
  9
$PUCSNAME
  2

  9
$PUCSORG
 10
0.0
 20
0.0
 30
0.0
  9
$PUCSXDIR
 10
1.0
 20
0.0
 30
0.0
  9
$PUCSYDIR
 10
0.0
 20
1.0
 30
0.0
  9
$USERI1
 70
     0
  9
$USERI2
 70
     0
  9
$USERI3
 70
     0
  9
$USERI4
 70
     0
  9
$USERI5
 70
     0
  9
$USERR1
 40
0.0
  9
$USERR2
 40
0.0
  9
$USERR3
 40
0.0
  9
$USERR4
 40
0.0
  9
$USERR5
 40
0.0
  9
$WORLDVIEW
 70
     1
  9
$SHADEDGE
 70
     3
  9
$SHADEDIF
 70
    70
  9
$TILEMODE
 70
     1
  9
$MAXACTVP
 70
    16
  9
$PINSBASE
 10
0.0
 20
0.0
 30
0.0
  9
$PLIMCHECK
 70
     0
  9
$PEXTMIN
 10
1.000000E+20
 20
1.000000E+20
 30
1.000000E+20
  9
$PEXTMAX
 10
-1.000000E+20
 20
-1.000000E+20
 30
-1.000000E+20
  9
$PLIMMIN
 10
0.0
 20
0.0
  9
$PLIMMAX
 10
12.0
 20
9.0
  9
$UNITMODE
 70
     0
  9
$VISRETAIN
 70
     0
  9
$PLINEGEN
 70
     0
  9
$PSLTSCALE
 70
     1
  9
$TREEDEPTH
 70
  3020
  9
$PICKSTYLE
 70
     1
  9
$CMLSTYLE
  2
STANDARD
  9
$CMLJUST
 70
     0
  9
$CMLSCALE
 40
20.0
  9
$SAVEIMAGES
 70
     0
  0
ENDSEC
  0
SECTION
  2
CLASSES
  0
ENDSEC
  0
SECTION
  2
TABLES
  0
TABLE
  2
VPORT
  5
8
100
AcDbSymbolTable
 70
     2
  0
VPORT
  5
16B8
100
AcDbSymbolTableRecord
100
AcDbViewportTableRecord
  2
*ACTIVE
 70
     0
 10
0.0
 20
0.0
 11
1.0
 21
1.0
 12
-1776.189446
 22
-1488.244986
 13
0.0
 23
0.0
 14
10.0
 24
10.0
 15
10.0
 25
10.0
 16
0.0
 26
0.0
 36
1.0
 17
0.0
 27
0.0
 37
0.0
 40
291.471166
 41
1.563011
 42
50.0
 43
0.0
 44
0.0
 50
0.0
 51
0.0
 71
     0
 72
   100
 73
     1
 74
     0
 75
     0
 76
     0
 77
     0
 78
     0
  0
ENDTAB
  0
TABLE
  2
LTYPE
  5
5
100
AcDbSymbolTable
 70
     4
  0
LTYPE
  5
13
100
AcDbSymbolTableRecord
100
AcDbLinetypeTableRecord
  2
BYBLOCK
 70
     0
  3

 72
    65
 73
     0
 40
0.0
  0
LTYPE
  5
14
100
AcDbSymbolTableRecord
100
AcDbLinetypeTableRecord
  2
BYLAYER
 70
     0
  3

 72
    65
 73
     0
 40
0.0
  0
LTYPE
  5
15
100
AcDbSymbolTableRecord
100
AcDbLinetypeTableRecord
  2
CONTINUOUS
 70
    64
  3
Solid line
 72
    65
 73
     0
 40
0.0
  0
LTYPE
  5
94
100
AcDbSymbolTableRecord
100
AcDbLinetypeTableRecord
  2
ACAD_ISO04W100
 70
    64
  3
____ . ____ . ____ . ____ . ____ . ____ . ____ 
 72
    65
 73
     4
 40
30.5
 49
24.0
 74
     0
 49
-3.0
 74
     0
 49
0.5
 74
     0
 49
-3.0
 74
     0
  0
LTYPE
  5
225
100
AcDbSymbolTableRecord
100
AcDbLinetypeTableRecord
  2
TRATTEGGIATAX2
 70
    64
  3
____  ____  ____  ____  ____  ____  ____  ____ 
 72
    65
 73
     2
 40
1.5
 49
1.0
 74
     0
 49
-0.5
 74
     0
  0
LTYPE
  5
226
100
AcDbSymbolTableRecord
100
AcDbLinetypeTableRecord
  2
NASCOSTA
 70
    64
  3
__ __ __ __ __ __ __ __ __ __ __ __ __ __ __ __
 72
    65
 73
     2
 40
0.375
 49
0.25
 74
     0
 49
-0.125
 74
     0
  0
ENDTAB
  0
TABLE
  2
LAYER
  5
2
100
AcDbSymbolTable
 70
    11
  0
LAYER
  5
F
100
AcDbSymbolTableRecord
100
AcDbLayerTableRecord
  2
0
 70
     0
 62
     7
  6
CONTINUOUS
  0
LAYER
  5
95
100
AcDbSymbolTableRecord
100
AcDbLayerTableRecord
  2
DISEGNO
 70
    64
 62
     7
  6
CONTINUOUS
  0
LAYER
  5
96
100
AcDbSymbolTableRecord
100
AcDbLayerTableRecord
  2
ASSI
 70
    64
 62
    -1
  6
ACAD_ISO04W100
  0
LAYER
  5
97
100
AcDbSymbolTableRecord
100
AcDbLayerTableRecord
  2
SEZIONE
 70
    64
 62
     3
  6
CONTINUOUS
  0
LAYER
  5
98
100
AcDbSymbolTableRecord
100
AcDbLayerTableRecord
  2
TEMPRA
 70
    64
 62
     2
  6
CONTINUOUS
  0
LAYER
  5
99
100
AcDbSymbolTableRecord
100
AcDbLayerTableRecord
  2
QUOTE
 70
    64
 62
     5
  6
CONTINUOUS
  0
LAYER
  5
1A3
100
AcDbSymbolTableRecord
100
AcDbLayerTableRecord
  2
TRATTO
 70
    64
 62
     6
  6
NASCOSTA
  0
LAYER
  5
28A
100
AcDbSymbolTableRecord
100
AcDbLayerTableRecord
  2
DEFPOINTS
 70
    64
 62
     7
  6
CONTINUOUS
  0
LAYER
  5
4A6
100
AcDbSymbolTableRecord
100
AcDbLayerTableRecord
  2
TABELLA
 70
    64
 62
     8
  6
CONTINUOUS
  0
LAYER
  5
55B
100
AcDbSymbolTableRecord
100
AcDbLayerTableRecord
  2
MARCATURA
 70
    64
 62
   136
  6
CONTINUOUS
  0
LAYER
  5
55C
100
AcDbSymbolTableRecord
100
AcDbLayerTableRecord
  2
TESTO
 70
    64
 62
   140
  6
CONTINUOUS
  0
ENDTAB
  0
TABLE
  2
STYLE
  5
3
100
AcDbSymbolTable
 70
     2
  0
STYLE
  5
10
100
AcDbSymbolTableRecord
100
AcDbTextStyleTableRecord
  2
STANDARD
 70
    64
 40
0.0
 41
1.1
 50
0.0
 71
     0
 42
3.0
  3
D:\Programmi\AutoCAD LT\isocp.shx
  4

  0
STYLE
  5
B0
100
AcDbSymbolTableRecord
100
AcDbTextStyleTableRecord
  2
STYLE3
 70
    64
 40
0.0
 41
1.1
 50
0.0
 71
     0
 42
3.0
  3
D:\Programmi\AutoCAD LT\isocp.shx
  4

  0
ENDTAB
  0
TABLE
  2
VIEW
  5
6
100
AcDbSymbolTable
 70
     0
  0
ENDTAB
  0
TABLE
  2
UCS
  5
7
100
AcDbSymbolTable
 70
     0
  0
ENDTAB
  0
TABLE
  2
APPID
  5
9
100
AcDbSymbolTable
 70
     1
  0
APPID
  5
11
100
AcDbSymbolTableRecord
100
AcDbRegAppTableRecord
  2
ACAD
 70
     0
  0
ENDTAB
  0
TABLE
  2
DIMSTYLE
  5
A
100
AcDbSymbolTable
 70
    13
  0
DIMSTYLE
105
1D
100
AcDbSymbolTableRecord
100
AcDbDimStyleTableRecord
  2
STANDARD
 70
     0
  3

  4

  5

  6

  7

 40
1.0
 41
2.5
 42
0.625
 43
3.75
 44
1.25
 45
0.0
 46
0.0
 47
0.0
 48
0.0
140
3.0
141
2.5
142
0.0
143
0.03937
144
1.0
145
0.0
146
1.0
147
0.625
 71
     0
 72
     0
 73
     0
 74
     0
 75
     0
 76
     0
 77
     1
 78
     8
170
     0
171
     2
172
     0
173
     0
174
     0
175
     0
176
     0
177
     0
178
     0
270
     2
271
     2
272
     2
273
     2
274
     2
340
10
275
     0
280
     0
281
     0
282
     0
283
     1
284
     8
285
     0
286
     0
287
     3
288
     0
  0
DIMSTYLE
105
198
100
AcDbSymbolTableRecord
100
AcDbDimStyleTableRecord
  2
TOLL-06
 70
     0
  3

  4

  5

  6

  7

 40
1.0
 41
2.5
 42
0.625
 43
3.75
 44
1.25
 45
0.0
 46
0.0
 47
-0.05
 48
0.0
140
3.0
141
2.5
142
0.0
143
0.03937
144
1.0
145
0.0
146
0.8
147
0.625
 71
     1
 72
     0
 73
     0
 74
     0
 75
     0
 76
     0
 77
     1
 78
     8
170
     0
171
     2
172
     0
173
     0
174
     0
175
     0
176
     0
177
     0
178
     0
270
     2
271
     2
272
     2
273
     2
274
     2
340
10
275
     0
280
     0
281
     0
282
     0
283
     2
284
     8
285
     0
286
     0
287
     3
288
     0
  0
DIMSTYLE
105
20B
100
AcDbSymbolTableRecord
100
AcDbDimStyleTableRecord
  2
TOLL-01
 70
     0
  3

  4

  5

  6

  7

 40
1.0
 41
2.5
 42
0.625
 43
3.75
 44
1.25
 45
0.0
 46
0.0
 47
0.02
 48
0.0
140
3.0
141
2.5
142
0.0
143
0.03937
144
1.0
145
0.0
146
0.8
147
0.625
 71
     1
 72
     0
 73
     0
 74
     0
 75
     0
 76
     0
 77
     1
 78
     8
170
     0
171
     2
172
     0
173
     0
174
     0
175
     0
176
     0
177
     0
178
     0
270
     2
271
     2
272
     2
273
     2
274
     2
340
10
275
     0
280
     0
281
     0
282
     0
283
     2
284
     8
285
     0
286
     0
287
     3
288
     0
  0
DIMSTYLE
105
232
100
AcDbSymbolTableRecord
100
AcDbDimStyleTableRecord
  2
TOLL-02
 70
     0
  3

  4

  5

  6

  7

 40
1.0
 41
2.5
 42
0.625
 43
3.75
 44
1.25
 45
0.0
 46
0.0
 47
-0.02
 48
0.0
140
3.0
141
2.5
142
0.0
143
0.03937
144
1.0
145
0.0
146
0.8
147
0.625
 71
     1
 72
     0
 73
     0
 74
     0
 75
     0
 76
     0
 77
     1
 78
     8
170
     0
171
     2
172
     0
173
     0
174
     0
175
     0
176
     0
177
     0
178
     0
270
     2
271
     2
272
     2
273
     2
274
     2
340
10
275
     0
280
     0
281
     0
282
     0
283
     2
284
     8
285
     0
286
     0
287
     3
288
     0
  0
DIMSTYLE
105
233
100
AcDbSymbolTableRecord
100
AcDbDimStyleTableRecord
  2
TOLL-03
 70
     0
  3

  4

  5

  6

  7

 40
1.0
 41
2.5
 42
0.625
 43
3.75
 44
1.25
 45
0.0
 46
0.0
 47
0.01
 48
0.01
140
3.0
141
2.5
142
0.0
143
0.03937
144
1.0
145
0.0
146
0.8
147
0.625
 71
     1
 72
     0
 73
     0
 74
     0
 75
     0
 76
     0
 77
     1
 78
     8
170
     0
171
     2
172
     0
173
     0
174
     0
175
     0
176
     0
177
     0
178
     0
270
     2
271
     2
272
     2
273
     2
274
     2
340
10
275
     0
280
     0
281
     0
282
     0
283
     2
284
     8
285
     0
286
     0
287
     3
288
     0
  0
DIMSTYLE
105
234
100
AcDbSymbolTableRecord
100
AcDbDimStyleTableRecord
  2
TOLL-04
 70
     0
  3

  4

  5

  6

  7

 40
1.0
 41
2.5
 42
0.625
 43
3.75
 44
1.25
 45
0.0
 46
0.0
 47
0.05
 48
0.05
140
3.0
141
2.5
142
0.0
143
0.03937
144
1.0
145
0.0
146
0.8
147
0.625
 71
     1
 72
     0
 73
     0
 74
     0
 75
     0
 76
     0
 77
     1
 78
     8
170
     0
171
     2
172
     0
173
     0
174
     0
175
     0
176
     0
177
     0
178
     0
270
     2
271
     2
272
     2
273
     2
274
     2
340
10
275
     0
280
     0
281
     0
282
     0
283
     2
284
     8
285
     0
286
     0
287
     3
288
     0
  0
DIMSTYLE
105
235
100
AcDbSymbolTableRecord
100
AcDbDimStyleTableRecord
  2
TOLL-05
 70
     0
  3

  4

  5

  6

  7

 40
1.0
 41
2.5
 42
0.625
 43
3.75
 44
1.25
 45
0.0
 46
0.0
 47
0.05
 48
0.0
140
3.0
141
2.5
142
0.0
143
0.03937
144
1.0
145
0.0
146
0.8
147
0.625
 71
     1
 72
     0
 73
     0
 74
     0
 75
     0
 76
     0
 77
     1
 78
     8
170
     0
171
     2
172
     0
173
     0
174
     0
175
     0
176
     0
177
     0
178
     0
270
     2
271
     2
272
     2
273
     2
274
     2
340
10
275
     0
280
     0
281
     0
282
     0
283
     2
284
     8
285
     0
286
     0
287
     3
288
     0
  0
DIMSTYLE
105
247
100
AcDbSymbolTableRecord
100
AcDbDimStyleTableRecord
  2
TOLL-07
 70
     0
  3

  4

  5

  6

  7

 40
1.0
 41
2.5
 42
0.625
 43
3.75
 44
1.25
 45
0.0
 46
0.0
 47
0.1
 48
0.1
140
3.0
141
2.5
142
0.0
143
0.03937
144
1.0
145
0.0
146
1.0
147
0.625
 71
     1
 72
     0
 73
     0
 74
     0
 75
     0
 76
     0
 77
     1
 78
     8
170
     0
171
     2
172
     0
173
     0
174
     0
175
     0
176
     0
177
     0
178
     0
270
     2
271
     2
272
     2
273
     2
274
     2
340
10
275
     0
280
     0
281
     0
282
     0
283
     1
284
     8
285
     0
286
     0
287
     3
288
     0
  0
DIMSTYLE
105
251
100
AcDbSymbolTableRecord
100
AcDbDimStyleTableRecord
  2
TOLL-08
 70
     0
  3

  4

  5

  6

  7

 40
1.0
 41
2.5
 42
0.625
 43
3.75
 44
1.25
 45
0.0
 46
0.0
 47
0.1
 48
0.0
140
3.0
141
2.5
142
0.0
143
0.03937
144
1.0
145
0.0
146
1.0
147
0.625
 71
     1
 72
     0
 73
     0
 74
     0
 75
     0
 76
     0
 77
     1
 78
     8
170
     0
171
     2
172
     0
173
     0
174
     0
175
     0
176
     0
177
     0
178
     0
270
     2
271
     2
272
     2
273
     2
274
     2
340
10
275
     0
280
     0
281
     0
282
     0
283
     1
284
     8
285
     0
286
     0
287
     3
288
     0
  0
DIMSTYLE
105
257
100
AcDbSymbolTableRecord
100
AcDbDimStyleTableRecord
  2
TOLL-09
 70
     0
  3

  4

  5

  6

  7

 40
1.0
 41
2.5
 42
0.625
 43
3.75
 44
1.25
 45
0.0
 46
0.0
 47
-0.1
 48
0.0
140
3.0
141
2.5
142
0.0
143
0.03937
144
1.0
145
0.0
146
1.0
147
0.625
 71
     1
 72
     0
 73
     0
 74
     0
 75
     0
 76
     0
 77
     1
 78
     8
170
     0
171
     2
172
     0
173
     0
174
     0
175
     0
176
     0
177
     0
178
     0
270
     2
271
     2
272
     2
273
     2
274
     2
340
10
275
     0
280
     0
281
     0
282
     0
283
     1
284
     8
285
     0
286
     0
287
     3
288
     0
  0
DIMSTYLE
105
258
100
AcDbSymbolTableRecord
100
AcDbDimStyleTableRecord
  2
TOLL-10
 70
     0
  3

  4

  5

  6

  7

 40
1.0
 41
2.5
 42
0.625
 43
3.75
 44
1.25
 45
0.0
 46
0.0
 47
0.2
 48
0.2
140
3.0
141
2.5
142
0.0
143
0.03937
144
1.0
145
0.0
146
1.0
147
0.625
 71
     1
 72
     0
 73
     0
 74
     0
 75
     0
 76
     0
 77
     1
 78
     8
170
     0
171
     2
172
     0
173
     0
174
     0
175
     0
176
     0
177
     0
178
     0
270
     2
271
     2
272
     2
273
     2
274
     2
340
10
275
     0
280
     0
281
     0
282
     0
283
     1
284
     8
285
     0
286
     0
287
     3
288
     0
  0
DIMSTYLE
105
259
100
AcDbSymbolTableRecord
100
AcDbDimStyleTableRecord
  2
TOLL-11
 70
     0
  3

  4

  5

  6

  7

 40
1.0
 41
2.5
 42
0.625
 43
3.75
 44
1.25
 45
0.0
 46
0.0
 47
0.2
 48
0.0
140
3.0
141
2.5
142
0.0
143
0.03937
144
1.0
145
0.0
146
1.0
147
0.625
 71
     1
 72
     0
 73
     0
 74
     0
 75
     0
 76
     0
 77
     1
 78
     8
170
     0
171
     2
172
     0
173
     0
174
     0
175
     0
176
     0
177
     0
178
     0
270
     2
271
     2
272
     2
273
     2
274
     2
340
10
275
     0
280
     0
281
     0
282
     0
283
     1
284
     8
285
     0
286
     0
287
     3
288
     0
  0
DIMSTYLE
105
4A7
100
AcDbSymbolTableRecord
100
AcDbDimStyleTableRecord
  2
ISO-25
 70
     0
  3

  4

  5

  6

  7

 40
1.0
 41
2.5
 42
0.625
 43
3.75
 44
1.25
 45
0.0
 46
0.0
 47
0.0
 48
0.0
140
2.5
141
2.5
142
0.0
143
0.0394
144
1.0
145
1.0
146
1.0
147
0.625
 71
     0
 72
     0
 73
     1
 74
     0
 75
     0
 76
     0
 77
     1
 78
     8
170
     0
171
     2
172
     1
173
     0
174
     0
175
     0
176
     0
177
     0
178
     0
270
     2
271
     4
272
     4
273
     2
274
     2
340
10
275
     0
280
     0
281
     0
282
     0
283
     1
284
     0
285
     0
286
     0
287
     3
288
     0
  0
ENDTAB
  0
TABLE
  2
BLOCK_RECORD
  5
1
100
AcDbSymbolTable
 70
    86
  0
BLOCK_RECORD
  5
19
100
AcDbSymbolTableRecord
100
AcDbBlockTableRecord
  2
*MODEL_SPACE
  0
BLOCK_RECORD
  5
16
100
AcDbSymbolTableRecord
100
AcDbBlockTableRecord
  2
*PAPER_SPACE
  0
BLOCK_RECORD
  5
3A2
100
AcDbSymbolTableRecord
100
AcDbBlockTableRecord
  2
RUGOSITA
  0
BLOCK_RECORD
  5
4A8
100
AcDbSymbolTableRecord
100
AcDbBlockTableRecord
  2
A$C52B2
  0
BLOCK_RECORD
  5
594
100
AcDbSymbolTableRecord
100
AcDbBlockTableRecord
  2
*D2
  0
BLOCK_RECORD
  5
5AC
100
AcDbSymbolTableRecord
100
AcDbBlockTableRecord
  2
*D3
  0
BLOCK_RECORD
  5
5B9
100
AcDbSymbolTableRecord
100
AcDbBlockTableRecord
  2
*D4
  0
BLOCK_RECORD
  5
5E9
100
AcDbSymbolTableRecord
100
AcDbBlockTableRecord
  2
*D5
  0
BLOCK_RECORD
  5
60C
100
AcDbSymbolTableRecord
100
AcDbBlockTableRecord
  2
*D6
  0
BLOCK_RECORD
  5
619
100
AcDbSymbolTableRecord
100
AcDbBlockTableRecord
  2
*D7
  0
BLOCK_RECORD
  5
627
100
AcDbSymbolTableRecord
100
AcDbBlockTableRecord
  2
*D8
  0
BLOCK_RECORD
  5
66E
100
AcDbSymbolTableRecord
100
AcDbBlockTableRecord
  2
*D9
  0
BLOCK_RECORD
  5
68D
100
AcDbSymbolTableRecord
100
AcDbBlockTableRecord
  2
*D10
  0
BLOCK_RECORD
  5
6A2
100
AcDbSymbolTableRecord
100
AcDbBlockTableRecord
  2
*D11
  0
BLOCK_RECORD
  5
6C6
100
AcDbSymbolTableRecord
100
AcDbBlockTableRecord
  2
*D12
  0
BLOCK_RECORD
  5
6E9
100
AcDbSymbolTableRecord
100
AcDbBlockTableRecord
  2
*D13
  0
BLOCK_RECORD
  5
739
100
AcDbSymbolTableRecord
100
AcDbBlockTableRecord
  2
*D14
  0
BLOCK_RECORD
  5
7A8
100
AcDbSymbolTableRecord
100
AcDbBlockTableRecord
  2
*D15
  0
BLOCK_RECORD
  5
7B6
100
AcDbSymbolTableRecord
100
AcDbBlockTableRecord
  2
*D16
  0
BLOCK_RECORD
  5
7D1
100
AcDbSymbolTableRecord
100
AcDbBlockTableRecord
  2
*D17
  0
BLOCK_RECORD
  5
7E0
100
AcDbSymbolTableRecord
100
AcDbBlockTableRecord
  2
*D18
  0
BLOCK_RECORD
  5
7E9
100
AcDbSymbolTableRecord
100
AcDbBlockTableRecord
  2
*D19
  0
BLOCK_RECORD
  5
809
100
AcDbSymbolTableRecord
100
AcDbBlockTableRecord
  2
*D20
  0
BLOCK_RECORD
  5
816
100
AcDbSymbolTableRecord
100
AcDbBlockTableRecord
  2
*D21
  0
BLOCK_RECORD
  5
830
100
AcDbSymbolTableRecord
100
AcDbBlockTableRecord
  2
*D22
  0
BLOCK_RECORD
  5
839
100
AcDbSymbolTableRecord
100
AcDbBlockTableRecord
  2
*D23
  0
BLOCK_RECORD
  5
851
100
AcDbSymbolTableRecord
100
AcDbBlockTableRecord
  2
*D24
  0
BLOCK_RECORD
  5
883
100
AcDbSymbolTableRecord
100
AcDbBlockTableRecord
  2
*D25
  0
BLOCK_RECORD
  5
8A1
100
AcDbSymbolTableRecord
100
AcDbBlockTableRecord
  2
*D26
  0
BLOCK_RECORD
  5
8B9
100
AcDbSymbolTableRecord
100
AcDbBlockTableRecord
  2
*D27
  0
BLOCK_RECORD
  5
8F5
100
AcDbSymbolTableRecord
100
AcDbBlockTableRecord
  2
*X28
  0
BLOCK_RECORD
  5
953
100
AcDbSymbolTableRecord
100
AcDbBlockTableRecord
  2
*D29
  0
BLOCK_RECORD
  5
961
100
AcDbSymbolTableRecord
100
AcDbBlockTableRecord
  2
*D30
  0
BLOCK_RECORD
  5
9CB
100
AcDbSymbolTableRecord
100
AcDbBlockTableRecord
  2
*D31
  0
BLOCK_RECORD
  5
A04
100
AcDbSymbolTableRecord
100
AcDbBlockTableRecord
  2
*D32
  0
BLOCK_RECORD
  5
E00
100
AcDbSymbolTableRecord
100
AcDbBlockTableRecord
  2
*D33
  0
BLOCK_RECORD
  5
EAB
100
AcDbSymbolTableRecord
100
AcDbBlockTableRecord
  2
*D34
  0
BLOCK_RECORD
  5
EB4
100
AcDbSymbolTableRecord
100
AcDbBlockTableRecord
  2
*D35
  0
BLOCK_RECORD
  5
EBD
100
AcDbSymbolTableRecord
100
AcDbBlockTableRecord
  2
*D36
  0
BLOCK_RECORD
  5
ECA
100
AcDbSymbolTableRecord
100
AcDbBlockTableRecord
  2
*D37
  0
BLOCK_RECORD
  5
ED7
100
AcDbSymbolTableRecord
100
AcDbBlockTableRecord
  2
*D38
  0
BLOCK_RECORD
  5
EE5
100
AcDbSymbolTableRecord
100
AcDbBlockTableRecord
  2
*D39
  0
BLOCK_RECORD
  5
F35
100
AcDbSymbolTableRecord
100
AcDbBlockTableRecord
  2
*D40
  0
BLOCK_RECORD
  5
F42
100
AcDbSymbolTableRecord
100
AcDbBlockTableRecord
  2
*D41
  0
BLOCK_RECORD
  5
F58
100
AcDbSymbolTableRecord
100
AcDbBlockTableRecord
  2
*D42
  0
BLOCK_RECORD
  5
F65
100
AcDbSymbolTableRecord
100
AcDbBlockTableRecord
  2
*D43
  0
BLOCK_RECORD
  5
F72
100
AcDbSymbolTableRecord
100
AcDbBlockTableRecord
  2
*D44
  0
BLOCK_RECORD
  5
F7F
100
AcDbSymbolTableRecord
100
AcDbBlockTableRecord
  2
*D45
  0
BLOCK_RECORD
  5
101D
100
AcDbSymbolTableRecord
100
AcDbBlockTableRecord
  2
*D46
  0
BLOCK_RECORD
  5
1036
100
AcDbSymbolTableRecord
100
AcDbBlockTableRecord
  2
*D47
  0
BLOCK_RECORD
  5
1043
100
AcDbSymbolTableRecord
100
AcDbBlockTableRecord
  2
*D48
  0
BLOCK_RECORD
  5
1050
100
AcDbSymbolTableRecord
100
AcDbBlockTableRecord
  2
*D49
  0
BLOCK_RECORD
  5
1073
100
AcDbSymbolTableRecord
100
AcDbBlockTableRecord
  2
*D50
  0
BLOCK_RECORD
  5
1080
100
AcDbSymbolTableRecord
100
AcDbBlockTableRecord
  2
*D51
  0
BLOCK_RECORD
  5
108D
100
AcDbSymbolTableRecord
100
AcDbBlockTableRecord
  2
*D52
  0
BLOCK_RECORD
  5
10BD
100
AcDbSymbolTableRecord
100
AcDbBlockTableRecord
  2
*D53
  0
BLOCK_RECORD
  5
10E2
100
AcDbSymbolTableRecord
100
AcDbBlockTableRecord
  2
*D54
  0
BLOCK_RECORD
  5
114A
100
AcDbSymbolTableRecord
100
AcDbBlockTableRecord
  2
*D55
  0
BLOCK_RECORD
  5
1178
100
AcDbSymbolTableRecord
100
AcDbBlockTableRecord
  2
*D56
  0
BLOCK_RECORD
  5
1185
100
AcDbSymbolTableRecord
100
AcDbBlockTableRecord
  2
*D57
  0
BLOCK_RECORD
  5
11F5
100
AcDbSymbolTableRecord
100
AcDbBlockTableRecord
  2
*D58
  0
BLOCK_RECORD
  5
1202
100
AcDbSymbolTableRecord
100
AcDbBlockTableRecord
  2
*D59
  0
BLOCK_RECORD
  5
120B
100
AcDbSymbolTableRecord
100
AcDbBlockTableRecord
  2
*D60
  0
BLOCK_RECORD
  5
1214
100
AcDbSymbolTableRecord
100
AcDbBlockTableRecord
  2
*D61
  0
BLOCK_RECORD
  5
122C
100
AcDbSymbolTableRecord
100
AcDbBlockTableRecord
  2
*D62
  0
BLOCK_RECORD
  5
123A
100
AcDbSymbolTableRecord
100
AcDbBlockTableRecord
  2
*D63
  0
BLOCK_RECORD
  5
1248
100
AcDbSymbolTableRecord
100
AcDbBlockTableRecord
  2
*D64
  0
BLOCK_RECORD
  5
1315
100
AcDbSymbolTableRecord
100
AcDbBlockTableRecord
  2
*X65
  0
BLOCK_RECORD
  5
1350
100
AcDbSymbolTableRecord
100
AcDbBlockTableRecord
  2
*D66
  0
BLOCK_RECORD
  5
135E
100
AcDbSymbolTableRecord
100
AcDbBlockTableRecord
  2
*D67
  0
BLOCK_RECORD
  5
1378
100
AcDbSymbolTableRecord
100
AcDbBlockTableRecord
  2
*D68
  0
BLOCK_RECORD
  5
1387
100
AcDbSymbolTableRecord
100
AcDbBlockTableRecord
  2
*D69
  0
BLOCK_RECORD
  5
1417
100
AcDbSymbolTableRecord
100
AcDbBlockTableRecord
  2
*D70
  0
BLOCK_RECORD
  5
146B
100
AcDbSymbolTableRecord
100
AcDbBlockTableRecord
  2
*D71
  0
BLOCK_RECORD
  5
14DC
100
AcDbSymbolTableRecord
100
AcDbBlockTableRecord
  2
A$C2374
  0
BLOCK_RECORD
  5
14F5
100
AcDbSymbolTableRecord
100
AcDbBlockTableRecord
  2
*D73
  0
BLOCK_RECORD
  5
1502
100
AcDbSymbolTableRecord
100
AcDbBlockTableRecord
  2
*D74
  0
BLOCK_RECORD
  5
1510
100
AcDbSymbolTableRecord
100
AcDbBlockTableRecord
  2
*D75
  0
BLOCK_RECORD
  5
151D
100
AcDbSymbolTableRecord
100
AcDbBlockTableRecord
  2
*D76
  0
BLOCK_RECORD
  5
152A
100
AcDbSymbolTableRecord
100
AcDbBlockTableRecord
  2
*D77
  0
BLOCK_RECORD
  5
1538
100
AcDbSymbolTableRecord
100
AcDbBlockTableRecord
  2
*D78
  0
BLOCK_RECORD
  5
1546
100
AcDbSymbolTableRecord
100
AcDbBlockTableRecord
  2
*D79
  0
BLOCK_RECORD
  5
1554
100
AcDbSymbolTableRecord
100
AcDbBlockTableRecord
  2
*D80
  0
BLOCK_RECORD
  5
1561
100
AcDbSymbolTableRecord
100
AcDbBlockTableRecord
  2
A$CD226
  0
BLOCK_RECORD
  5
15E1
100
AcDbSymbolTableRecord
100
AcDbBlockTableRecord
  2
A$CD363
  0
BLOCK_RECORD
  5
15ED
100
AcDbSymbolTableRecord
100
AcDbBlockTableRecord
  2
A$CB2C1
  0
BLOCK_RECORD
  5
15F2
100
AcDbSymbolTableRecord
100
AcDbBlockTableRecord
  2
A$C65
  0
BLOCK_RECORD
  5
16AB
100
AcDbSymbolTableRecord
100
AcDbBlockTableRecord
  2
*D85
  0
ENDTAB
  0
ENDSEC
  0
SECTION
  2
BLOCKS
  0
BLOCK
  5
1A
100
AcDbEntity
  8
0
100
AcDbBlockBegin
  2
*MODEL_SPACE
 70
     0
 10
0.0
 20
0.0
 30
0.0
  3
*MODEL_SPACE
  1

  0
ENDBLK
  5
1B
100
AcDbEntity
  8
0
100
AcDbBlockEnd
  0
BLOCK
  5
17
100
AcDbEntity
 67
     1
  8
0
100
AcDbBlockBegin
  2
*PAPER_SPACE
 70
     0
 10
0.0
 20
0.0
 30
0.0
  3
*PAPER_SPACE
  1

  0
ENDBLK
  5
18
100
AcDbEntity
 67
     1
  8
0
100
AcDbBlockEnd
  0
BLOCK
  5
3A7
100
AcDbEntity
  8
DISEGNO
100
AcDbBlockBegin
  2
RUGOSITA
 70
     2
 10
0.0
 20
0.0
 30
0.0
  3
RUGOSITA
  1

  0
ATTDEF
  5
3A3
100
AcDbEntity
  8
QUOTE
100
AcDbText
 10
-1.071886
 20
3.214106
 30
0.0
 40
1.5
  1
0.8
100
AcDbAttributeDefinition
  3
CHE RUGOSITA ?
  2
RUGOSITA
 70
     0
  0
LINE
  5
3A4
100
AcDbEntity
  8
QUOTE
100
AcDbLine
 10
0.0
 20
0.0
 30
0.0
 11
4.0
 21
6.928203
 31
0.0
  0
LINE
  5
3A5
100
AcDbEntity
  8
QUOTE
100
AcDbLine
 10
0.0
 20
0.0
 30
0.0
 11
-1.75
 21
3.031089
 31
0.0
  0
LINE
  5
3A6
100
AcDbEntity
  8
QUOTE
100
AcDbLine
 10
-1.75
 20
3.031089
 30
0.0
 11
1.75
 21
3.031089
 31
0.0
  0
ENDBLK
  5
3A8
100
AcDbEntity
  8
DISEGNO
100
AcDbBlockEnd
  0
BLOCK
  5
547
100
AcDbEntity
  8
QUOTE
100
AcDbBlockBegin
  2
A$C52B2
 70
     0
 10
0.0
 20
0.0
 30
0.0
  3
A$C52B2
  1

  0
LINE
  5
4A9
100
AcDbEntity
  8
TABELLA
  6
CONTINUOUS
100
AcDbLine
 10
100.781064
 20
5.387067
 30
0.0
 11
103.281064
 21
0.387067
 31
0.0
  0
LINE
  5
4AA
100
AcDbEntity
  8
TABELLA
  6
CONTINUOUS
100
AcDbLine
 10
100.781064
 20
0.387067
 30
0.0
 11
103.281064
 21
0.387067
 31
0.0
  0
LINE
  5
4AB
100
AcDbEntity
  8
TABELLA
  6
CONTINUOUS
100
AcDbLine
 10
103.281064
 20
287.387067
 30
0.0
 11
100.781064
 21
282.387067
 31
0.0
  0
LINE
  5
4AC
100
AcDbEntity
  8
TABELLA
  6
CONTINUOUS
100
AcDbLine
 10
100.781064
 20
287.387067
 30
0.0
 11
103.281064
 21
287.387067
 31
0.0
  0
TEXT
  5
4AD
100
AcDbEntity
  8
TABELLA
  6
CONTINUOUS
100
AcDbText
 10
83.891226
 20
14.123583
 30
0.0
 40
6.0
  1
ROLLERI
100
AcDbText
  0
LINE
  5
4AE
100
AcDbEntity
  8
TABELLA
  6
CONTINUOUS
100
AcDbLine
 10
115.706968
 20
22.612261
 30
0.0
 11
84.107383
 21
22.612261
 31
0.0
1001
ACAD
1000
ASC_BOUNDS
1002
{
1070
    19
1002
}
  0
LINE
  5
4AF
100
AcDbEntity
  8
TABELLA
  6
CONTINUOUS
100
AcDbLine
 10
82.055262
 20
11.456564
 30
0.0
 11
113.654847
 21
11.456564
 31
0.0
1001
ACAD
1000
ASC_BOUNDS
1002
{
1070
    19
1002
}
  0
LINE
  5
4B0
100
AcDbEntity
  8
TABELLA
  6
CONTINUOUS
100
AcDbLine
 10
116.407176
 20
23.612261
 30
0.0
 11
83.407176
 21
23.612261
 31
0.0
1001
ACAD
1000
ASC_BOUNDS
1002
{
1070
    19
1002
}
  0
LINE
  5
4B1
100
AcDbEntity
  8
TABELLA
  6
CONTINUOUS
100
AcDbLine
 10
81.355055
 20
10.456564
 30
0.0
 11
114.355055
 21
10.456564
 31
0.0
1001
ACAD
1000
ASC_BOUNDS
1002
{
1070
    19
1002
}
  0
TEXT
  5
4B2
100
AcDbEntity
  8
TABELLA
  6
CONTINUOUS
100
AcDbText
 10
79.770815
 20
6.679292
 30
0.0
 40
2.0
  1
Vigolzone ( Piacenza ) - ITALIA
100
AcDbText
  0
LINE
  5
4B3
100
AcDbEntity
  8
TABELLA
  6
CONTINUOUS
100
AcDbLine
 10
125.782064
 20
35.387067
 30
0.0
 11
75.782064
 21
35.387067
 31
0.0
  0
LINE
  5
4B4
100
AcDbEntity
  8
TABELLA
  6
CONTINUOUS
100
AcDbLine
 10
195.782064
 20
45.387067
 30
0.0
 11
5.697058
 21
45.395351
 31
0.0
  0
LINE
  5
4B5
100
AcDbEntity
  8
TABELLA
  6
CONTINUOUS
100
AcDbLine
 10
125.782064
 20
25.387067
 30
0.0
 11
75.782064
 21
25.387067
 31
0.0
  0
LINE
  5
4B6
100
AcDbEntity
  8
TABELLA
  6
CONTINUOUS
100
AcDbLine
 10
195.782064
 20
5.387067
 30
0.0
 11
5.782064
 21
5.387067
 31
0.0
  0
LINE
  5
4B7
100
AcDbEntity
  8
TABELLA
  6
CONTINUOUS
100
AcDbLine
 10
5.782064
 20
282.387067
 30
0.0
 11
195.782064
 21
282.387067
 31
0.0
  0
LINE
  5
4B8
100
AcDbEntity
  8
TABELLA
  6
CONTINUOUS
100
AcDbLine
 10
5.782064
 20
143.887067
 30
0.0
 11
0.782064
 21
141.387067
 31
0.0
  0
LINE
  5
4B9
100
AcDbEntity
  8
TABELLA
  6
CONTINUOUS
100
AcDbLine
 10
0.782064
 20
143.887067
 30
0.0
 11
0.782064
 21
141.387067
 31
0.0
  0
LINE
  5
4BA
100
AcDbEntity
  8
TABELLA
  6
CONTINUOUS
100
AcDbLine
 10
5.782064
 20
5.387067
 30
0.0
 11
5.782064
 21
282.387067
 31
0.0
  0
POLYLINE
  5
4BB
100
AcDbEntity
  8
QUOTE
100
AcDb2dPolyline
 66
     1
 10
0.0
 20
0.0
 30
0.0
 70
     1
  0
VERTEX
  5
4BC
100
AcDbEntity
  8
QUOTE
100
AcDbVertex
100
AcDb2dVertex
 10
11.507487
 20
62.582414
 30
0.0
  0
VERTEX
  5
4BD
100
AcDbEntity
  8
QUOTE
100
AcDbVertex
100
AcDb2dVertex
 10
11.507487
 20
49.867806
 30
0.0
  0
VERTEX
  5
4BE
100
AcDbEntity
  8
QUOTE
100
AcDbVertex
100
AcDb2dVertex
 10
52.626527
 20
49.867806
 30
0.0
  0
VERTEX
  5
4BF
100
AcDbEntity
  8
QUOTE
100
AcDbVertex
100
AcDb2dVertex
 10
52.626527
 20
62.582414
 30
0.0
  0
SEQEND
  5
4C0
100
AcDbEntity
  8
QUOTE
  0
TOLERANCE
  5
4C1
100
AcDbEntity
  8
QUOTE
  6
CONTINUOUS
100
AcDbFcf
  3
ISO-25
 10
30.863585
 20
54.182522
 30
0.0
  1
{\Fgdt;u}%%v0.02%%v%%v%%v%%v
1001
ACAD
1000
DSTYLE
1002
{
1070
   140
1040
2.6
1070
    47
1040
0.02
1070
    73
1070
     0
1070
   272
1070
     2
1070
   147
1040
0.53
1070
    42
1040
0.5261
1070
    44
1040
1.0522
1070
    43
1040
3.1566
1070
   271
1070
     2
1070
   141
1040
2.1044
1070
    41
1040
2.6
1002
}
  0
TEXT
  5
4C2
100
AcDbEntity
  8
QUOTE
100
AcDbText
 10
12.101072
 20
58.118453
 30
0.0
 40
2.5
  1
TOLLERANZE AL METRO
 41
1.1
100
AcDbText
  0
TEXT
  5
4C3
100
AcDbEntity
  8
TABELLA
  6
CONTINUOUS
100
AcDbText
 10
7.271803
 20
15.7314
 30
0.0
 40
2.0
  1
- Angoli su superfici lavorate = +/- 30'
100
AcDbText
  0
TEXT
  5
4C4
100
AcDbEntity
  8
TABELLA
  6
CONTINUOUS
100
AcDbText
 10
7.271803
 20
23.3314
 30
0.0
 40
2.0
  1
   da mm 151 a mm 500 = +/- 0.4
100
AcDbText
  0
TEXT
  5
4C5
100
AcDbEntity
  8
TABELLA
  6
CONTINUOUS
100
AcDbText
 10
7.271803
 20
27.1314
 30
0.0
 40
2.0
  1
   da mm 51 a mm 150 = +/- 0.3
100
AcDbText
  0
TEXT
  5
4C6
100
AcDbEntity
  8
TABELLA
  6
CONTINUOUS
100
AcDbText
 10
7.271803
 20
30.9314
 30
0.0
 40
2.0
  1
- Superfici lavorate da mm 1 a mm 50 = +/- 0.2
100
AcDbText
  0
TEXT
  5
4C7
100
AcDbEntity
  8
TABELLA
  6
CONTINUOUS
100
AcDbText
 10
7.271803
 20
34.7314
 30
0.0
 40
2.0
  1
- Parti fuse con spessori >10 mm = +/- 10%
100
AcDbText
  0
TEXT
  5
4C8
100
AcDbEntity
  8
TABELLA
  6
CONTINUOUS
100
AcDbText
 10
7.271803
 20
38.5314
 30
0.0
 40
2.0
  1
- Parti fuse con spessori <10 mm = +/- 1 mm
100
AcDbText
  0
TOLERANCE
  5
4C9
100
AcDbEntity
  8
QUOTE
  6
CONTINUOUS
100
AcDbFcf
  3
ISO-25
 10
15.305627
 20
54.182522
 30
0.0
  1
{\Fgdt;b}%%v0.02%%v%%v%%v%%v
1001
ACAD
1000
DSTYLE
1002
{
1070
   140
1040
2.6
1070
    47
1040
0.02
1070
    73
1070
     0
1070
   272
1070
     2
1070
   147
1040
0.53
1070
    42
1040
0.5261
1070
    44
1040
1.0522
1070
    43
1040
3.1566
1070
   271
1070
     2
1070
   141
1040
2.1044
1070
    41
1040
2.6
1002
}
  0
TEXT
  5
4CA
100
AcDbEntity
  8
TABELLA
  6
CONTINUOUS
100
AcDbText
 10
0.769342
 20
51.259863
 30
0.0
 40
4.0
  1
B
100
AcDbText
  0
TEXT
  5
4CB
100
AcDbEntity
  8
TABELLA
  6
CONTINUOUS
100
AcDbText
 10
0.353187
 20
15.100813
 30
0.0
 40
4.0
  1
A
100
AcDbText
  0
LINE
  5
4CC
100
AcDbEntity
  8
TABELLA
  6
CONTINUOUS
100
AcDbLine
 10
5.782064
 20
36.262067
 30
0.0
 11
0.782064
 21
36.262067
 31
0.0
  0
TEXT
  5
4CD
100
AcDbEntity
  8
TABELLA
  6
CONTINUOUS
100
AcDbText
 10
15.583223
 20
0.138446
 30
0.0
 40
4.0
  1
6
100
AcDbText
  0
LINE
  5
4CE
100
AcDbEntity
  8
TABELLA
  6
CONTINUOUS
100
AcDbLine
 10
34.115064
 20
5.387067
 30
0.0
 11
34.115064
 21
0.387067
 31
0.0
  0
TEXT
  5
4CF
100
AcDbEntity
  8
TABELLA
  6
CONTINUOUS
100
AcDbText
 10
7.271803
 20
11.9314
 30
0.0
 40
2.0
  1
- Interassi fori = +/- 0.25
100
AcDbText
  0
TEXT
  5
4D0
100
AcDbEntity
  8
TABELLA
  6
CONTINUOUS
100
AcDbText
 10
7.271803
 20
19.5314
 30
0.0
 40
2.0
  1
   oltre 500 mm = +/- 0.5
100
AcDbText
  0
TEXT
  5
4D1
100
AcDbEntity
  8
TABELLA
  6
CONTINUOUS
100
AcDbText
 10
7.271803
 20
42.3314
 30
0.0
 40
2.0
  1
TOLLERANZE GENERALI :
100
AcDbText
  0
LINE
  5
4D2
100
AcDbEntity
  8
TABELLA
  6
CONTINUOUS
100
AcDbLine
 10
5.782064
 20
72.137067
 30
0.0
 11
0.782064
 21
72.137067
 31
0.0
  0
TEXT
  5
4D3
100
AcDbEntity
  8
TABELLA
  6
CONTINUOUS
100
AcDbText
 10
0.769342
 20
87.459725
 30
0.0
 40
4.0
  1
C
100
AcDbText
  0
LINE
  5
4D4
100
AcDbEntity
  8
TABELLA
  6
CONTINUOUS
100
AcDbLine
 10
5.782064
 20
108.012067
 30
0.0
 11
0.782064
 21
108.012067
 31
0.0
  0
TEXT
  5
4D5
100
AcDbEntity
  8
TABELLA
  6
CONTINUOUS
100
AcDbText
 10
0.769342
 20
124.034397
 30
0.0
 40
4.0
  1
D
100
AcDbText
  0
LINE
  5
4D6
100
AcDbEntity
  8
TABELLA
  6
CONTINUOUS
100
AcDbLine
 10
65.792444
 20
45.394891
 30
0.0
 11
65.782064
 21
5.389662
 31
0.0
  0
TEXT
  5
4D7
100
AcDbEntity
  8
TABELLA
  6
CONTINUOUS
100
AcDbText
 10
68.438556
 20
7.454028
 30
0.0
 40
1.5
  1
A termine di legge la Rolleri si riserva la
 50
90.0
100
AcDbText
  0
TEXT
  5
4D8
100
AcDbEntity
  8
TABELLA
  6
CONTINUOUS
100
AcDbText
 10
49.29176
 20
0.138446
 30
0.0
 40
4.0
  1
5
100
AcDbText
  0
LINE
  5
4D9
100
AcDbEntity
  8
TABELLA
  6
CONTINUOUS
100
AcDbLine
 10
67.448064
 20
5.387067
 30
0.0
 11
67.448064
 21
0.387067
 31
0.0
  0
LINE
  5
4DA
100
AcDbEntity
  8
TABELLA
  6
CONTINUOUS
100
AcDbLine
 10
75.792442
 20
45.387067
 30
0.0
 11
75.792442
 21
5.387067
 31
0.0
  0
TEXT
  5
4DB
100
AcDbEntity
  8
TABELLA
  6
CONTINUOUS
100
AcDbText
 10
74.138556
 20
7.454028
 30
0.0
 40
1.5
  1
di riprodurlo e di comunicarlo a terzi.
 50
90.0
100
AcDbText
  0
TEXT
  5
4DC
100
AcDbEntity
  8
TABELLA
  6
CONTINUOUS
100
AcDbText
 10
71.288556
 20
7.454028
 30
0.0
 40
1.5
  1
proprietà di questo disegno, con divieto
 50
90.0
100
AcDbText
  0
TEXT
  5
4DD
100
AcDbEntity
  8
TABELLA
  6
CONTINUOUS
100
AcDbText
 10
83.416451
 20
0.554068
 30
0.0
 40
4.0
  1
4
100
AcDbText
  0
LINE
  5
4DE
100
AcDbEntity
  8
TABELLA
  6
CONTINUOUS
100
AcDbLine
 10
98.281064
 20
0.387067
 30
0.0
 11
100.781064
 21
5.387067
 31
0.0
  0
LINE
  5
4DF
100
AcDbEntity
  8
TABELLA
  6
CONTINUOUS
100
AcDbLine
 10
100.781064
 20
5.387067
 30
0.0
 11
100.781064
 21
0.387067
 31
0.0
  0
LINE
  5
4E0
100
AcDbEntity
  8
TABELLA
  6
CONTINUOUS
100
AcDbLine
 10
100.781064
 20
0.387067
 30
0.0
 11
98.281064
 21
0.387067
 31
0.0
  0
TEXT
  5
4E1
100
AcDbEntity
  8
TABELLA
  6
CONTINUOUS
100
AcDbText
 10
77.180326
 20
42.484843
 30
0.0
 40
2.0
  1
Materiale
100
AcDbText
  0
TEXT
  5
4E2
100
AcDbEntity
  8
TABELLA
  6
CONTINUOUS
100
AcDbText
 10
76.949018
 20
32.320687
 30
0.0
 40
2.0
  1
Disegnato da
100
AcDbText
  0
LINE
  5
4E3
100
AcDbEntity
  8
TABELLA
  6
CONTINUOUS
100
AcDbLine
 10
84.107383
 20
22.612261
 30
0.0
 11
81.051152
 21
14.215335
 31
0.0
1001
ACAD
1000
ASC_BOUNDS
1002
{
1070
    19
1002
}
  0
LINE
  5
4E4
100
AcDbEntity
  8
TABELLA
  6
CONTINUOUS
100
AcDbLine
 10
83.407176
 20
23.612261
 30
0.0
 11
79.986974
 21
14.215335
 31
0.0
1001
ACAD
1000
ASC_BOUNDS
1002
{
1070
    19
1002
}
  0
LINE
  5
4E5
100
AcDbEntity
  8
TABELLA
  6
CONTINUOUS
100
AcDbLine
 10
81.051152
 20
14.215335
 30
0.0
 11
82.055262
 21
11.456564
 31
0.0
1001
ACAD
1000
ASC_BOUNDS
1002
{
1070
    19
1002
}
  0
LINE
  5
4E6
100
AcDbEntity
  8
TABELLA
  6
CONTINUOUS
100
AcDbLine
 10
79.986974
 20
14.215335
 30
0.0
 11
81.355055
 21
10.456564
 31
0.0
1001
ACAD
1000
ASC_BOUNDS
1002
{
1070
    19
1002
}
  0
LINE
  5
4E7
100
AcDbEntity
  8
TABELLA
  6
CONTINUOUS
100
AcDbLine
 10
100.782064
 20
35.387067
 30
0.0
 11
100.782064
 21
25.387067
 31
0.0
  0
TEXT
  5
4E8
100
AcDbEntity
  8
TABELLA
  6
CONTINUOUS
100
AcDbText
 10
1.185497
 20
230.800736
 30
0.0
 40
4.0
  1
G
100
AcDbText
  0
LINE
  5
4E9
100
AcDbEntity
  8
TABELLA
  6
CONTINUOUS
100
AcDbLine
 10
0.782064
 20
146.387067
 30
0.0
 11
5.782064
 21
143.887067
 31
0.0
  0
LINE
  5
4EA
100
AcDbEntity
  8
TABELLA
  6
CONTINUOUS
100
AcDbLine
 10
5.782064
 20
143.887067
 30
0.0
 11
0.782064
 21
143.887067
 31
0.0
  0
LINE
  5
4EB
100
AcDbEntity
  8
TABELLA
  6
CONTINUOUS
100
AcDbLine
 10
0.782064
 20
143.887067
 30
0.0
 11
0.782064
 21
146.387067
 31
0.0
  0
TEXT
  5
4EC
100
AcDbEntity
  8
TABELLA
  6
CONTINUOUS
100
AcDbText
 10
1.601651
 20
158.319393
 30
0.0
 40
4.0
  1
E
100
AcDbText
  0
LINE
  5
4ED
100
AcDbEntity
  8
TABELLA
  6
CONTINUOUS
100
AcDbLine
 10
5.782064
 20
179.762067
 30
0.0
 11
0.782064
 21
179.762067
 31
0.0
  0
TEXT
  5
4EE
100
AcDbEntity
  8
TABELLA
  6
CONTINUOUS
100
AcDbText
 10
1.185497
 20
195.309687
 30
0.0
 40
4.0
  1
F
100
AcDbText
  0
LINE
  5
4EF
100
AcDbEntity
  8
TABELLA
  6
CONTINUOUS
100
AcDbLine
 10
5.782064
 20
215.637067
 30
0.0
 11
0.782064
 21
215.637067
 31
0.0
  0
LINE
  5
4F0
100
AcDbEntity
  8
TABELLA
  6
CONTINUOUS
100
AcDbLine
 10
5.782064
 20
251.512067
 30
0.0
 11
0.782064
 21
251.512067
 31
0.0
  0
TEXT
  5
4F1
100
AcDbEntity
  8
TABELLA
  6
CONTINUOUS
100
AcDbText
 10
1.185497
 20
268.206651
 30
0.0
 40
4.0
  1
H
100
AcDbText
  0
TEXT
  5
4F2
100
AcDbEntity
  8
TABELLA
  6
CONTINUOUS
100
AcDbText
 10
15.583224
 20
283.209827
 30
0.0
 40
4.0
  1
6
100
AcDbText
  0
LINE
  5
4F3
100
AcDbEntity
  8
TABELLA
  6
CONTINUOUS
100
AcDbLine
 10
34.115064
 20
282.387067
 30
0.0
 11
34.115064
 21
287.387067
 31
0.0
  0
TEXT
  5
4F4
100
AcDbEntity
  8
TABELLA
  6
CONTINUOUS
100
AcDbText
 10
50.12407
 20
283.250638
 30
0.0
 40
4.0
  1
5
100
AcDbText
  0
LINE
  5
4F5
100
AcDbEntity
  8
TABELLA
  6
CONTINUOUS
100
AcDbLine
 10
67.448064
 20
282.387067
 30
0.0
 11
67.448064
 21
287.387067
 31
0.0
  0
TEXT
  5
4F6
100
AcDbEntity
  8
TABELLA
  6
CONTINUOUS
100
AcDbText
 10
83.832607
 20
283.250638
 30
0.0
 40
4.0
  1
4
100
AcDbText
  0
LINE
  5
4F7
100
AcDbEntity
  8
TABELLA
  6
CONTINUOUS
100
AcDbLine
 10
100.781064
 20
282.387067
 30
0.0
 11
98.281064
 21
287.387067
 31
0.0
  0
LINE
  5
4F8
100
AcDbEntity
  8
TABELLA
  6
CONTINUOUS
100
AcDbLine
 10
100.781064
 20
282.387067
 30
0.0
 11
100.781064
 21
287.387067
 31
0.0
  0
LINE
  5
4F9
100
AcDbEntity
  8
TABELLA
  6
CONTINUOUS
100
AcDbLine
 10
100.781064
 20
287.387067
 30
0.0
 11
98.281064
 21
287.387067
 31
0.0
  0
LINE
  5
4FA
100
AcDbEntity
  8
TABELLA
  6
CONTINUOUS
100
AcDbLine
 10
200.782064
 20
141.387067
 30
0.0
 11
195.782064
 21
143.887067
 31
0.0
  0
LINE
  5
4FB
100
AcDbEntity
  8
TABELLA
  6
CONTINUOUS
100
AcDbLine
 10
200.782064
 20
143.887067
 30
0.0
 11
200.782064
 21
141.387067
 31
0.0
  0
LINE
  5
4FC
100
AcDbEntity
  8
TABELLA
  6
CONTINUOUS
100
AcDbLine
 10
191.781227
 20
165.387241
 30
0.0
 11
191.781227
 21
45.387241
 31
0.0
  0
LINE
  5
4FD
100
AcDbEntity
  8
TABELLA
  6
CONTINUOUS
100
AcDbLine
 10
195.782064
 20
5.387067
 30
0.0
 11
195.782064
 21
282.387067
 31
0.0
  0
TEXT
  5
4FE
100
AcDbEntity
  8
TABELLA
  6
CONTINUOUS
100
AcDbText
 10
147.267168
 20
42.484843
 30
0.0
 40
2.0
  1
Trattamento Termico
100
AcDbText
  0
TEXT
  5
4FF
100
AcDbEntity
  8
TABELLA
  6
CONTINUOUS
100
AcDbText
 10
161.83968
 20
32.089683
 30
0.0
 40
2.0
  1
Scala
100
AcDbText
  0
TEXT
  5
500
100
AcDbEntity
  8
TABELLA
  6
CONTINUOUS
100
AcDbText
 10
162.070991
 20
12.223377
 30
0.0
 40
2.0
  1
Data
100
AcDbText
  0
LINE
  5
501
100
AcDbEntity
  8
TABELLA
  6
CONTINUOUS
100
AcDbLine
 10
125.782064
 20
35.387067
 30
0.0
 11
195.782064
 21
35.387067
 31
0.0
  0
LINE
  5
502
100
AcDbEntity
  8
TABELLA
  6
CONTINUOUS
100
AcDbLine
 10
125.782064
 20
25.387067
 30
0.0
 11
195.782064
 21
25.387067
 31
0.0
  0
LINE
  5
503
100
AcDbEntity
  8
TABELLA
  6
CONTINUOUS
100
AcDbLine
 10
120.666552
 20
15.457427
 30
0.0
 11
195.782064
 21
15.387067
 31
0.0
  0
TEXT
  5
504
100
AcDbEntity
  8
TABELLA
  6
CONTINUOUS
100
AcDbText
 10
116.965597
 20
42.484843
 30
0.0
 40
2.0
  1
Dimensioni di prelievo
100
AcDbText
  0
TEXT
  5
505
100
AcDbEntity
  8
TABELLA
  6
CONTINUOUS
100
AcDbText
 10
126.911915
 20
32.089683
 30
0.0
 40
2.0
  1
Approvato da - data
100
AcDbText
  0
TEXT
  5
506
100
AcDbEntity
  8
TABELLA
  6
CONTINUOUS
100
AcDbText
 10
121.823101
 20
22.387534
 30
0.0
 40
2.0
  1
Particolare
100
AcDbText
  0
LINE
  5
507
100
AcDbEntity
  8
TABELLA
  6
CONTINUOUS
100
AcDbLine
 10
120.782064
 20
15.387067
 30
0.0
 11
120.782064
 21
5.387067
 31
0.0
  0
TEXT
  5
508
100
AcDbEntity
  8
TABELLA
  6
CONTINUOUS
100
AcDbText
 10
116.708833
 20
0.138446
 30
0.0
 40
4.0
  1
3
100
AcDbText
  0
LINE
  5
509
100
AcDbEntity
  8
TABELLA
  6
CONTINUOUS
100
AcDbLine
 10
116.711078
 20
19.853491
 30
0.0
 11
115.706968
 21
22.612261
 31
0.0
1001
ACAD
1000
ASC_BOUNDS
1002
{
1070
    19
1002
}
  0
LINE
  5
50A
100
AcDbEntity
  8
TABELLA
  6
CONTINUOUS
100
AcDbLine
 10
113.654847
 20
11.456564
 30
0.0
 11
116.711078
 21
19.853491
 31
0.0
1001
ACAD
1000
ASC_BOUNDS
1002
{
1070
    19
1002
}
  0
LINE
  5
50B
100
AcDbEntity
  8
TABELLA
  6
CONTINUOUS
100
AcDbLine
 10
114.355055
 20
10.456564
 30
0.0
 11
117.775256
 21
19.853491
 31
0.0
1001
ACAD
1000
ASC_BOUNDS
1002
{
1070
    19
1002
}
  0
TEXT
  5
50C
100
AcDbEntity
  8
TABELLA
  6
CONTINUOUS
100
AcDbText
 10
101.930465
 20
32.089683
 30
0.0
 40
2.0
  1
Controllato da
100
AcDbText
  0
LINE
  5
50D
100
AcDbEntity
  8
TABELLA
  6
CONTINUOUS
100
AcDbLine
 10
115.782064
 20
35.387067
 30
0.0
 11
115.782064
 21
45.387067
 31
0.0
  0
LINE
  5
50E
100
AcDbEntity
  8
TABELLA
  6
CONTINUOUS
100
AcDbLine
 10
125.782064
 20
35.387067
 30
0.0
 11
125.782064
 21
25.387067
 31
0.0
  0
TEXT
  5
50F
100
AcDbEntity
  8
TABELLA
  6
CONTINUOUS
100
AcDbText
 10
121.591791
 20
12.223377
 30
0.0
 40
2.0
  1
Disegno
100
AcDbText
  0
LINE
  5
510
100
AcDbEntity
  8
TABELLA
  6
CONTINUOUS
100
AcDbLine
 10
117.775256
 20
19.853491
 30
0.0
 11
116.407176
 21
23.612261
 31
0.0
1001
ACAD
1000
ASC_BOUNDS
1002
{
1070
    19
1002
}
  0
LINE
  5
511
100
AcDbEntity
  8
TABELLA
  6
CONTINUOUS
100
AcDbLine
 10
120.782064
 20
25.387067
 30
0.0
 11
120.782064
 21
15.387067
 31
0.0
  0
LINE
  5
512
100
AcDbEntity
  8
TABELLA
  6
CONTINUOUS
100
AcDbLine
 10
160.782064
 20
15.387067
 30
0.0
 11
160.782064
 21
5.387067
 31
0.0
  0
LINE
  5
513
100
AcDbEntity
  8
TABELLA
  6
CONTINUOUS
100
AcDbLine
 10
134.114064
 20
5.387067
 30
0.0
 11
134.114064
 21
0.387067
 31
0.0
  0
TEXT
  5
514
100
AcDbEntity
  8
TABELLA
  6
CONTINUOUS
100
AcDbText
 10
150.41737
 20
0.138446
 30
0.0
 40
4.0
  1
2
100
AcDbText
  0
LINE
  5
515
100
AcDbEntity
  8
TABELLA
  6
CONTINUOUS
100
AcDbLine
 10
145.782064
 20
35.387067
 30
0.0
 11
145.782064
 21
45.387067
 31
0.0
  0
LINE
  5
516
100
AcDbEntity
  8
TABELLA
  6
CONTINUOUS
100
AcDbLine
 10
160.782064
 20
35.387067
 30
0.0
 11
160.782064
 21
25.387067
 31
0.0
  0
TEXT
  5
517
100
AcDbEntity
  8
TABELLA
  6
CONTINUOUS
100
AcDbText
 10
197.026704
 20
51.259863
 30
0.0
 40
4.0
  1
B
100
AcDbText
  0
TEXT
  5
518
100
AcDbEntity
  8
TABELLA
  6
CONTINUOUS
100
AcDbText
 10
195.001816
 20
46.303578
 30
0.0
 40
2.0
  1
N° rev.
 50
90.0
100
AcDbText
  0
LINE
  5
519
100
AcDbEntity
  8
TABELLA
  6
CONTINUOUS
100
AcDbLine
 10
176.747411
 20
30.474182
 30
0.0
 11
194.673913
 21
30.474182
 31
0.0
  0
LINE
  5
51A
100
AcDbEntity
  8
TABELLA
  6
CONTINUOUS
100
AcDbLine
 10
180.782064
 20
15.387067
 30
0.0
 11
180.782064
 21
5.387067
 31
0.0
  0
LINE
  5
51B
100
AcDbEntity
  8
TABELLA
  6
CONTINUOUS
100
AcDbLine
 10
167.447064
 20
5.387067
 30
0.0
 11
167.447064
 21
0.387067
 31
0.0
  0
TEXT
  5
51C
100
AcDbEntity
  8
TABELLA
  6
CONTINUOUS
100
AcDbText
 10
184.542061
 20
0.138446
 30
0.0
 40
4.0
  1
1
100
AcDbText
  0
LINE
  5
51D
100
AcDbEntity
  8
TABELLA
  6
CONTINUOUS
100
AcDbLine
 10
176.747411
 20
31.974182
 30
0.0
 11
182.656258
 21
33.016071
 31
0.0
  0
LINE
  5
51E
100
AcDbEntity
  8
TABELLA
  6
CONTINUOUS
100
AcDbLine
 10
176.747411
 20
28.974182
 30
0.0
 11
182.656258
 21
27.932293
 31
0.0
  0
LINE
  5
51F
100
AcDbEntity
  8
TABELLA
  6
CONTINUOUS
100
AcDbLine
 10
176.747411
 20
31.974182
 30
0.0
 11
176.747411
 21
28.974182
 31
0.0
  0
LINE
  5
520
100
AcDbEntity
  8
TABELLA
  6
CONTINUOUS
100
AcDbLine
 10
175.782064
 20
35.387067
 30
0.0
 11
175.782064
 21
25.387067
 31
0.0
  0
CIRCLE
  5
521
100
AcDbEntity
  8
TABELLA
  6
CONTINUOUS
100
AcDbCircle
 10
189.932065
 20
30.474182
 30
0.0
 40
1.5
  0
LINE
  5
522
100
AcDbEntity
  8
TABELLA
  6
CONTINUOUS
100
AcDbLine
 10
189.932065
 20
28.369782
 30
0.0
 11
189.932065
 21
32.578582
 31
0.0
  0
CIRCLE
  5
523
100
AcDbEntity
  8
TABELLA
  6
CONTINUOUS
100
AcDbCircle
 10
189.932065
 20
30.474182
 30
0.0
 40
2.54
  0
LINE
  5
524
100
AcDbEntity
  8
TABELLA
  6
CONTINUOUS
100
AcDbLine
 10
182.656258
 20
33.016071
 30
0.0
 11
182.656258
 21
27.932293
 31
0.0
  0
TEXT
  5
525
100
AcDbEntity
  8
TABELLA
  6
CONTINUOUS
100
AcDbText
 10
181.963625
 20
11.992375
 30
0.0
 40
2.0
  1
Formato
100
AcDbText
  0
LINE
  5
526
100
AcDbEntity
  8
TABELLA
  6
CONTINUOUS
100
AcDbLine
 10
187.827665
 20
30.474182
 30
0.0
 11
192.036465
 21
30.474182
 31
0.0
  0
LINE
  5
527
100
AcDbEntity
  8
TABELLA
  6
CONTINUOUS
100
AcDbLine
 10
195.782064
 20
5.387067
 30
0.0
 11
195.782064
 21
35.387067
 31
0.0
  0
TEXT
  5
528
100
AcDbEntity
  8
TABELLA
  6
CONTINUOUS
100
AcDbText
 10
197.026704
 20
14.685191
 30
0.0
 40
4.0
  1
A
100
AcDbText
  0
LINE
  5
529
100
AcDbEntity
  8
TABELLA
  6
CONTINUOUS
100
AcDbLine
 10
195.782064
 20
36.262067
 30
0.0
 11
200.782064
 21
36.262067
 31
0.0
  0
TEXT
  5
52A
100
AcDbEntity
  8
TABELLA
  6
CONTINUOUS
100
AcDbText
 10
195.209894
 20
130.984517
 30
0.0
 40
2.0
  1
Data
 50
90.0
100
AcDbText
  0
TEXT
  5
52B
100
AcDbEntity
  8
TABELLA
  6
CONTINUOUS
100
AcDbText
 10
195.209894
 20
56.278486
 30
0.0
 40
2.0
  1
Nota di revisione
 50
90.0
100
AcDbText
  0
LINE
  5
52C
100
AcDbEntity
  8
TABELLA
  6
CONTINUOUS
100
AcDbLine
 10
191.781227
 20
55.387241
 30
0.0
 11
195.782064
 21
55.387241
 31
0.0
  0
LINE
  5
52D
100
AcDbEntity
  8
TABELLA
  6
CONTINUOUS
100
AcDbLine
 10
191.781227
 20
130.387241
 30
0.0
 11
195.782064
 21
130.387241
 31
0.0
  0
LINE
  5
52E
100
AcDbEntity
  8
TABELLA
  6
CONTINUOUS
100
AcDbLine
 10
195.782064
 20
72.137067
 30
0.0
 11
200.782064
 21
72.137067
 31
0.0
  0
TEXT
  5
52F
100
AcDbEntity
  8
TABELLA
  6
CONTINUOUS
100
AcDbText
 10
197.442859
 20
87.459725
 30
0.0
 40
4.0
  1
C
100
AcDbText
  0
LINE
  5
530
100
AcDbEntity
  8
TABELLA
  6
CONTINUOUS
100
AcDbLine
 10
195.782064
 20
108.012067
 30
0.0
 11
200.782064
 21
108.012067
 31
0.0
  0
TEXT
  5
531
100
AcDbEntity
  8
TABELLA
  6
CONTINUOUS
100
AcDbText
 10
197.442859
 20
123.618776
 30
0.0
 40
4.0
  1
D
100
AcDbText
  0
TEXT
  5
532
100
AcDbEntity
  8
TABELLA
  6
CONTINUOUS
100
AcDbText
 10
116.708835
 20
283.250638
 30
0.0
 40
4.0
  1
3
100
AcDbText
  0
LINE
  5
533
100
AcDbEntity
  8
TABELLA
  6
CONTINUOUS
100
AcDbLine
 10
134.114064
 20
282.387067
 30
0.0
 11
134.114064
 21
287.387067
 31
0.0
  0
TEXT
  5
534
100
AcDbEntity
  8
TABELLA
  6
CONTINUOUS
100
AcDbText
 10
150.417372
 20
283.250638
 30
0.0
 40
4.0
  1
2
100
AcDbText
  0
TEXT
  5
535
100
AcDbEntity
  8
TABELLA
  6
CONTINUOUS
100
AcDbText
 10
197.026704
 20
230.800736
 30
0.0
 40
4.0
  1
G
100
AcDbText
  0
TEXT
  5
536
100
AcDbEntity
  8
TABELLA
  6
CONTINUOUS
100
AcDbText
 10
195.209894
 20
155.7956
 30
0.0
 40
2.0
  1
Control.
 50
90.0
100
AcDbText
  0
TEXT
  5
537
100
AcDbEntity
  8
TABELLA
  6
CONTINUOUS
100
AcDbText
 10
195.209894
 20
146.028502
 30
0.0
 40
2.0
  1
Firma
 50
90.0
100
AcDbText
  0
LINE
  5
538
100
AcDbEntity
  8
TABELLA
  6
CONTINUOUS
100
AcDbLine
 10
191.781227
 20
145.387241
 30
0.0
 11
195.782064
 21
145.387241
 31
0.0
  0
LINE
  5
539
100
AcDbEntity
  8
TABELLA
  6
CONTINUOUS
100
AcDbLine
 10
191.781227
 20
155.387241
 30
0.0
 11
195.782064
 21
155.387241
 31
0.0
  0
LINE
  5
53A
100
AcDbEntity
  8
TABELLA
  6
CONTINUOUS
100
AcDbLine
 10
191.781227
 20
165.387241
 30
0.0
 11
195.782064
 21
165.387241
 31
0.0
  0
LINE
  5
53B
100
AcDbEntity
  8
TABELLA
  6
CONTINUOUS
100
AcDbLine
 10
195.782064
 20
143.887067
 30
0.0
 11
200.782064
 21
146.387067
 31
0.0
  0
LINE
  5
53C
100
AcDbEntity
  8
TABELLA
  6
CONTINUOUS
100
AcDbLine
 10
195.782064
 20
143.887067
 30
0.0
 11
200.782064
 21
143.887067
 31
0.0
  0
LINE
  5
53D
100
AcDbEntity
  8
TABELLA
  6
CONTINUOUS
100
AcDbLine
 10
200.782064
 20
143.887067
 30
0.0
 11
200.782064
 21
146.387067
 31
0.0
  0
TEXT
  5
53E
100
AcDbEntity
  8
TABELLA
  6
CONTINUOUS
100
AcDbText
 10
197.442859
 20
158.319393
 30
0.0
 40
4.0
  1
E
100
AcDbText
  0
LINE
  5
53F
100
AcDbEntity
  8
TABELLA
  6
CONTINUOUS
100
AcDbLine
 10
195.782064
 20
179.762067
 30
0.0
 11
200.782064
 21
179.762067
 31
0.0
  0
TEXT
  5
540
100
AcDbEntity
  8
TABELLA
  6
CONTINUOUS
100
AcDbText
 10
197.859013
 20
195.309687
 30
0.0
 40
4.0
  1
F
100
AcDbText
  0
LINE
  5
541
100
AcDbEntity
  8
TABELLA
  6
CONTINUOUS
100
AcDbLine
 10
195.782064
 20
215.637067
 30
0.0
 11
200.782064
 21
215.637067
 31
0.0
  0
LINE
  5
542
100
AcDbEntity
  8
TABELLA
  6
CONTINUOUS
100
AcDbLine
 10
167.447064
 20
282.387067
 30
0.0
 11
167.447064
 21
287.387067
 31
0.0
  0
TEXT
  5
543
100
AcDbEntity
  8
TABELLA
  6
CONTINUOUS
100
AcDbText
 10
184.958217
 20
283.250638
 30
0.0
 40
4.0
  1
1
100
AcDbText
  0
LINE
  5
544
100
AcDbEntity
  8
TABELLA
  6
CONTINUOUS
100
AcDbLine
 10
195.782064
 20
282.387067
 30
0.0
 11
195.782064
 21
278.387067
 31
0.0
  0
LINE
  5
545
100
AcDbEntity
  8
TABELLA
  6
CONTINUOUS
100
AcDbLine
 10
195.782064
 20
251.512067
 30
0.0
 11
200.782064
 21
251.512067
 31
0.0
  0
TEXT
  5
546
100
AcDbEntity
  8
TABELLA
  6
CONTINUOUS
100
AcDbText
 10
197.026704
 20
268.206651
 30
0.0
 40
4.0
  1
H
100
AcDbText
  0
ENDBLK
  5
548
100
AcDbEntity
  8
QUOTE
100
AcDbBlockEnd
  0
BLOCK
  5
72D
100
AcDbEntity
  8
0
100
AcDbBlockBegin
  2
*D2
 70
    65
 10
0.0
 20
0.0
 30
0.0
  3
*D2
  1

  0
LINE
  5
72E
100
AcDbEntity
  8
0
  6
BYBLOCK
 62
     0
100
AcDbLine
 10
-1810.125685
 20
-1403.704163
 30
0.0
 11
-1751.658327
 21
-1403.704163
 31
0.0
  0
LINE
  5
72F
100
AcDbEntity
  8
0
  6
BYBLOCK
 62
     0
100
AcDbLine
 10
-1819.125685
 20
-1598.704163
 30
0.0
 11
-1751.658327
 21
-1598.704163
 31
0.0
  0
LINE
  5
730
100
AcDbEntity
  8
0
  6
BYBLOCK
 62
     0
100
AcDbLine
 10
-1752.908327
 20
-1406.204163
 30
0.0
 11
-1752.908327
 21
-1596.204163
 31
0.0
  0
SOLID
  5
731
100
AcDbEntity
  8
0
  6
BYBLOCK
 62
     0
100
AcDbTrace
 10
-1753.324994
 20
-1406.204163
 30
0.0
 11
-1752.491661
 21
-1406.204163
 31
0.0
 12
-1752.908327
 22
-1403.704163
 32
0.0
 13
-1752.908327
 23
-1403.704163
 33
0.0
  0
SOLID
  5
732
100
AcDbEntity
  8
0
  6
BYBLOCK
 62
     0
100
AcDbTrace
 10
-1753.324994
 20
-1596.204163
 30
0.0
 11
-1752.491661
 21
-1596.204163
 31
0.0
 12
-1752.908327
 22
-1598.704163
 32
0.0
 13
-1752.908327
 23
-1598.704163
 33
0.0
  0
MTEXT
  5
733
100
AcDbEntity
  8
0
  6
BYBLOCK
 62
     0
100
AcDbMText
 10
-1755.033327
 20
-1501.204163
 30
0.0
 40
3.0
 41
0.0
 71
     5
 72
     1
  1
\A2;195{\H2.400000;±0.01}
 11
0.0
 21
1.0
 31
0.0
  0
POINT
  5
734
100
AcDbEntity
  8
DEFPOINTS
  6
BYBLOCK
 62
     0
100
AcDbPoint
 10
-1810.750685
 20
-1403.704163
 30
0.0
  0
POINT
  5
735
100
AcDbEntity
  8
DEFPOINTS
  6
BYBLOCK
 62
     0
100
AcDbPoint
 10
-1819.750685
 20
-1598.704163
 30
0.0
  0
POINT
  5
736
100
AcDbEntity
  8
DEFPOINTS
  6
BYBLOCK
 62
     0
100
AcDbPoint
 10
-1752.908327
 20
-1598.704163
 30
0.0
  0
ENDBLK
  5
737
100
AcDbEntity
  8
0
100
AcDbBlockEnd
  0
BLOCK
  5
78D
100
AcDbEntity
  8
0
100
AcDbBlockBegin
  2
*D3
 70
    65
 10
0.0
 20
0.0
 30
0.0
  3
*D3
  1

  0
LINE
  5
78E
100
AcDbEntity
  8
0
  6
BYBLOCK
 62
     0
100
AcDbLine
 10
-1810.125685
 20
-1403.704163
 30
0.0
 11
-1790.756514
 21
-1403.704163
 31
0.0
  0
LINE
  5
78F
100
AcDbEntity
  8
0
  6
BYBLOCK
 62
     0
100
AcDbLine
 10
-1810.125685
 20
-1463.704163
 30
0.0
 11
-1790.756514
 21
-1463.704163
 31
0.0
  0
LINE
  5
790
100
AcDbEntity
  8
0
  6
BYBLOCK
 62
     0
100
AcDbLine
 10
-1792.006514
 20
-1406.204163
 30
0.0
 11
-1792.006514
 21
-1461.204163
 31
0.0
  0
SOLID
  5
791
100
AcDbEntity
  8
0
  6
BYBLOCK
 62
     0
100
AcDbTrace
 10
-1792.42318
 20
-1406.204163
 30
0.0
 11
-1791.589847
 21
-1406.204163
 31
0.0
 12
-1792.006514
 22
-1403.704163
 32
0.0
 13
-1792.006514
 23
-1403.704163
 33
0.0
  0
SOLID
  5
792
100
AcDbEntity
  8
0
  6
BYBLOCK
 62
     0
100
AcDbTrace
 10
-1792.42318
 20
-1461.204163
 30
0.0
 11
-1791.589847
 21
-1461.204163
 31
0.0
 12
-1792.006514
 22
-1463.704163
 32
0.0
 13
-1792.006514
 23
-1463.704163
 33
0.0
  0
MTEXT
  5
793
100
AcDbEntity
  8
0
  6
BYBLOCK
 62
     0
100
AcDbMText
 10
-1794.131514
 20
-1433.704163
 30
0.0
 40
3.0
 41
0.0
 71
     5
 72
     1
  1
\A1;60
 11
0.0
 21
1.0
 31
0.0
  0
POINT
  5
794
100
AcDbEntity
  8
DEFPOINTS
  6
BYBLOCK
 62
     0
100
AcDbPoint
 10
-1810.750685
 20
-1403.704163
 30
0.0
  0
POINT
  5
795
100
AcDbEntity
  8
DEFPOINTS
  6
BYBLOCK
 62
     0
100
AcDbPoint
 10
-1810.750685
 20
-1463.704163
 30
0.0
  0
POINT
  5
796
100
AcDbEntity
  8
DEFPOINTS
  6
BYBLOCK
 62
     0
100
AcDbPoint
 10
-1792.006514
 20
-1463.704163
 30
0.0
  0
ENDBLK
  5
797
100
AcDbEntity
  8
0
100
AcDbBlockEnd
  0
BLOCK
  5
5DD
100
AcDbEntity
  8
0
100
AcDbBlockBegin
  2
*D4
 70
    65
 10
0.0
 20
0.0
 30
0.0
  3
*D4
  1

  0
LINE
  5
5DE
100
AcDbEntity
  8
0
  6
BYBLOCK
 62
     0
100
AcDbLine
 10
-1813.00942
 20
-1420.600082
 30
0.0
 11
-1803.201161
 21
-1426.262883
 31
0.0
  0
LINE
  5
5DF
100
AcDbEntity
  8
0
  6
BYBLOCK
 62
     0
100
AcDbLine
 10
-1818.00942
 20
-1429.260336
 30
0.0
 11
-1808.201161
 21
-1434.923137
 31
0.0
  0
LINE
  5
5E0
100
AcDbEntity
  8
0
  6
BYBLOCK
 62
     0
100
AcDbLine
 10
-1808.033692
 20
-1432.133074
 30
0.0
 11
-1805.533692
 21
-1427.802946
 31
0.0
  0
LINE
  5
5E1
100
AcDbEntity
  8
0
  6
BYBLOCK
 62
     0
100
AcDbLine
 10
-1804.283692
 20
-1425.637883
 30
0.0
 11
-1797.736192
 21
-1414.29728
 31
0.0
  0
SOLID
  5
5E2
100
AcDbEntity
  8
0
  6
BYBLOCK
 62
     0
100
AcDbTrace
 10
-1808.394536
 20
-1431.92474
 30
0.0
 11
-1807.672848
 21
-1432.341407
 31
0.0
 12
-1809.283692
 22
-1434.298137
 32
0.0
 13
-1809.283692
 23
-1434.298137
 33
0.0
  0
SOLID
  5
5E3
100
AcDbEntity
  8
0
  6
BYBLOCK
 62
     0
100
AcDbTrace
 10
-1805.894536
 20
-1427.594613
 30
0.0
 11
-1805.172848
 21
-1428.01128
 31
0.0
 12
-1804.283692
 22
-1425.637883
 32
0.0
 13
-1804.283692
 23
-1425.637883
 33
0.0
  0
MTEXT
  5
5E4
100
AcDbEntity
  8
0
  6
BYBLOCK
 62
     0
100
AcDbMText
 10
-1804.297166
 20
-1417.708858
 30
0.0
 40
3.0
 41
0.0
 71
     5
 72
     1
  1
\A1;10\S+0.1^  0;
 11
0.5
 21
0.866025
 31
0.0
  0
POINT
  5
5E5
100
AcDbEntity
  8
DEFPOINTS
  6
BYBLOCK
 62
     0
100
AcDbPoint
 10
-1813.550685
 20
-1420.287582
 30
0.0
  0
POINT
  5
5E6
100
AcDbEntity
  8
DEFPOINTS
  6
BYBLOCK
 62
     0
100
AcDbPoint
 10
-1818.550685
 20
-1428.947836
 30
0.0
  0
POINT
  5
5E7
100
AcDbEntity
  8
DEFPOINTS
  6
BYBLOCK
 62
     0
100
AcDbPoint
 10
-1809.283692
 20
-1434.298137
 30
0.0
  0
ENDBLK
  5
5E8
100
AcDbEntity
  8
0
100
AcDbBlockEnd
  0
BLOCK
  5
601
100
AcDbEntity
  8
0
100
AcDbBlockBegin
  2
*D5
 70
    65
 10
0.0
 20
0.0
 30
0.0
  3
*D5
  1

  0
LINE
  5
602
100
AcDbEntity
  8
0
  6
BYBLOCK
 62
     0
100
AcDbLine
 10
-1810.750685
 20
-1403.079163
 30
0.0
 11
-1810.750685
 21
-1388.767772
 31
0.0
  0
LINE
  5
603
100
AcDbEntity
  8
0
  6
BYBLOCK
 62
     0
100
AcDbLine
 10
-1828.750685
 20
-1403.079163
 30
0.0
 11
-1828.750685
 21
-1388.767772
 31
0.0
  0
LINE
  5
604
100
AcDbEntity
  8
0
  6
BYBLOCK
 62
     0
100
AcDbLine
 10
-1813.250685
 20
-1390.017772
 30
0.0
 11
-1826.250685
 21
-1390.017772
 31
0.0
  0
SOLID
  5
605
100
AcDbEntity
  8
0
  6
BYBLOCK
 62
     0
100
AcDbTrace
 10
-1813.250685
 20
-1389.601106
 30
0.0
 11
-1813.250685
 21
-1390.434439
 31
0.0
 12
-1810.750685
 22
-1390.017772
 32
0.0
 13
-1810.750685
 23
-1390.017772
 33
0.0
  0
SOLID
  5
606
100
AcDbEntity
  8
0
  6
BYBLOCK
 62
     0
100
AcDbTrace
 10
-1826.250685
 20
-1389.601106
 30
0.0
 11
-1826.250685
 21
-1390.434439
 31
0.0
 12
-1828.750685
 22
-1390.017772
 32
0.0
 13
-1828.750685
 23
-1390.017772
 33
0.0
  0
MTEXT
  5
607
100
AcDbEntity
  8
0
  6
BYBLOCK
 62
     0
100
AcDbMText
 10
-1819.750685
 20
-1387.892772
 30
0.0
 40
3.0
 41
0.0
 71
     5
 72
     1
  1
\A2;18{\H2.400000;±0.01}
  0
POINT
  5
608
100
AcDbEntity
  8
DEFPOINTS
  6
BYBLOCK
 62
     0
100
AcDbPoint
 10
-1810.750685
 20
-1403.704163
 30
0.0
  0
POINT
  5
609
100
AcDbEntity
  8
DEFPOINTS
  6
BYBLOCK
 62
     0
100
AcDbPoint
 10
-1828.750685
 20
-1403.704163
 30
0.0
  0
POINT
  5
60A
100
AcDbEntity
  8
DEFPOINTS
  6
BYBLOCK
 62
     0
100
AcDbPoint
 10
-1828.750685
 20
-1390.017772
 30
0.0
  0
ENDBLK
  5
60B
100
AcDbEntity
  8
0
100
AcDbBlockEnd
  0
BLOCK
  5
60D
100
AcDbEntity
  8
0
100
AcDbBlockBegin
  2
*D6
 70
    65
 10
0.0
 20
0.0
 30
0.0
  3
*D6
  1

  0
LINE
  5
60E
100
AcDbEntity
  8
0
  6
BYBLOCK
 62
     0
100
AcDbLine
 10
-1810.750685
 20
-1403.079163
 30
0.0
 11
-1810.750685
 21
-1382.321036
 31
0.0
  0
LINE
  5
60F
100
AcDbEntity
  8
0
  6
BYBLOCK
 62
     0
100
AcDbLine
 10
-1835.750685
 20
-1441.079163
 30
0.0
 11
-1835.750685
 21
-1382.321036
 31
0.0
  0
LINE
  5
610
100
AcDbEntity
  8
0
  6
BYBLOCK
 62
     0
100
AcDbLine
 10
-1813.250685
 20
-1383.571036
 30
0.0
 11
-1833.250685
 21
-1383.571036
 31
0.0
  0
SOLID
  5
611
100
AcDbEntity
  8
0
  6
BYBLOCK
 62
     0
100
AcDbTrace
 10
-1813.250685
 20
-1383.154369
 30
0.0
 11
-1813.250685
 21
-1383.987703
 31
0.0
 12
-1810.750685
 22
-1383.571036
 32
0.0
 13
-1810.750685
 23
-1383.571036
 33
0.0
  0
SOLID
  5
612
100
AcDbEntity
  8
0
  6
BYBLOCK
 62
     0
100
AcDbTrace
 10
-1833.250685
 20
-1383.154369
 30
0.0
 11
-1833.250685
 21
-1383.987703
 31
0.0
 12
-1835.750685
 22
-1383.571036
 32
0.0
 13
-1835.750685
 23
-1383.571036
 33
0.0
  0
MTEXT
  5
613
100
AcDbEntity
  8
0
  6
BYBLOCK
 62
     0
100
AcDbMText
 10
-1823.250685
 20
-1381.446036
 30
0.0
 40
3.0
 41
0.0
 71
     5
 72
     1
  1
\A1;25
  0
POINT
  5
614
100
AcDbEntity
  8
DEFPOINTS
  6
BYBLOCK
 62
     0
100
AcDbPoint
 10
-1810.750685
 20
-1403.704163
 30
0.0
  0
POINT
  5
615
100
AcDbEntity
  8
DEFPOINTS
  6
BYBLOCK
 62
     0
100
AcDbPoint
 10
-1835.750685
 20
-1441.704163
 30
0.0
  0
POINT
  5
616
100
AcDbEntity
  8
DEFPOINTS
  6
BYBLOCK
 62
     0
100
AcDbPoint
 10
-1835.750685
 20
-1383.571036
 30
0.0
  0
ENDBLK
  5
617
100
AcDbEntity
  8
0
100
AcDbBlockEnd
  0
BLOCK
  5
64B
100
AcDbEntity
  8
0
100
AcDbBlockBegin
  2
*D7
 70
    65
 10
0.0
 20
0.0
 30
0.0
  3
*D7
  1

  0
LINE
  5
64C
100
AcDbEntity
  8
0
  6
BYBLOCK
 62
     0
100
AcDbLine
 10
-1829.375685
 20
-1403.704163
 30
0.0
 11
-1843.344872
 21
-1403.704163
 31
0.0
  0
LINE
  5
64D
100
AcDbEntity
  8
0
  6
BYBLOCK
 62
     0
100
AcDbLine
 10
-1829.375685
 20
-1421.904163
 30
0.0
 11
-1843.344872
 21
-1421.904163
 31
0.0
  0
LINE
  5
64E
100
AcDbEntity
  8
0
  6
BYBLOCK
 62
     0
100
AcDbLine
 10
-1842.094872
 20
-1401.204163
 30
0.0
 11
-1842.094872
 21
-1398.704163
 31
0.0
  0
LINE
  5
64F
100
AcDbEntity
  8
0
  6
BYBLOCK
 62
     0
100
AcDbLine
 10
-1842.094872
 20
-1424.404163
 30
0.0
 11
-1842.094872
 21
-1426.904163
 31
0.0
  0
SOLID
  5
650
100
AcDbEntity
  8
0
  6
BYBLOCK
 62
     0
100
AcDbTrace
 10
-1842.511539
 20
-1401.204163
 30
0.0
 11
-1841.678205
 21
-1401.204163
 31
0.0
 12
-1842.094872
 22
-1403.704163
 32
0.0
 13
-1842.094872
 23
-1403.704163
 33
0.0
  0
SOLID
  5
651
100
AcDbEntity
  8
0
  6
BYBLOCK
 62
     0
100
AcDbTrace
 10
-1842.511539
 20
-1424.404163
 30
0.0
 11
-1841.678205
 21
-1424.404163
 31
0.0
 12
-1842.094872
 22
-1421.904163
 32
0.0
 13
-1842.094872
 23
-1421.904163
 33
0.0
  0
MTEXT
  5
652
100
AcDbEntity
  8
0
  6
BYBLOCK
 62
     0
100
AcDbMText
 10
-1846.071053
 20
-1412.804163
 30
0.0
 40
3.0
 41
0.0
 71
     5
 72
     1
  1
\A1;18.2\S-0.1^  0;
 11
0.0
 21
1.0
 31
0.0
  0
POINT
  5
653
100
AcDbEntity
  8
DEFPOINTS
  6
BYBLOCK
 62
     0
100
AcDbPoint
 10
-1828.750685
 20
-1403.704163
 30
0.0
  0
POINT
  5
654
100
AcDbEntity
  8
DEFPOINTS
  6
BYBLOCK
 62
     0
100
AcDbPoint
 10
-1828.750685
 20
-1421.904163
 30
0.0
  0
POINT
  5
655
100
AcDbEntity
  8
DEFPOINTS
  6
BYBLOCK
 62
     0
100
AcDbPoint
 10
-1842.094872
 20
-1421.904163
 30
0.0
  0
ENDBLK
  5
656
100
AcDbEntity
  8
0
100
AcDbBlockEnd
  0
BLOCK
  5
662
100
AcDbEntity
  8
0
100
AcDbBlockBegin
  2
*D8
 70
    65
 10
0.0
 20
0.0
 30
0.0
  3
*D8
  1

  0
LINE
  5
663
100
AcDbEntity
  8
0
  6
BYBLOCK
 62
     0
100
AcDbLine
 10
-1829.375685
 20
-1403.704163
 30
0.0
 11
-1854.105563
 21
-1403.704163
 31
0.0
  0
LINE
  5
664
100
AcDbEntity
  8
0
  6
BYBLOCK
 62
     0
100
AcDbLine
 10
-1827.575685
 20
-1423.019633
 30
0.0
 11
-1854.105563
 21
-1423.019633
 31
0.0
  0
LINE
  5
665
100
AcDbEntity
  8
0
  6
BYBLOCK
 62
     0
100
AcDbLine
 10
-1852.855563
 20
-1401.204163
 30
0.0
 11
-1852.855563
 21
-1398.704163
 31
0.0
  0
LINE
  5
666
100
AcDbEntity
  8
0
  6
BYBLOCK
 62
     0
100
AcDbLine
 10
-1852.855563
 20
-1425.519633
 30
0.0
 11
-1852.855563
 21
-1428.019633
 31
0.0
  0
SOLID
  5
667
100
AcDbEntity
  8
0
  6
BYBLOCK
 62
     0
100
AcDbTrace
 10
-1853.272229
 20
-1401.204163
 30
0.0
 11
-1852.438896
 21
-1401.204163
 31
0.0
 12
-1852.855563
 22
-1403.704163
 32
0.0
 13
-1852.855563
 23
-1403.704163
 33
0.0
  0
SOLID
  5
668
100
AcDbEntity
  8
0
  6
BYBLOCK
 62
     0
100
AcDbTrace
 10
-1853.272229
 20
-1425.519633
 30
0.0
 11
-1852.438896
 21
-1425.519633
 31
0.0
 12
-1852.855563
 22
-1423.019633
 32
0.0
 13
-1852.855563
 23
-1423.019633
 33
0.0
  0
MTEXT
  5
669
100
AcDbEntity
  8
0
  6
BYBLOCK
 62
     0
100
AcDbMText
 10
-1856.831744
 20
-1413.361898
 30
0.0
 40
3.0
 41
0.0
 71
     5
 72
     1
  1
\A1;19.32\S+0.1^  0;
 11
0.0
 21
1.0
 31
0.0
  0
POINT
  5
66A
100
AcDbEntity
  8
DEFPOINTS
  6
BYBLOCK
 62
     0
100
AcDbPoint
 10
-1828.750685
 20
-1403.704163
 30
0.0
  0
POINT
  5
66B
100
AcDbEntity
  8
DEFPOINTS
  6
BYBLOCK
 62
     0
100
AcDbPoint
 10
-1826.950685
 20
-1423.019633
 30
0.0
  0
POINT
  5
66C
100
AcDbEntity
  8
DEFPOINTS
  6
BYBLOCK
 62
     0
100
AcDbPoint
 10
-1852.855563
 20
-1423.019633
 30
0.0
  0
ENDBLK
  5
66D
100
AcDbEntity
  8
0
100
AcDbBlockEnd
  0
BLOCK
  5
69B
100
AcDbEntity
  8
0
100
AcDbBlockBegin
  2
*D9
 70
    65
 10
0.0
 20
0.0
 30
0.0
  3
*D9
  1

  0
LINE
  5
69C
100
AcDbEntity
  8
0
  6
BYBLOCK
 62
     0
100
AcDbLine
 10
-1828.613454
 20
-1418.939828
 30
0.0
 11
-1845.740734
 21
-1387.216431
 31
0.0
  0
SOLID
  5
69D
100
AcDbEntity
  8
0
  6
BYBLOCK
 62
     0
100
AcDbTrace
 10
-1828.246811
 20
-1418.741879
 30
0.0
 11
-1828.980098
 21
-1419.137776
 31
0.0
 12
-1827.425762
 22
-1421.139689
 32
0.0
 13
-1827.425762
 23
-1421.139689
 33
0.0
  0
MTEXT
  5
69E
100
AcDbEntity
  8
0
  6
BYBLOCK
 62
     0
100
AcDbMText
 10
-1840.689003
 20
-1392.099739
 30
0.0
 40
3.0
 41
0.0
 71
     5
 72
     1
  1
\A2;\U+22052{\H2.400000;±0.01}
 11
0.475077
 21
-0.879944
 31
0.0
  0
POINT
  5
69F
100
AcDbEntity
  8
DEFPOINTS
  6
BYBLOCK
 62
     0
100
AcDbPoint
 10
-1827.425762
 20
-1421.139689
 30
0.0
  0
POINT
  5
6A0
100
AcDbEntity
  8
DEFPOINTS
  6
BYBLOCK
 62
     0
100
AcDbPoint
 10
-1826.475609
 20
-1422.899577
 30
0.0
  0
ENDBLK
  5
6A1
100
AcDbEntity
  8
0
100
AcDbBlockEnd
  0
BLOCK
  5
68E
100
AcDbEntity
  8
0
100
AcDbBlockBegin
  2
*D10
 70
    65
 10
0.0
 20
0.0
 30
0.0
  3
*D10
  1

  0
LINE
  5
68F
100
AcDbEntity
  8
0
  6
BYBLOCK
 62
     0
100
AcDbLine
 10
-1825.40942
 20
-1419.975082
 30
0.0
 11
-1816.719937
 21
-1414.958207
 31
0.0
  0
ARC
  5
690
100
AcDbEntity
  8
0
  6
BYBLOCK
 62
     0
100
AcDbCircle
 10
-1828.750685
 20
-1421.904163
 30
0.0
 40
12.641912
100
AcDbArc
 50
41.349065
 51
78.650935
  0
SOLID
  5
691
100
AcDbEntity
  8
0
  6
BYBLOCK
 62
     0
100
AcDbTrace
 10
-1818.921943
 20
-1413.309358
 30
0.0
 11
-1819.598895
 21
-1413.795342
 31
0.0
 12
-1817.802469
 22
-1415.583207
 32
0.0
 13
-1817.802469
 23
-1415.583207
 33
0.0
  0
SOLID
  5
692
100
AcDbEntity
  8
0
  6
BYBLOCK
 62
     0
100
AcDbTrace
 10
-1826.304135
 20
-1409.924069
 30
0.0
 11
-1826.221737
 21
-1409.09482
 31
0.0
 12
-1828.750685
 22
-1409.262251
 32
0.0
 13
-1828.750685
 23
-1409.262251
 33
0.0
  0
MTEXT
  5
693
100
AcDbEntity
  8
0
  6
BYBLOCK
 62
     0
100
AcDbMText
 10
-1821.36723
 20
-1409.115642
 30
0.0
 40
3.0
 41
0.0
 71
     5
 72
     1
  1
\A1;60°
 11
0.866025
 21
-0.5
 31
0.0
  0
POINT
  5
694
100
AcDbEntity
  8
DEFPOINTS
  6
BYBLOCK
 62
     0
100
AcDbPoint
 10
-1820.624621
 20
-1412.219896
 30
0.0
  0
POINT
  5
695
100
AcDbEntity
  8
DEFPOINTS
  6
BYBLOCK
 62
     0
100
AcDbPoint
 10
-1828.750685
 20
-1403.704163
 30
0.0
  0
POINT
  5
696
100
AcDbEntity
  8
DEFPOINTS
  6
BYBLOCK
 62
     0
100
AcDbPoint
 10
-1828.750685
 20
-1421.904163
 30
0.0
  0
POINT
  5
697
100
AcDbEntity
  8
DEFPOINTS
  6
BYBLOCK
 62
     0
100
AcDbPoint
 10
-1825.950685
 20
-1420.287582
 30
0.0
  0
POINT
  5
698
100
AcDbEntity
  8
DEFPOINTS
  6
BYBLOCK
 62
     0
100
AcDbPoint
 10
-1828.750685
 20
-1421.904163
 30
0.0
  0
ENDBLK
  5
699
100
AcDbEntity
  8
0
100
AcDbBlockEnd
  0
BLOCK
  5
6BA
100
AcDbEntity
  8
0
100
AcDbBlockBegin
  2
*D11
 70
    65
 10
0.0
 20
0.0
 30
0.0
  3
*D11
  1

  0
LINE
  5
6BB
100
AcDbEntity
  8
0
  6
BYBLOCK
 62
     0
100
AcDbLine
 10
-1829.375685
 20
-1403.704163
 30
0.0
 11
-1867.595935
 21
-1403.704163
 31
0.0
  0
LINE
  5
6BC
100
AcDbEntity
  8
0
  6
BYBLOCK
 62
     0
100
AcDbLine
 10
-1836.375685
 20
-1441.704163
 30
0.0
 11
-1867.595935
 21
-1441.704163
 31
0.0
  0
LINE
  5
6BD
100
AcDbEntity
  8
0
  6
BYBLOCK
 62
     0
100
AcDbLine
 10
-1866.345935
 20
-1406.204163
 30
0.0
 11
-1866.345935
 21
-1439.204163
 31
0.0
  0
SOLID
  5
6BE
100
AcDbEntity
  8
0
  6
BYBLOCK
 62
     0
100
AcDbTrace
 10
-1866.762602
 20
-1406.204163
 30
0.0
 11
-1865.929268
 21
-1406.204163
 31
0.0
 12
-1866.345935
 22
-1403.704163
 32
0.0
 13
-1866.345935
 23
-1403.704163
 33
0.0
  0
SOLID
  5
6BF
100
AcDbEntity
  8
0
  6
BYBLOCK
 62
     0
100
AcDbTrace
 10
-1866.762602
 20
-1439.204163
 30
0.0
 11
-1865.929268
 21
-1439.204163
 31
0.0
 12
-1866.345935
 22
-1441.704163
 32
0.0
 13
-1866.345935
 23
-1441.704163
 33
0.0
  0
MTEXT
  5
6C0
100
AcDbEntity
  8
0
  6
BYBLOCK
 62
     0
100
AcDbMText
 10
-1870.322116
 20
-1422.704163
 30
0.0
 40
3.0
 41
0.0
 71
     5
 72
     1
  1
\A1;38\S+0.1^  0;
 11
0.0
 21
1.0
 31
0.0
  0
POINT
  5
6C1
100
AcDbEntity
  8
DEFPOINTS
  6
BYBLOCK
 62
     0
100
AcDbPoint
 10
-1828.750685
 20
-1403.704163
 30
0.0
  0
POINT
  5
6C2
100
AcDbEntity
  8
DEFPOINTS
  6
BYBLOCK
 62
     0
100
AcDbPoint
 10
-1835.750685
 20
-1441.704163
 30
0.0
  0
POINT
  5
6C3
100
AcDbEntity
  8
DEFPOINTS
  6
BYBLOCK
 62
     0
100
AcDbPoint
 10
-1866.345935
 20
-1441.704163
 30
0.0
  0
ENDBLK
  5
6C4
100
AcDbEntity
  8
0
100
AcDbBlockEnd
  0
BLOCK
  5
7FE
100
AcDbEntity
  8
0
100
AcDbBlockBegin
  2
*D12
 70
    65
 10
0.0
 20
0.0
 30
0.0
  3
*D12
  1

  0
LINE
  5
7FF
100
AcDbEntity
  8
0
  6
BYBLOCK
 62
     0
100
AcDbLine
 10
-1810.125685
 20
-1403.704163
 30
0.0
 11
-1776.533764
 21
-1403.704163
 31
0.0
  0
LINE
  5
800
100
AcDbEntity
  8
0
  6
BYBLOCK
 62
     0
100
AcDbLine
 10
-1809.125685
 20
-1481.972112
 30
0.0
 11
-1776.533764
 21
-1481.972112
 31
0.0
  0
LINE
  5
801
100
AcDbEntity
  8
0
  6
BYBLOCK
 62
     0
100
AcDbLine
 10
-1777.783764
 20
-1406.204163
 30
0.0
 11
-1777.783764
 21
-1479.472112
 31
0.0
  0
SOLID
  5
802
100
AcDbEntity
  8
0
  6
BYBLOCK
 62
     0
100
AcDbTrace
 10
-1778.200431
 20
-1406.204163
 30
0.0
 11
-1777.367098
 21
-1406.204163
 31
0.0
 12
-1777.783764
 22
-1403.704163
 32
0.0
 13
-1777.783764
 23
-1403.704163
 33
0.0
  0
SOLID
  5
803
100
AcDbEntity
  8
0
  6
BYBLOCK
 62
     0
100
AcDbTrace
 10
-1778.200431
 20
-1479.472112
 30
0.0
 11
-1777.367098
 21
-1479.472112
 31
0.0
 12
-1777.783764
 22
-1481.972112
 32
0.0
 13
-1777.783764
 23
-1481.972112
 33
0.0
  0
MTEXT
  5
804
100
AcDbEntity
  8
0
  6
BYBLOCK
 62
     0
100
AcDbMText
 10
-1781.759945
 20
-1442.838137
 30
0.0
 40
3.0
 41
0.0
 71
     5
 72
     1
  1
\A1;78.27\S+0.1^  0;
 11
0.0
 21
1.0
 31
0.0
  0
POINT
  5
805
100
AcDbEntity
  8
DEFPOINTS
  6
BYBLOCK
 62
     0
100
AcDbPoint
 10
-1810.750685
 20
-1403.704163
 30
0.0
  0
POINT
  5
806
100
AcDbEntity
  8
DEFPOINTS
  6
BYBLOCK
 62
     0
100
AcDbPoint
 10
-1809.750685
 20
-1481.972112
 30
0.0
  0
POINT
  5
807
100
AcDbEntity
  8
DEFPOINTS
  6
BYBLOCK
 62
     0
100
AcDbPoint
 10
-1777.783764
 20
-1481.972112
 30
0.0
  0
ENDBLK
  5
808
100
AcDbEntity
  8
0
100
AcDbBlockEnd
  0
BLOCK
  5
7F3
100
AcDbEntity
  8
0
100
AcDbBlockBegin
  2
*D13
 70
    65
 10
0.0
 20
0.0
 30
0.0
  3
*D13
  1

  0
LINE
  5
7F4
100
AcDbEntity
  8
0
  6
BYBLOCK
 62
     0
100
AcDbLine
 10
-1810.125685
 20
-1403.704163
 30
0.0
 11
-1763.588574
 21
-1403.704163
 31
0.0
  0
LINE
  5
7F5
100
AcDbEntity
  8
0
  6
BYBLOCK
 62
     0
100
AcDbLine
 10
-1809.125685
 20
-1553.83635
 30
0.0
 11
-1763.588574
 21
-1553.83635
 31
0.0
  0
LINE
  5
7F6
100
AcDbEntity
  8
0
  6
BYBLOCK
 62
     0
100
AcDbLine
 10
-1764.838574
 20
-1406.204163
 30
0.0
 11
-1764.838574
 21
-1551.33635
 31
0.0
  0
SOLID
  5
7F7
100
AcDbEntity
  8
0
  6
BYBLOCK
 62
     0
100
AcDbTrace
 10
-1765.255241
 20
-1406.204163
 30
0.0
 11
-1764.421907
 21
-1406.204163
 31
0.0
 12
-1764.838574
 22
-1403.704163
 32
0.0
 13
-1764.838574
 23
-1403.704163
 33
0.0
  0
SOLID
  5
7F8
100
AcDbEntity
  8
0
  6
BYBLOCK
 62
     0
100
AcDbTrace
 10
-1765.255241
 20
-1551.33635
 30
0.0
 11
-1764.421907
 21
-1551.33635
 31
0.0
 12
-1764.838574
 22
-1553.83635
 32
0.0
 13
-1764.838574
 23
-1553.83635
 33
0.0
  0
MTEXT
  5
7F9
100
AcDbEntity
  8
0
  6
BYBLOCK
 62
     0
100
AcDbMText
 10
-1768.814755
 20
-1478.770256
 30
0.0
 40
3.0
 41
0.0
 71
     5
 72
     1
  1
\A1;150.13\S+0.1^  0;
 11
0.0
 21
1.0
 31
0.0
  0
POINT
  5
7FA
100
AcDbEntity
  8
DEFPOINTS
  6
BYBLOCK
 62
     0
100
AcDbPoint
 10
-1810.750685
 20
-1403.704163
 30
0.0
  0
POINT
  5
7FB
100
AcDbEntity
  8
DEFPOINTS
  6
BYBLOCK
 62
     0
100
AcDbPoint
 10
-1809.750685
 20
-1553.83635
 30
0.0
  0
POINT
  5
7FC
100
AcDbEntity
  8
DEFPOINTS
  6
BYBLOCK
 62
     0
100
AcDbPoint
 10
-1764.838574
 20
-1553.83635
 30
0.0
  0
ENDBLK
  5
7FD
100
AcDbEntity
  8
0
100
AcDbBlockEnd
  0
BLOCK
  5
781
100
AcDbEntity
  8
0
100
AcDbBlockBegin
  2
*D14
 70
    65
 10
0.0
 20
0.0
 30
0.0
  3
*D14
  1

  0
LINE
  5
782
100
AcDbEntity
  8
0
  6
BYBLOCK
 62
     0
100
AcDbLine
 10
-1813.550685
 20
-1419.662582
 30
0.0
 11
-1813.550685
 21
-1399.943577
 31
0.0
  0
LINE
  5
783
100
AcDbEntity
  8
0
  6
BYBLOCK
 62
     0
100
AcDbLine
 10
-1810.750685
 20
-1409.945293
 30
0.0
 11
-1810.750685
 21
-1399.943577
 31
0.0
  0
LINE
  5
784
100
AcDbEntity
  8
0
  6
BYBLOCK
 62
     0
100
AcDbLine
 10
-1816.050685
 20
-1401.193577
 30
0.0
 11
-1818.550685
 21
-1401.193577
 31
0.0
  0
LINE
  5
785
100
AcDbEntity
  8
0
  6
BYBLOCK
 62
     0
100
AcDbLine
 10
-1808.250685
 20
-1401.193577
 30
0.0
 11
-1791.630685
 21
-1401.193577
 31
0.0
  0
SOLID
  5
786
100
AcDbEntity
  8
0
  6
BYBLOCK
 62
     0
100
AcDbTrace
 10
-1816.050685
 20
-1400.77691
 30
0.0
 11
-1816.050685
 21
-1401.610243
 31
0.0
 12
-1813.550685
 22
-1401.193577
 32
0.0
 13
-1813.550685
 23
-1401.193577
 33
0.0
  0
SOLID
  5
787
100
AcDbEntity
  8
0
  6
BYBLOCK
 62
     0
100
AcDbTrace
 10
-1808.250685
 20
-1400.77691
 30
0.0
 11
-1808.250685
 21
-1401.610243
 31
0.0
 12
-1810.750685
 22
-1401.193577
 32
0.0
 13
-1810.750685
 23
-1401.193577
 33
0.0
  0
MTEXT
  5
788
100
AcDbEntity
  8
0
  6
BYBLOCK
 62
     0
100
AcDbMText
 10
-1798.690685
 20
-1397.217395
 30
0.0
 40
3.0
 41
0.0
 71
     5
 72
     1
  1
\A1;2.8\S+0.1^  0;
  0
POINT
  5
789
100
AcDbEntity
  8
DEFPOINTS
  6
BYBLOCK
 62
     0
100
AcDbPoint
 10
-1813.550685
 20
-1420.287582
 30
0.0
  0
POINT
  5
78A
100
AcDbEntity
  8
DEFPOINTS
  6
BYBLOCK
 62
     0
100
AcDbPoint
 10
-1810.750685
 20
-1410.570293
 30
0.0
  0
POINT
  5
78B
100
AcDbEntity
  8
DEFPOINTS
  6
BYBLOCK
 62
     0
100
AcDbPoint
 10
-1810.750685
 20
-1401.193577
 30
0.0
  0
ENDBLK
  5
78C
100
AcDbEntity
  8
0
100
AcDbBlockEnd
  0
BLOCK
  5
7C4
100
AcDbEntity
  8
0
100
AcDbBlockBegin
  2
*D15
 70
    65
 10
0.0
 20
0.0
 30
0.0
  3
*D15
  1

  0
LINE
  5
7C5
100
AcDbEntity
  8
0
  6
BYBLOCK
 62
     0
100
AcDbLine
 10
-1828.750685
 20
-1439.079163
 30
0.0
 11
-1828.750685
 21
-1435.229763
 31
0.0
  0
LINE
  5
7C6
100
AcDbEntity
  8
0
  6
BYBLOCK
 62
     0
100
AcDbLine
 10
-1828.150685
 20
-1439.079163
 30
0.0
 11
-1828.150685
 21
-1435.229763
 31
0.0
  0
LINE
  5
7C7
100
AcDbEntity
  8
0
  6
BYBLOCK
 62
     0
100
AcDbLine
 10
-1831.250685
 20
-1436.479763
 30
0.0
 11
-1833.750685
 21
-1436.479763
 31
0.0
  0
LINE
  5
7C8
100
AcDbEntity
  8
0
  6
BYBLOCK
 62
     0
100
AcDbLine
 10
-1825.650685
 20
-1436.479763
 30
0.0
 11
-1816.919504
 21
-1436.479763
 31
0.0
  0
SOLID
  5
7C9
100
AcDbEntity
  8
0
  6
BYBLOCK
 62
     0
100
AcDbTrace
 10
-1831.250685
 20
-1436.063096
 30
0.0
 11
-1831.250685
 21
-1436.89643
 31
0.0
 12
-1828.750685
 22
-1436.479763
 32
0.0
 13
-1828.750685
 23
-1436.479763
 33
0.0
  0
SOLID
  5
7CA
100
AcDbEntity
  8
0
  6
BYBLOCK
 62
     0
100
AcDbTrace
 10
-1825.650685
 20
-1436.063096
 30
0.0
 11
-1825.650685
 21
-1436.89643
 31
0.0
 12
-1828.150685
 22
-1436.479763
 32
0.0
 13
-1828.150685
 23
-1436.479763
 33
0.0
  0
MTEXT
  5
7CB
100
AcDbEntity
  8
0
  6
BYBLOCK
 62
     0
100
AcDbMText
 10
-1820.035095
 20
-1434.354763
 30
0.0
 40
3.0
 41
0.0
 71
     5
 72
     1
  1
\A1;0.6
  0
POINT
  5
7CC
100
AcDbEntity
  8
DEFPOINTS
  6
BYBLOCK
 62
     0
100
AcDbPoint
 10
-1828.750685
 20
-1439.704163
 30
0.0
  0
POINT
  5
7CD
100
AcDbEntity
  8
DEFPOINTS
  6
BYBLOCK
 62
     0
100
AcDbPoint
 10
-1828.150685
 20
-1439.704163
 30
0.0
  0
POINT
  5
7CE
100
AcDbEntity
  8
DEFPOINTS
  6
BYBLOCK
 62
     0
100
AcDbPoint
 10
-1828.150685
 20
-1436.479763
 30
0.0
  0
ENDBLK
  5
7CF
100
AcDbEntity
  8
0
100
AcDbBlockEnd
  0
BLOCK
  5
7B7
100
AcDbEntity
  8
0
100
AcDbBlockBegin
  2
*D16
 70
    65
 10
0.0
 20
0.0
 30
0.0
  3
*D16
  1

  0
LINE
  5
7B8
100
AcDbEntity
  8
0
  6
BYBLOCK
 62
     0
100
AcDbLine
 10
-1827.525685
 20
-1439.704163
 30
0.0
 11
-1823.450444
 21
-1439.704163
 31
0.0
  0
LINE
  5
7B9
100
AcDbEntity
  8
0
  6
BYBLOCK
 62
     0
100
AcDbLine
 10
-1827.525685
 20
-1441.704163
 30
0.0
 11
-1823.450444
 21
-1441.704163
 31
0.0
  0
LINE
  5
7BA
100
AcDbEntity
  8
0
  6
BYBLOCK
 62
     0
100
AcDbLine
 10
-1824.700444
 20
-1437.204163
 30
0.0
 11
-1824.700444
 21
-1434.704163
 31
0.0
  0
LINE
  5
7BB
100
AcDbEntity
  8
0
  6
BYBLOCK
 62
     0
100
AcDbLine
 10
-1824.700444
 20
-1444.204163
 30
0.0
 11
-1824.700444
 21
-1449.556157
 31
0.0
  0
SOLID
  5
7BC
100
AcDbEntity
  8
0
  6
BYBLOCK
 62
     0
100
AcDbTrace
 10
-1825.11711
 20
-1437.204163
 30
0.0
 11
-1824.283777
 21
-1437.204163
 31
0.0
 12
-1824.700444
 22
-1439.704163
 32
0.0
 13
-1824.700444
 23
-1439.704163
 33
0.0
  0
SOLID
  5
7BD
100
AcDbEntity
  8
0
  6
BYBLOCK
 62
     0
100
AcDbTrace
 10
-1825.11711
 20
-1444.204163
 30
0.0
 11
-1824.283777
 21
-1444.204163
 31
0.0
 12
-1824.700444
 22
-1441.704163
 32
0.0
 13
-1824.700444
 23
-1441.704163
 33
0.0
  0
MTEXT
  5
7BE
100
AcDbEntity
  8
0
  6
BYBLOCK
 62
     0
100
AcDbMText
 10
-1826.825739
 20
-1448.13016
 30
0.0
 40
3.0
 41
0.0
 71
     5
 72
     1
  1
\A1;2
 11
0.0
 21
1.0
 31
0.0
  0
POINT
  5
7BF
100
AcDbEntity
  8
DEFPOINTS
  6
BYBLOCK
 62
     0
100
AcDbPoint
 10
-1828.150685
 20
-1439.704163
 30
0.0
  0
POINT
  5
7C0
100
AcDbEntity
  8
DEFPOINTS
  6
BYBLOCK
 62
     0
100
AcDbPoint
 10
-1828.150685
 20
-1441.704163
 30
0.0
  0
POINT
  5
7C1
100
AcDbEntity
  8
DEFPOINTS
  6
BYBLOCK
 62
     0
100
AcDbPoint
 10
-1824.700444
 20
-1441.704163
 30
0.0
  0
ENDBLK
  5
7C2
100
AcDbEntity
  8
0
100
AcDbBlockEnd
  0
BLOCK
  5
7D2
100
AcDbEntity
  8
0
100
AcDbBlockBegin
  2
*D17
 70
    65
 10
0.0
 20
0.0
 30
0.0
  3
*D17
  1

  0
LINE
  5
7D3
100
AcDbEntity
  8
0
  6
BYBLOCK
 62
     0
100
AcDbLine
 10
-1810.750685
 20
-1464.329163
 30
0.0
 11
-1810.750685
 21
-1478.222385
 31
0.0
  0
ARC
  5
7D4
100
AcDbEntity
  8
0
  6
BYBLOCK
 62
     0
100
AcDbCircle
 10
-1810.750685
 20
-1463.704163
 30
0.0
 40
13.268222
100
AcDbArc
 50
226.489119
 51
240.0
  0
ARC
  5
7D5
100
AcDbEntity
  8
0
  6
BYBLOCK
 62
     0
100
AcDbCircle
 10
-1810.750685
 20
-1463.704163
 30
0.0
 40
13.268222
100
AcDbArc
 50
250.811712
 51
259.188288
  0
SOLID
  5
7D6
100
AcDbEntity
  8
0
  6
BYBLOCK
 62
     0
100
AcDbTrace
 10
-1815.285011
 20
-1476.614116
 30
0.0
 11
-1814.938188
 21
-1475.856383
 31
0.0
 12
-1817.384796
 22
-1475.19478
 32
0.0
 13
-1817.384796
 23
-1475.19478
 33
0.0
  0
SOLID
  5
7D7
100
AcDbEntity
  8
0
  6
BYBLOCK
 62
     0
100
AcDbTrace
 10
-1813.200312
 20
-1476.322046
 30
0.0
 11
-1813.278821
 21
-1477.151673
 31
0.0
 12
-1810.750685
 22
-1476.972385
 32
0.0
 13
-1810.750685
 23
-1476.972385
 33
0.0
  0
MTEXT
  5
7D8
100
AcDbEntity
  8
0
  6
BYBLOCK
 62
     0
100
AcDbMText
 10
-1820.910294
 20
-1469.424185
 30
0.0
 40
3.0
 41
0.0
 71
     5
 72
     1
  1
\A1;30°
 11
0.725244
 21
-0.688492
 31
0.0
  0
POINT
  5
7D9
100
AcDbEntity
  8
DEFPOINTS
  6
BYBLOCK
 62
     0
100
AcDbPoint
 10
-1813.054688
 20
-1476.77081
 30
0.0
  0
POINT
  5
7DA
100
AcDbEntity
  8
DEFPOINTS
  6
BYBLOCK
 62
     0
100
AcDbPoint
 10
-1810.750685
 20
-1433.451168
 30
0.0
  0
POINT
  5
7DB
100
AcDbEntity
  8
DEFPOINTS
  6
BYBLOCK
 62
     0
100
AcDbPoint
 10
-1810.750685
 20
-1463.704163
 30
0.0
  0
POINT
  5
7DC
100
AcDbEntity
  8
DEFPOINTS
  6
BYBLOCK
 62
     0
100
AcDbPoint
 10
-1818.41094
 20
-1476.972112
 30
0.0
  0
POINT
  5
7DD
100
AcDbEntity
  8
DEFPOINTS
  6
BYBLOCK
 62
     0
100
AcDbPoint
 10
-1810.750685
 20
-1463.704163
 30
0.0
  0
ENDBLK
  5
7DE
100
AcDbEntity
  8
0
100
AcDbBlockEnd
  0
BLOCK
  5
7E1
100
AcDbEntity
  8
0
100
AcDbBlockBegin
  2
*D18
 70
    65
 10
0.0
 20
0.0
 30
0.0
  3
*D18
  1

  0
LINE
  5
7E2
100
AcDbEntity
  8
0
  6
BYBLOCK
 62
     0
100
AcDbLine
 10
-1809.750685
 20
-1481.972112
 30
0.0
 11
-1817.210711
 21
-1481.198793
 31
0.0
  0
SOLID
  5
7E3
100
AcDbEntity
  8
0
  6
BYBLOCK
 62
     0
100
AcDbTrace
 10
-1817.167749
 20
-1480.784347
 30
0.0
 11
-1817.253673
 21
-1481.613239
 31
0.0
 12
-1819.697386
 22
-1480.94102
 32
0.0
 13
-1819.697386
 23
-1480.94102
 33
0.0
  0
MTEXT
  5
7E4
100
AcDbEntity
  8
0
  6
BYBLOCK
 62
     0
100
AcDbMText
 10
-1814.504929
 20
-1479.342892
 30
0.0
 40
3.0
 41
0.0
 71
     5
 72
     1
  1
\A1;R10
 11
0.99467
 21
-0.103109
 31
0.0
  0
POINT
  5
7E5
100
AcDbEntity
  8
DEFPOINTS
  6
BYBLOCK
 62
     0
100
AcDbPoint
 10
-1819.697386
 20
-1480.94102
 30
0.0
  0
POINT
  5
7E6
100
AcDbEntity
  8
DEFPOINTS
  6
BYBLOCK
 62
     0
100
AcDbPoint
 10
-1809.750685
 20
-1481.972112
 30
0.0
  0
ENDBLK
  5
7E7
100
AcDbEntity
  8
0
100
AcDbBlockEnd
  0
BLOCK
  5
7EA
100
AcDbEntity
  8
0
100
AcDbBlockBegin
  2
*D19
 70
    65
 10
0.0
 20
0.0
 30
0.0
  3
*D19
  1

  0
LINE
  5
7EB
100
AcDbEntity
  8
0
  6
BYBLOCK
 62
     0
100
AcDbLine
 10
-1809.750685
 20
-1553.83635
 30
0.0
 11
-1817.211946
 21
-1554.597657
 31
0.0
  0
SOLID
  5
7EC
100
AcDbEntity
  8
0
  6
BYBLOCK
 62
     0
100
AcDbTrace
 10
-1817.254241
 20
-1554.183143
 30
0.0
 11
-1817.169651
 21
-1555.012172
 31
0.0
 12
-1819.699033
 22
-1554.851426
 32
0.0
 13
-1819.699033
 23
-1554.851426
 33
0.0
  0
MTEXT
  5
7ED
100
AcDbEntity
  8
0
  6
BYBLOCK
 62
     0
100
AcDbMText
 10
-1814.940563
 20
-1552.229864
 30
0.0
 40
3.0
 41
0.0
 71
     5
 72
     1
  1
\A1;R10
 11
0.994835
 21
0.101508
 31
0.0
  0
POINT
  5
7EE
100
AcDbEntity
  8
DEFPOINTS
  6
BYBLOCK
 62
     0
100
AcDbPoint
 10
-1819.699033
 20
-1554.851426
 30
0.0
  0
POINT
  5
7EF
100
AcDbEntity
  8
DEFPOINTS
  6
BYBLOCK
 62
     0
100
AcDbPoint
 10
-1809.750685
 20
-1553.83635
 30
0.0
  0
ENDBLK
  5
7F0
100
AcDbEntity
  8
0
100
AcDbBlockEnd
  0
BLOCK
  5
846
100
AcDbEntity
  8
0
100
AcDbBlockBegin
  2
*D20
 70
    65
 10
0.0
 20
0.0
 30
0.0
  3
*D20
  1

  0
LINE
  5
847
100
AcDbEntity
  8
0
  6
BYBLOCK
 62
     0
100
AcDbLine
 10
-1815.026314
 20
-1583.704163
 30
0.0
 11
-1799.536683
 21
-1583.704163
 31
0.0
  0
LINE
  5
848
100
AcDbEntity
  8
0
  6
BYBLOCK
 62
     0
100
AcDbLine
 10
-1819.125685
 20
-1598.704163
 30
0.0
 11
-1799.536683
 21
-1598.704163
 31
0.0
  0
LINE
  5
849
100
AcDbEntity
  8
0
  6
BYBLOCK
 62
     0
100
AcDbLine
 10
-1800.786683
 20
-1586.204163
 30
0.0
 11
-1800.786683
 21
-1596.204163
 31
0.0
  0
SOLID
  5
84A
100
AcDbEntity
  8
0
  6
BYBLOCK
 62
     0
100
AcDbTrace
 10
-1801.20335
 20
-1586.204163
 30
0.0
 11
-1800.370017
 21
-1586.204163
 31
0.0
 12
-1800.786683
 22
-1583.704163
 32
0.0
 13
-1800.786683
 23
-1583.704163
 33
0.0
  0
SOLID
  5
84B
100
AcDbEntity
  8
0
  6
BYBLOCK
 62
     0
100
AcDbTrace
 10
-1801.20335
 20
-1596.204163
 30
0.0
 11
-1800.370017
 21
-1596.204163
 31
0.0
 12
-1800.786683
 22
-1598.704163
 32
0.0
 13
-1800.786683
 23
-1598.704163
 33
0.0
  0
MTEXT
  5
84C
100
AcDbEntity
  8
0
  6
BYBLOCK
 62
     0
100
AcDbMText
 10
-1802.911683
 20
-1591.204163
 30
0.0
 40
3.0
 41
0.0
 71
     5
 72
     1
  1
\A1;15
 11
0.0
 21
1.0
 31
0.0
  0
POINT
  5
84D
100
AcDbEntity
  8
DEFPOINTS
  6
BYBLOCK
 62
     0
100
AcDbPoint
 10
-1815.651314
 20
-1583.704163
 30
0.0
  0
POINT
  5
84E
100
AcDbEntity
  8
DEFPOINTS
  6
BYBLOCK
 62
     0
100
AcDbPoint
 10
-1819.750685
 20
-1598.704163
 30
0.0
  0
POINT
  5
84F
100
AcDbEntity
  8
DEFPOINTS
  6
BYBLOCK
 62
     0
100
AcDbPoint
 10
-1800.786683
 20
-1598.704163
 30
0.0
  0
ENDBLK
  5
850
100
AcDbEntity
  8
0
100
AcDbBlockEnd
  0
BLOCK
  5
824
100
AcDbEntity
  8
0
100
AcDbBlockBegin
  2
*D21
 70
    65
 10
0.0
 20
0.0
 30
0.0
  3
*D21
  1

  0
ARC
  5
825
100
AcDbEntity
  8
0
  6
BYBLOCK
 62
     0
100
AcDbCircle
 10
-1819.750685
 20
-1601.460492
 30
0.0
 40
16.77343
100
AcDbArc
 50
85.547588
 51
94.452412
  0
SOLID
  5
826
100
AcDbEntity
  8
0
  6
BYBLOCK
 62
     0
100
AcDbTrace
 10
-1818.385332
 20
-1584.325838
 30
0.0
 11
-1818.51176
 21
-1585.149525
 31
0.0
 12
-1815.977485
 22
-1585.116964
 32
0.0
 13
-1815.977485
 23
-1585.116964
 33
0.0
  0
SOLID
  5
827
100
AcDbEntity
  8
0
  6
BYBLOCK
 62
     0
100
AcDbTrace
 10
-1820.989611
 20
-1585.149525
 30
0.0
 11
-1821.116038
 21
-1584.325838
 31
0.0
 12
-1823.523886
 22
-1585.116964
 32
0.0
 13
-1823.523886
 23
-1585.116964
 33
0.0
  0
MTEXT
  5
828
100
AcDbEntity
  8
0
  6
BYBLOCK
 62
     0
100
AcDbMText
 10
-1819.284113
 20
-1582.567822
 30
0.0
 40
3.0
 41
0.0
 71
     5
 72
     1
  1
\A1;26°
 11
0.999695
 21
-0.024688
 31
0.0
  0
POINT
  5
829
100
AcDbEntity
  8
DEFPOINTS
  6
BYBLOCK
 62
     0
100
AcDbPoint
 10
-1821.018067
 20
-1584.735011
 30
0.0
  0
POINT
  5
82A
100
AcDbEntity
  8
DEFPOINTS
  6
BYBLOCK
 62
     0
100
AcDbPoint
 10
-1820.530182
 20
-1598.084124
 30
0.0
  0
POINT
  5
82B
100
AcDbEntity
  8
DEFPOINTS
  6
BYBLOCK
 62
     0
100
AcDbPoint
 10
-1818.971189
 20
-1598.084124
 30
0.0
  0
POINT
  5
82C
100
AcDbEntity
  8
DEFPOINTS
  6
BYBLOCK
 62
     0
100
AcDbPoint
 10
-1815.651314
 20
-1583.704163
 30
0.0
  0
POINT
  5
82D
100
AcDbEntity
  8
DEFPOINTS
  6
BYBLOCK
 62
     0
100
AcDbPoint
 10
-1823.850057
 20
-1583.704163
 30
0.0
  0
ENDBLK
  5
82E
100
AcDbEntity
  8
0
100
AcDbBlockEnd
  0
BLOCK
  5
92D
100
AcDbEntity
  8
0
100
AcDbBlockBegin
  2
*D22
 70
    65
 10
0.0
 20
0.0
 30
0.0
  3
*D22
  1

  0
LINE
  5
92E
100
AcDbEntity
  8
0
  6
BYBLOCK
 62
     0
100
AcDbLine
 10
-1820.585889
 20
-1601.096722
 30
0.0
 11
-1823.32841
 21
-1611.579991
 31
0.0
  0
SOLID
  5
92F
100
AcDbEntity
  8
0
  6
BYBLOCK
 62
     0
100
AcDbTrace
 10
-1820.98899
 20
-1600.991267
 30
0.0
 11
-1820.182788
 21
-1601.202177
 31
0.0
 12
-1819.953159
 22
-1598.678117
 32
0.0
 13
-1819.953159
 23
-1598.678117
 33
0.0
  0
MTEXT
  5
930
100
AcDbEntity
  8
0
  6
BYBLOCK
 62
     0
100
AcDbMText
 10
-1824.307318
 20
-1606.925704
 30
0.0
 40
3.0
 41
0.0
 71
     5
 72
     1
  1
\A1;R0.8
 11
0.253092
 21
0.967442
 31
0.0
  0
POINT
  5
931
100
AcDbEntity
  8
DEFPOINTS
  6
BYBLOCK
 62
     0
100
AcDbPoint
 10
-1819.953159
 20
-1598.678117
 30
0.0
  0
POINT
  5
932
100
AcDbEntity
  8
DEFPOINTS
  6
BYBLOCK
 62
     0
100
AcDbPoint
 10
-1819.750685
 20
-1597.904163
 30
0.0
  0
ENDBLK
  5
933
100
AcDbEntity
  8
0
100
AcDbBlockEnd
  0
BLOCK
  5
83A
100
AcDbEntity
  8
0
100
AcDbBlockBegin
  2
*D23
 70
    65
 10
0.0
 20
0.0
 30
0.0
  3
*D23
  1

  0
LINE
  5
83B
100
AcDbEntity
  8
0
  6
BYBLOCK
 62
     0
100
AcDbLine
 10
-1824.475057
 20
-1583.704163
 30
0.0
 11
-1841.46326
 21
-1583.704163
 31
0.0
  0
LINE
  5
83C
100
AcDbEntity
  8
0
  6
BYBLOCK
 62
     0
100
AcDbLine
 10
-1820.375685
 20
-1598.704163
 30
0.0
 11
-1841.46326
 21
-1598.704163
 31
0.0
  0
LINE
  5
83D
100
AcDbEntity
  8
0
  6
BYBLOCK
 62
     0
100
AcDbLine
 10
-1840.21326
 20
-1586.204163
 30
0.0
 11
-1840.21326
 21
-1596.204163
 31
0.0
  0
SOLID
  5
83E
100
AcDbEntity
  8
0
  6
BYBLOCK
 62
     0
100
AcDbTrace
 10
-1840.629927
 20
-1586.204163
 30
0.0
 11
-1839.796594
 21
-1586.204163
 31
0.0
 12
-1840.21326
 22
-1583.704163
 32
0.0
 13
-1840.21326
 23
-1583.704163
 33
0.0
  0
SOLID
  5
83F
100
AcDbEntity
  8
0
  6
BYBLOCK
 62
     0
100
AcDbTrace
 10
-1840.629927
 20
-1596.204163
 30
0.0
 11
-1839.796594
 21
-1596.204163
 31
0.0
 12
-1840.21326
 22
-1598.704163
 32
0.0
 13
-1840.21326
 23
-1598.704163
 33
0.0
  0
MTEXT
  5
840
100
AcDbEntity
  8
0
  6
BYBLOCK
 62
     0
100
AcDbMText
 10
-1842.33826
 20
-1591.204163
 30
0.0
 40
3.0
 41
0.0
 71
     5
 72
     1
  1
\A1;15
 11
0.0
 21
1.0
 31
0.0
  0
POINT
  5
841
100
AcDbEntity
  8
DEFPOINTS
  6
BYBLOCK
 62
     0
100
AcDbPoint
 10
-1823.850057
 20
-1583.704163
 30
0.0
  0
POINT
  5
842
100
AcDbEntity
  8
DEFPOINTS
  6
BYBLOCK
 62
     0
100
AcDbPoint
 10
-1819.750685
 20
-1598.704163
 30
0.0
  0
POINT
  5
843
100
AcDbEntity
  8
DEFPOINTS
  6
BYBLOCK
 62
     0
100
AcDbPoint
 10
-1840.21326
 20
-1598.704163
 30
0.0
  0
ENDBLK
  5
844
100
AcDbEntity
  8
0
100
AcDbBlockEnd
  0
BLOCK
  5
877
100
AcDbEntity
  8
0
100
AcDbBlockBegin
  2
*D24
 70
    65
 10
0.0
 20
0.0
 30
0.0
  3
*D24
  1

  0
LINE
  5
878
100
AcDbEntity
  8
0
  6
BYBLOCK
 62
     0
100
AcDbLine
 10
-1823.990651
 20
-1583.095181
 30
0.0
 11
-1828.454001
 21
-1563.762292
 31
0.0
  0
LINE
  5
879
100
AcDbEntity
  8
0
  6
BYBLOCK
 62
     0
100
AcDbLine
 10
-1823.503466
 20
-1582.982706
 30
0.0
 11
-1827.966816
 21
-1563.649816
 31
0.0
  0
LINE
  5
87A
100
AcDbEntity
  8
0
  6
BYBLOCK
 62
     0
100
AcDbLine
 10
-1825.249702
 20
-1564.305401
 30
0.0
 11
-1822.813777
 21
-1563.743024
 31
0.0
  0
LINE
  5
87B
100
AcDbEntity
  8
0
  6
BYBLOCK
 62
     0
100
AcDbLine
 10
-1830.608737
 20
-1565.542632
 30
0.0
 11
-1844.975824
 21
-1568.859535
 31
0.0
  0
SOLID
  5
87C
100
AcDbEntity
  8
0
  6
BYBLOCK
 62
     0
100
AcDbTrace
 10
-1825.343431
 20
-1563.899414
 30
0.0
 11
-1825.155972
 21
-1564.711389
 31
0.0
 12
-1827.685627
 22
-1564.867779
 32
0.0
 13
-1827.685627
 23
-1564.867779
 33
0.0
  0
SOLID
  5
87D
100
AcDbEntity
  8
0
  6
BYBLOCK
 62
     0
100
AcDbTrace
 10
-1830.702467
 20
-1565.136645
 30
0.0
 11
-1830.515007
 21
-1565.94862
 31
0.0
 12
-1828.172812
 22
-1564.980255
 32
0.0
 13
-1828.172812
 23
-1564.980255
 33
0.0
  0
MTEXT
  5
87E
100
AcDbEntity
  8
0
  6
BYBLOCK
 62
     0
100
AcDbMText
 10
-1838.991217
 20
-1563.397109
 30
0.0
 40
3.0
 41
0.0
 71
     5
 72
     1
  1
\A1;0.5\S+0.1^  0;
 11
0.97437
 21
0.224951
 31
0.0
  0
POINT
  5
87F
100
AcDbEntity
  8
DEFPOINTS
  6
BYBLOCK
 62
     0
100
AcDbPoint
 10
-1823.850057
 20
-1583.704163
 30
0.0
  0
POINT
  5
880
100
AcDbEntity
  8
DEFPOINTS
  6
BYBLOCK
 62
     0
100
AcDbPoint
 10
-1823.362872
 20
-1583.591687
 30
0.0
  0
POINT
  5
881
100
AcDbEntity
  8
DEFPOINTS
  6
BYBLOCK
 62
     0
100
AcDbPoint
 10
-1827.685627
 20
-1564.867779
 30
0.0
  0
ENDBLK
  5
882
100
AcDbEntity
  8
0
100
AcDbBlockEnd
  0
BLOCK
  5
884
100
AcDbEntity
  8
0
100
AcDbBlockBegin
  2
*D25
 70
    65
 10
0.0
 20
0.0
 30
0.0
  3
*D25
  1

  0
LINE
  5
885
100
AcDbEntity
  8
0
  6
BYBLOCK
 62
     0
100
AcDbLine
 10
-1835.750685
 20
-1530.559172
 30
0.0
 11
-1835.750685
 21
-1553.194864
 31
0.0
  0
ARC
  5
886
100
AcDbEntity
  8
0
  6
BYBLOCK
 62
     0
100
AcDbCircle
 10
-1835.750685
 20
-1529.934172
 30
0.0
 40
22.010691
100
AcDbArc
 50
256.977551
 51
263.488775
  0
ARC
  5
887
100
AcDbEntity
  8
0
  6
BYBLOCK
 62
     0
100
AcDbCircle
 10
-1835.750685
 20
-1529.934172
 30
0.0
 40
22.010691
100
AcDbArc
 50
289.511225
 51
296.022449
  0
SOLID
  5
888
100
AcDbEntity
  8
0
  6
BYBLOCK
 62
     0
100
AcDbTrace
 10
-1838.222988
 20
-1551.386893
 30
0.0
 11
-1838.270313
 21
-1552.218881
 31
0.0
 12
-1835.750685
 22
-1551.944864
 32
0.0
 13
-1835.750685
 23
-1551.944864
 33
0.0
  0
SOLID
  5
889
100
AcDbEntity
  8
0
  6
BYBLOCK
 62
     0
100
AcDbTrace
 10
-1828.282667
 20
-1551.080933
 30
0.0
 11
-1828.515936
 21
-1550.280914
 31
0.0
 12
-1830.799357
 22
-1551.380731
 32
0.0
 13
-1830.799357
 23
-1551.380731
 33
0.0
  0
MTEXT
  5
88A
100
AcDbEntity
  8
0
  6
BYBLOCK
 62
     0
100
AcDbMText
 10
-1841.856609
 20
-1548.859246
 30
0.0
 40
3.0
 41
0.0
 71
     5
 72
     1
  1
\A1;13°
 11
0.951693
 21
-0.307051
 31
0.0
  0
POINT
  5
88B
100
AcDbEntity
  8
DEFPOINTS
  6
BYBLOCK
 62
     0
100
AcDbPoint
 10
-1832.433989
 20
-1551.693539
 30
0.0
  0
POINT
  5
88C
100
AcDbEntity
  8
DEFPOINTS
  6
BYBLOCK
 62
     0
100
AcDbPoint
 10
-1835.750685
 20
-1442.704163
 30
0.0
  0
POINT
  5
88D
100
AcDbEntity
  8
DEFPOINTS
  6
BYBLOCK
 62
     0
100
AcDbPoint
 10
-1823.939762
 20
-1581.092903
 30
0.0
  0
POINT
  5
88E
100
AcDbEntity
  8
DEFPOINTS
  6
BYBLOCK
 62
     0
100
AcDbPoint
 10
-1835.750685
 20
-1529.934172
 30
0.0
  0
POINT
  5
88F
100
AcDbEntity
  8
DEFPOINTS
  6
BYBLOCK
 62
     0
100
AcDbPoint
 10
-1835.750685
 20
-1529.934172
 30
0.0
  0
ENDBLK
  5
890
100
AcDbEntity
  8
0
100
AcDbBlockEnd
  0
BLOCK
  5
8AE
100
AcDbEntity
  8
0
100
AcDbBlockBegin
  2
*D26
 70
    65
 10
0.0
 20
0.0
 30
0.0
  3
*D26
  1

  0
ARC
  5
8AF
100
AcDbEntity
  8
0
  6
BYBLOCK
 62
     0
100
AcDbCircle
 10
-1819.750685
 20
-1554.535618
 30
0.0
 40
11.900623
100
AcDbArc
 50
290.058541
 51
77.941459
  0
SOLID
  5
8B0
100
AcDbEntity
  8
0
  6
BYBLOCK
 62
     0
100
AcDbTrace
 10
-1815.568001
 20
-1566.11862
 30
0.0
 11
-1815.770016
 21
-1565.310143
 31
0.0
 12
-1818.094439
 22
-1566.320426
 32
0.0
 13
-1818.094439
 23
-1566.320426
 33
0.0
  0
SOLID
  5
8B1
100
AcDbEntity
  8
0
  6
BYBLOCK
 62
     0
100
AcDbTrace
 10
-1817.30828
 20
-1543.311948
 30
0.0
 11
-1817.220749
 21
-1542.483224
 31
0.0
 12
-1819.750685
 22
-1542.634995
 32
0.0
 13
-1819.750685
 23
-1542.634995
 33
0.0
  0
MTEXT
  5
8B2
100
AcDbEntity
  8
0
  6
BYBLOCK
 62
     0
100
AcDbMText
 10
-1807.667575
 20
-1547.414062
 30
0.0
 40
3.0
 41
0.0
 71
     5
 72
     1
  1
\A1;172°
 11
0.507753
 21
-0.861503
 31
0.0
  0
POINT
  5
8B3
100
AcDbEntity
  8
DEFPOINTS
  6
BYBLOCK
 62
     0
100
AcDbPoint
 10
-1808.93598
 20
-1559.502206
 30
0.0
  0
POINT
  5
8B4
100
AcDbEntity
  8
DEFPOINTS
  6
BYBLOCK
 62
     0
100
AcDbPoint
 10
-1819.750685
 20
-1580.488818
 30
0.0
  0
POINT
  5
8B5
100
AcDbEntity
  8
DEFPOINTS
  6
BYBLOCK
 62
     0
100
AcDbPoint
 10
-1815.651314
 20
-1583.704163
 30
0.0
  0
POINT
  5
8B6
100
AcDbEntity
  8
DEFPOINTS
  6
BYBLOCK
 62
     0
100
AcDbPoint
 10
-1819.653366
 20
-1555.228081
 30
0.0
  0
POINT
  5
8B7
100
AcDbEntity
  8
DEFPOINTS
  6
BYBLOCK
 62
     0
100
AcDbPoint
 10
-1819.750685
 20
-1436.479763
 30
0.0
  0
ENDBLK
  5
8B8
100
AcDbEntity
  8
0
100
AcDbBlockEnd
  0
BLOCK
  5
8D1
100
AcDbEntity
  8
0
100
AcDbBlockBegin
  2
*D27
 70
    65
 10
0.0
 20
0.0
 30
0.0
  3
*D27
  1

  0
LINE
  5
8D2
100
AcDbEntity
  8
0
  6
BYBLOCK
 62
     0
100
AcDbLine
 10
-1810.750685
 20
-1464.329163
 30
0.0
 11
-1810.750685
 21
-1497.541855
 31
0.0
  0
LINE
  5
8D3
100
AcDbEntity
  8
0
  6
BYBLOCK
 62
     0
100
AcDbLine
 10
-1819.750685
 20
-1496.59352
 30
0.0
 11
-1819.750685
 21
-1497.541855
 31
0.0
  0
LINE
  5
8D4
100
AcDbEntity
  8
0
  6
BYBLOCK
 62
     0
100
AcDbLine
 10
-1813.250685
 20
-1496.291855
 30
0.0
 11
-1817.250685
 21
-1496.291855
 31
0.0
  0
LINE
  5
8D5
100
AcDbEntity
  8
0
  6
BYBLOCK
 62
     0
100
AcDbLine
 10
-1819.750685
 20
-1496.291855
 30
0.0
 11
-1832.092217
 21
-1496.291855
 31
0.0
  0
SOLID
  5
8D6
100
AcDbEntity
  8
0
  6
BYBLOCK
 62
     0
100
AcDbTrace
 10
-1813.250685
 20
-1495.875188
 30
0.0
 11
-1813.250685
 21
-1496.708522
 31
0.0
 12
-1810.750685
 22
-1496.291855
 32
0.0
 13
-1810.750685
 23
-1496.291855
 33
0.0
  0
SOLID
  5
8D7
100
AcDbEntity
  8
0
  6
BYBLOCK
 62
     0
100
AcDbTrace
 10
-1817.250685
 20
-1495.875188
 30
0.0
 11
-1817.250685
 21
-1496.708522
 31
0.0
 12
-1819.750685
 22
-1496.291855
 32
0.0
 13
-1819.750685
 23
-1496.291855
 33
0.0
  0
MTEXT
  5
8D8
100
AcDbEntity
  8
0
  6
BYBLOCK
 62
     0
100
AcDbMText
 10
-1827.171451
 20
-1494.166855
 30
0.0
 40
3.0
 41
0.0
 71
     5
 72
     1
  1
\A1;9±0.1
  0
POINT
  5
8D9
100
AcDbEntity
  8
DEFPOINTS
  6
BYBLOCK
 62
     0
100
AcDbPoint
 10
-1810.750685
 20
-1463.704163
 30
0.0
  0
POINT
  5
8DA
100
AcDbEntity
  8
DEFPOINTS
  6
BYBLOCK
 62
     0
100
AcDbPoint
 10
-1819.750685
 20
-1495.96852
 30
0.0
  0
POINT
  5
8DB
100
AcDbEntity
  8
DEFPOINTS
  6
BYBLOCK
 62
     0
100
AcDbPoint
 10
-1819.750685
 20
-1496.291855
 30
0.0
  0
ENDBLK
  5
8DC
100
AcDbEntity
  8
0
100
AcDbBlockEnd
  0
BLOCK
  5
8F6
100
AcDbEntity
  8
0
100
AcDbBlockBegin
  2
*X28
 70
    65
 10
0.0
 20
0.0
 30
0.0
  3
*X28
  1

  0
LINE
  5
8F8
100
AcDbEntity
  8
0
 62
     0
100
AcDbLine
 10
-1820.798724
 20
-1596.920939
 30
0.0
 11
-1819.750685
 21
-1595.8729
 31
0.0
  0
LINE
  5
8F9
100
AcDbEntity
  8
0
 62
     0
100
AcDbLine
 10
-1819.750685
 20
-1595.8729
 30
0.0
 11
-1818.073473
 21
-1594.195688
 31
0.0
  0
LINE
  5
8FA
100
AcDbEntity
  8
0
 62
     0
100
AcDbLine
 10
-1820.849255
 20
-1596.702063
 30
0.0
 11
-1819.750685
 21
-1595.603493
 31
0.0
  0
LINE
  5
8FB
100
AcDbEntity
  8
0
 62
     0
100
AcDbLine
 10
-1819.750685
 20
-1595.603493
 30
0.0
 11
-1817.992606
 21
-1593.845413
 31
0.0
  0
LINE
  5
8FC
100
AcDbEntity
  8
0
 62
     0
100
AcDbLine
 10
-1820.899787
 20
-1596.483187
 30
0.0
 11
-1819.750685
 21
-1595.334085
 31
0.0
  0
LINE
  5
8FD
100
AcDbEntity
  8
0
 62
     0
100
AcDbLine
 10
-1818.06931
 20
-1593.65271
 30
0.0
 11
-1817.911739
 21
-1593.495138
 31
0.0
  0
LINE
  5
8FE
100
AcDbEntity
  8
0
 62
     0
100
AcDbLine
 10
-1819.750685
 20
-1595.334085
 30
0.0
 11
-1818.667645
 21
-1594.251044
 31
0.0
  0
LINE
  5
8FF
100
AcDbEntity
  8
0
 62
     0
100
AcDbLine
 10
-1820.950319
 20
-1596.26431
 30
0.0
 11
-1819.750685
 21
-1595.064677
 31
0.0
  0
LINE
  5
900
100
AcDbEntity
  8
0
 62
     0
100
AcDbLine
 10
-1817.837048
 20
-1593.15104
 30
0.0
 11
-1817.830871
 21
-1593.144863
 31
0.0
  0
LINE
  5
901
100
AcDbEntity
  8
0
 62
     0
100
AcDbLine
 10
-1819.750685
 20
-1595.064677
 30
0.0
 11
-1819.169314
 21
-1594.483306
 31
0.0
  0
LINE
  5
902
100
AcDbEntity
  8
0
 62
     0
100
AcDbLine
 10
-1821.00085
 20
-1596.045434
 30
0.0
 11
-1819.750685
 21
-1594.79527
 31
0.0
  0
LINE
  5
903
100
AcDbEntity
  8
0
 62
     0
100
AcDbLine
 10
-1819.750685
 20
-1594.79527
 30
0.0
 11
-1819.510625
 21
-1594.555209
 31
0.0
  0
LINE
  5
904
100
AcDbEntity
  8
0
 62
     0
100
AcDbLine
 10
-1821.051382
 20
-1595.826558
 30
0.0
 11
-1819.794023
 21
-1594.569199
 31
0.0
  0
LINE
  5
905
100
AcDbEntity
  8
0
 62
     0
100
AcDbLine
 10
-1821.101913
 20
-1595.607682
 30
0.0
 11
-1820.042497
 21
-1594.548266
 31
0.0
  0
LINE
  5
906
100
AcDbEntity
  8
0
 62
     0
100
AcDbLine
 10
-1821.152445
 20
-1595.388806
 30
0.0
 11
-1820.265827
 21
-1594.502188
 31
0.0
  0
LINE
  5
907
100
AcDbEntity
  8
0
 62
     0
100
AcDbLine
 10
-1821.202976
 20
-1595.16993
 30
0.0
 11
-1820.469195
 21
-1594.436148
 31
0.0
  0
LINE
  5
908
100
AcDbEntity
  8
0
 62
     0
100
AcDbLine
 10
-1821.253508
 20
-1594.951053
 30
0.0
 11
-1820.655663
 21
-1594.353209
 31
0.0
  0
LINE
  5
909
100
AcDbEntity
  8
0
 62
     0
100
AcDbLine
 10
-1821.304039
 20
-1594.732177
 30
0.0
 11
-1820.827134
 21
-1594.255272
 31
0.0
  0
LINE
  5
90A
100
AcDbEntity
  8
0
 62
     0
100
AcDbLine
 10
-1821.354571
 20
-1594.513301
 30
0.0
 11
-1820.984786
 21
-1594.143516
 31
0.0
  0
LINE
  5
90B
100
AcDbEntity
  8
0
 62
     0
100
AcDbLine
 10
-1821.405102
 20
-1594.294425
 30
0.0
 11
-1821.129292
 21
-1594.018615
 31
0.0
  0
LINE
  5
90C
100
AcDbEntity
  8
0
 62
     0
100
AcDbLine
 10
-1821.455634
 20
-1594.075549
 30
0.0
 11
-1821.260926
 21
-1593.880841
 31
0.0
  0
LINE
  5
90D
100
AcDbEntity
  8
0
 62
     0
100
AcDbLine
 10
-1821.506165
 20
-1593.856673
 30
0.0
 11
-1821.379604
 21
-1593.730111
 31
0.0
  0
LINE
  5
90E
100
AcDbEntity
  8
0
 62
     0
100
AcDbLine
 10
-1821.556697
 20
-1593.637797
 30
0.0
 11
-1821.484868
 21
-1593.565968
 31
0.0
  0
LINE
  5
90F
100
AcDbEntity
  8
0
 62
     0
100
AcDbLine
 10
-1821.607229
 20
-1593.41892
 30
0.0
 11
-1821.575823
 21
-1593.387515
 31
0.0
  0
LINE
  5
910
100
AcDbEntity
  8
0
 62
     0
100
AcDbLine
 10
-1821.65776
 20
-1593.200044
 30
0.0
 11
-1821.650982
 21
-1593.193266
 31
0.0
  0
LINE
  5
911
100
AcDbEntity
  8
0
 62
     0
100
AcDbLine
 10
-1820.748192
 20
-1597.139815
 30
0.0
 11
-1819.750685
 21
-1596.142308
 31
0.0
  0
LINE
  5
912
100
AcDbEntity
  8
0
 62
     0
100
AcDbLine
 10
-1819.750685
 20
-1596.142308
 30
0.0
 11
-1818.154341
 21
-1594.545963
 31
0.0
  0
LINE
  5
913
100
AcDbEntity
  8
0
 62
     0
100
AcDbLine
 10
-1820.697661
 20
-1597.358691
 30
0.0
 11
-1819.750685
 21
-1596.411716
 31
0.0
  0
LINE
  5
914
100
AcDbEntity
  8
0
 62
     0
100
AcDbLine
 10
-1819.750685
 20
-1596.411716
 30
0.0
 11
-1818.235208
 21
-1594.896238
 31
0.0
  0
LINE
  5
915
100
AcDbEntity
  8
0
 62
     0
100
AcDbLine
 10
-1820.647129
 20
-1597.577567
 30
0.0
 11
-1819.750685
 21
-1596.681123
 31
0.0
  0
LINE
  5
916
100
AcDbEntity
  8
0
 62
     0
100
AcDbLine
 10
-1819.750685
 20
-1596.681123
 30
0.0
 11
-1818.316075
 21
-1595.246513
 31
0.0
  0
LINE
  5
917
100
AcDbEntity
  8
0
 62
     0
100
AcDbLine
 10
-1820.596598
 20
-1597.796443
 30
0.0
 11
-1819.750685
 21
-1596.950531
 31
0.0
  0
LINE
  5
918
100
AcDbEntity
  8
0
 62
     0
100
AcDbLine
 10
-1819.750685
 20
-1596.950531
 30
0.0
 11
-1818.396943
 21
-1595.596788
 31
0.0
  0
LINE
  5
919
100
AcDbEntity
  8
0
 62
     0
100
AcDbLine
 10
-1820.546066
 20
-1598.01532
 30
0.0
 11
-1819.750685
 21
-1597.219939
 31
0.0
  0
LINE
  5
91A
100
AcDbEntity
  8
0
 62
     0
100
AcDbLine
 10
-1819.750685
 20
-1597.219939
 30
0.0
 11
-1818.47781
 21
-1595.947064
 31
0.0
  0
LINE
  5
91B
100
AcDbEntity
  8
0
 62
     0
100
AcDbLine
 10
-1820.484384
 20
-1598.223045
 30
0.0
 11
-1819.750685
 21
-1597.489346
 31
0.0
  0
LINE
  5
91C
100
AcDbEntity
  8
0
 62
     0
100
AcDbLine
 10
-1819.750685
 20
-1597.489346
 30
0.0
 11
-1818.558678
 21
-1596.297339
 31
0.0
  0
LINE
  5
91D
100
AcDbEntity
  8
0
 62
     0
100
AcDbLine
 10
-1820.384384
 20
-1598.392452
 30
0.0
 11
-1819.750685
 21
-1597.758754
 31
0.0
  0
LINE
  5
91E
100
AcDbEntity
  8
0
 62
     0
100
AcDbLine
 10
-1819.750685
 20
-1597.758754
 30
0.0
 11
-1818.639545
 21
-1596.647614
 31
0.0
  0
LINE
  5
91F
100
AcDbEntity
  8
0
 62
     0
100
AcDbLine
 10
-1820.250963
 20
-1598.52844
 30
0.0
 11
-1819.750685
 21
-1598.028162
 31
0.0
  0
LINE
  5
920
100
AcDbEntity
  8
0
 62
     0
100
AcDbLine
 10
-1819.750685
 20
-1598.028162
 30
0.0
 11
-1818.720412
 21
-1596.997889
 31
0.0
  0
LINE
  5
921
100
AcDbEntity
  8
0
 62
     0
100
AcDbLine
 10
-1820.084367
 20
-1598.631251
 30
0.0
 11
-1819.750685
 21
-1598.29757
 31
0.0
  0
LINE
  5
922
100
AcDbEntity
  8
0
 62
     0
100
AcDbLine
 10
-1819.750685
 20
-1598.29757
 30
0.0
 11
-1818.80128
 21
-1597.348164
 31
0.0
  0
LINE
  5
923
100
AcDbEntity
  8
0
 62
     0
100
AcDbLine
 10
-1819.87772
 20
-1598.694012
 30
0.0
 11
-1819.750685
 21
-1598.566977
 31
0.0
  0
LINE
  5
924
100
AcDbEntity
  8
0
 62
     0
100
AcDbLine
 10
-1819.750685
 20
-1598.566977
 30
0.0
 11
-1818.882147
 21
-1597.698439
 31
0.0
  0
LINE
  5
925
100
AcDbEntity
  8
0
 62
     0
100
AcDbLine
 10
-1819.605106
 20
-1598.690805
 30
0.0
 11
-1818.963014
 21
-1598.048714
 31
0.0
  0
ENDBLK
  5
926
100
AcDbEntity
  8
0
100
AcDbBlockEnd
  0
BLOCK
  5
986
100
AcDbEntity
  8
0
100
AcDbBlockBegin
  2
*D29
 70
    65
 10
0.0
 20
0.0
 30
0.0
  3
*D29
  1

  0
LINE
  5
987
100
AcDbEntity
  8
0
  6
BYBLOCK
 62
     0
100
AcDbLine
 10
-1913.376625
 20
-1512.697803
 30
0.0
 11
-1909.60456
 21
-1512.697803
 31
0.0
  0
LINE
  5
988
100
AcDbEntity
  8
0
  6
BYBLOCK
 62
     0
100
AcDbLine
 10
-1911.84771
 20
-1502.197803
 30
0.0
 11
-1909.60456
 21
-1502.197803
 31
0.0
  0
LINE
  5
989
100
AcDbEntity
  8
0
  6
BYBLOCK
 62
     0
100
AcDbLine
 10
-1910.85456
 20
-1510.197803
 30
0.0
 11
-1910.85456
 21
-1504.697803
 31
0.0
  0
SOLID
  5
98A
100
AcDbEntity
  8
0
  6
BYBLOCK
 62
     0
100
AcDbTrace
 10
-1911.271227
 20
-1510.197803
 30
0.0
 11
-1910.437894
 21
-1510.197803
 31
0.0
 12
-1910.85456
 22
-1512.697803
 32
0.0
 13
-1910.85456
 23
-1512.697803
 33
0.0
  0
SOLID
  5
98B
100
AcDbEntity
  8
0
  6
BYBLOCK
 62
     0
100
AcDbTrace
 10
-1911.271227
 20
-1504.697803
 30
0.0
 11
-1910.437894
 21
-1504.697803
 31
0.0
 12
-1910.85456
 22
-1502.197803
 32
0.0
 13
-1910.85456
 23
-1502.197803
 33
0.0
  0
MTEXT
  5
98C
100
AcDbEntity
  8
0
  6
BYBLOCK
 62
     0
100
AcDbMText
 10
-1912.97956
 20
-1507.447803
 30
0.0
 40
3.0
 41
0.0
 71
     5
 72
     1
  1
\A1;{=}
 11
0.0
 21
1.0
 31
0.0
  0
POINT
  5
98D
100
AcDbEntity
  8
DEFPOINTS
  6
BYBLOCK
 62
     0
100
AcDbPoint
 10
-1914.001625
 20
-1512.697803
 30
0.0
  0
POINT
  5
98E
100
AcDbEntity
  8
DEFPOINTS
  6
BYBLOCK
 62
     0
100
AcDbPoint
 10
-1912.47271
 20
-1502.197803
 30
0.0
  0
POINT
  5
98F
100
AcDbEntity
  8
DEFPOINTS
  6
BYBLOCK
 62
     0
100
AcDbPoint
 10
-1910.85456
 20
-1502.197803
 30
0.0
  0
ENDBLK
  5
990
100
AcDbEntity
  8
0
100
AcDbBlockEnd
  0
BLOCK
  5
9C0
100
AcDbEntity
  8
0
100
AcDbBlockBegin
  2
*D30
 70
    65
 10
0.0
 20
0.0
 30
0.0
  3
*D30
  1

  0
LINE
  5
9C1
100
AcDbEntity
  8
0
  6
BYBLOCK
 62
     0
100
AcDbLine
 10
-1913.376625
 20
-1516.697803
 30
0.0
 11
-1909.60456
 21
-1516.697803
 31
0.0
  0
LINE
  5
9C2
100
AcDbEntity
  8
0
  6
BYBLOCK
 62
     0
100
AcDbLine
 10
-1911.038635
 20
-1527.197803
 30
0.0
 11
-1909.60456
 21
-1527.197803
 31
0.0
  0
LINE
  5
9C3
100
AcDbEntity
  8
0
  6
BYBLOCK
 62
     0
100
AcDbLine
 10
-1910.85456
 20
-1519.197803
 30
0.0
 11
-1910.85456
 21
-1524.697803
 31
0.0
  0
SOLID
  5
9C4
100
AcDbEntity
  8
0
  6
BYBLOCK
 62
     0
100
AcDbTrace
 10
-1911.271227
 20
-1519.197803
 30
0.0
 11
-1910.437894
 21
-1519.197803
 31
0.0
 12
-1910.85456
 22
-1516.697803
 32
0.0
 13
-1910.85456
 23
-1516.697803
 33
0.0
  0
SOLID
  5
9C5
100
AcDbEntity
  8
0
  6
BYBLOCK
 62
     0
100
AcDbTrace
 10
-1911.271227
 20
-1524.697803
 30
0.0
 11
-1910.437894
 21
-1524.697803
 31
0.0
 12
-1910.85456
 22
-1527.197803
 32
0.0
 13
-1910.85456
 23
-1527.197803
 33
0.0
  0
MTEXT
  5
9C6
100
AcDbEntity
  8
0
  6
BYBLOCK
 62
     0
100
AcDbMText
 10
-1912.97956
 20
-1521.947803
 30
0.0
 40
3.0
 41
0.0
 71
     5
 72
     1
  1
\A1;{=}
 11
0.0
 21
1.0
 31
0.0
  0
POINT
  5
9C7
100
AcDbEntity
  8
DEFPOINTS
  6
BYBLOCK
 62
     0
100
AcDbPoint
 10
-1914.001625
 20
-1516.697803
 30
0.0
  0
POINT
  5
9C8
100
AcDbEntity
  8
DEFPOINTS
  6
BYBLOCK
 62
     0
100
AcDbPoint
 10
-1911.663635
 20
-1527.197803
 30
0.0
  0
POINT
  5
9C9
100
AcDbEntity
  8
DEFPOINTS
  6
BYBLOCK
 62
     0
100
AcDbPoint
 10
-1910.85456
 20
-1527.197803
 30
0.0
  0
ENDBLK
  5
9CA
100
AcDbEntity
  8
0
100
AcDbBlockEnd
  0
BLOCK
  5
9F1
100
AcDbEntity
  8
0
100
AcDbBlockBegin
  2
*D31
 70
    65
 10
0.0
 20
0.0
 30
0.0
  3
*D31
  1

  0
LINE
  5
9F2
100
AcDbEntity
  8
0
  6
BYBLOCK
 62
     0
100
AcDbLine
 10
-1922.001625
 20
-1512.072803
 30
0.0
 11
-1922.001625
 21
-1470.995678
 31
0.0
  0
LINE
  5
9F3
100
AcDbEntity
  8
0
  6
BYBLOCK
 62
     0
100
AcDbLine
 10
-1929.001625
 20
-1479.572803
 30
0.0
 11
-1929.001625
 21
-1470.995678
 31
0.0
  0
LINE
  5
9F4
100
AcDbEntity
  8
0
  6
BYBLOCK
 62
     0
100
AcDbLine
 10
-1919.501625
 20
-1472.245678
 30
0.0
 11
-1917.001625
 21
-1472.245678
 31
0.0
  0
LINE
  5
9F5
100
AcDbEntity
  8
0
  6
BYBLOCK
 62
     0
100
AcDbLine
 10
-1931.501625
 20
-1472.245678
 30
0.0
 11
-1934.001625
 21
-1472.245678
 31
0.0
  0
SOLID
  5
9F6
100
AcDbEntity
  8
0
  6
BYBLOCK
 62
     0
100
AcDbTrace
 10
-1919.501625
 20
-1471.829011
 30
0.0
 11
-1919.501625
 21
-1472.662345
 31
0.0
 12
-1922.001625
 22
-1472.245678
 32
0.0
 13
-1922.001625
 23
-1472.245678
 33
0.0
  0
SOLID
  5
9F7
100
AcDbEntity
  8
0
  6
BYBLOCK
 62
     0
100
AcDbTrace
 10
-1931.501625
 20
-1471.829011
 30
0.0
 11
-1931.501625
 21
-1472.662345
 31
0.0
 12
-1929.001625
 22
-1472.245678
 32
0.0
 13
-1929.001625
 23
-1472.245678
 33
0.0
  0
MTEXT
  5
9F8
100
AcDbEntity
  8
0
  6
BYBLOCK
 62
     0
100
AcDbMText
 10
-1925.501625
 20
-1470.120678
 30
0.0
 40
3.0
 41
0.0
 71
     5
 72
     1
  1
\A1;{50}
  0
POINT
  5
9F9
100
AcDbEntity
  8
DEFPOINTS
  6
BYBLOCK
 62
     0
100
AcDbPoint
 10
-1922.001625
 20
-1512.697803
 30
0.0
  0
POINT
  5
9FA
100
AcDbEntity
  8
DEFPOINTS
  6
BYBLOCK
 62
     0
100
AcDbPoint
 10
-1929.001625
 20
-1480.197803
 30
0.0
  0
POINT
  5
9FB
100
AcDbEntity
  8
DEFPOINTS
  6
BYBLOCK
 62
     0
100
AcDbPoint
 10
-1929.001625
 20
-1472.245678
 30
0.0
  0
ENDBLK
  5
9FC
100
AcDbEntity
  8
0
100
AcDbBlockEnd
  0
BLOCK
  5
A27
100
AcDbEntity
  8
0
100
AcDbBlockBegin
  2
*D32
 70
    65
 10
0.0
 20
0.0
 30
0.0
  3
*D32
  1

  0
LINE
  5
A28
100
AcDbEntity
  8
0
  6
BYBLOCK
 62
     0
100
AcDbLine
 10
-1869.001625
 20
-1542.822803
 30
0.0
 11
-1869.001625
 21
-1553.724068
 31
0.0
  0
LINE
  5
A29
100
AcDbEntity
  8
0
  6
BYBLOCK
 62
     0
100
AcDbLine
 10
-1929.001625
 20
-1542.822803
 30
0.0
 11
-1929.001625
 21
-1553.724068
 31
0.0
  0
LINE
  5
A2A
100
AcDbEntity
  8
0
  6
BYBLOCK
 62
     0
100
AcDbLine
 10
-1871.501625
 20
-1552.474068
 30
0.0
 11
-1926.501625
 21
-1552.474068
 31
0.0
  0
SOLID
  5
A2B
100
AcDbEntity
  8
0
  6
BYBLOCK
 62
     0
100
AcDbTrace
 10
-1871.501625
 20
-1552.057401
 30
0.0
 11
-1871.501625
 21
-1552.890734
 31
0.0
 12
-1869.001625
 22
-1552.474068
 32
0.0
 13
-1869.001625
 23
-1552.474068
 33
0.0
  0
SOLID
  5
A2C
100
AcDbEntity
  8
0
  6
BYBLOCK
 62
     0
100
AcDbTrace
 10
-1926.501625
 20
-1552.057401
 30
0.0
 11
-1926.501625
 21
-1552.890734
 31
0.0
 12
-1929.001625
 22
-1552.474068
 32
0.0
 13
-1929.001625
 23
-1552.474068
 33
0.0
  0
MTEXT
  5
A2D
100
AcDbEntity
  8
0
  6
BYBLOCK
 62
     0
100
AcDbMText
 10
-1899.001625
 20
-1550.349068
 30
0.0
 40
3.0
 41
0.0
 71
     5
 72
     1
  1
\A1;{525}
  0
POINT
  5
A2E
100
AcDbEntity
  8
DEFPOINTS
  6
BYBLOCK
 62
     0
100
AcDbPoint
 10
-1869.001625
 20
-1542.197803
 30
0.0
  0
POINT
  5
A2F
100
AcDbEntity
  8
DEFPOINTS
  6
BYBLOCK
 62
     0
100
AcDbPoint
 10
-1929.001625
 20
-1542.197803
 30
0.0
  0
POINT
  5
A30
100
AcDbEntity
  8
DEFPOINTS
  6
BYBLOCK
 62
     0
100
AcDbPoint
 10
-1929.001625
 20
-1552.474068
 30
0.0
  0
ENDBLK
  5
A31
100
AcDbEntity
  8
0
100
AcDbBlockEnd
  0
BLOCK
  5
E01
100
AcDbEntity
  8
0
100
AcDbBlockBegin
  2
*D33
 70
    65
 10
0.0
 20
0.0
 30
0.0
  3
*D33
  1

  0
LINE
  5
E02
100
AcDbEntity
  8
0
  6
BYBLOCK
 62
     0
100
AcDbLine
 10
-1571.004131
 20
-1418.939828
 30
0.0
 11
-1588.13141
 21
-1387.216431
 31
0.0
  0
SOLID
  5
E03
100
AcDbEntity
  8
0
  6
BYBLOCK
 62
     0
100
AcDbTrace
 10
-1570.637487
 20
-1418.741879
 30
0.0
 11
-1571.370774
 21
-1419.137776
 31
0.0
 12
-1569.816439
 22
-1421.139689
 32
0.0
 13
-1569.816439
 23
-1421.139689
 33
0.0
  0
MTEXT
  5
E04
100
AcDbEntity
  8
0
  6
BYBLOCK
 62
     0
100
AcDbMText
 10
-1583.079679
 20
-1392.099739
 30
0.0
 40
3.0
 41
0.0
 71
     5
 72
     1
  1
\A2;\U+22052{\H2.400000;±0.01}
 11
0.475077
 21
-0.879944
 31
0.0
  0
POINT
  5
E05
100
AcDbEntity
  8
DEFPOINTS
  6
BYBLOCK
 62
     0
100
AcDbPoint
 10
-1569.816439
 20
-1421.139689
 30
0.0
  0
POINT
  5
E06
100
AcDbEntity
  8
DEFPOINTS
  6
BYBLOCK
 62
     0
100
AcDbPoint
 10
-1568.866285
 20
-1422.899577
 30
0.0
  0
ENDBLK
  5
E07
100
AcDbEntity
  8
0
100
AcDbBlockEnd
  0
BLOCK
  5
EAC
100
AcDbEntity
  8
0
100
AcDbBlockBegin
  2
*D34
 70
    65
 10
0.0
 20
0.0
 30
0.0
  3
*D34
  1

  0
LINE
  5
EAD
100
AcDbEntity
  8
0
  6
BYBLOCK
 62
     0
100
AcDbLine
 10
-1650.363812
 20
-1465.945391
 30
0.0
 11
-1636.367412
 21
-1455.440594
 31
0.0
  0
SOLID
  5
EAE
100
AcDbEntity
  8
0
  6
BYBLOCK
 62
     0
100
AcDbTrace
 10
-1636.617526
 20
-1455.107346
 30
0.0
 11
-1636.117297
 21
-1455.773841
 31
0.0
 12
-1634.367926
 22
-1453.939908
 32
0.0
 13
-1634.367926
 23
-1453.939908
 33
0.0
  0
MTEXT
  5
EAF
100
AcDbEntity
  8
0
  6
BYBLOCK
 62
     0
100
AcDbMText
 10
-1643.641452
 20
-1458.243087
 30
0.0
 40
3.0
 41
0.0
 71
     5
 72
     1
  1
\A1;R20
 11
0.799794
 21
0.600274
 31
0.0
  0
POINT
  5
EB0
100
AcDbEntity
  8
DEFPOINTS
  6
BYBLOCK
 62
     0
100
AcDbPoint
 10
-1634.367926
 20
-1453.939908
 30
0.0
  0
POINT
  5
EB1
100
AcDbEntity
  8
DEFPOINTS
  6
BYBLOCK
 62
     0
100
AcDbPoint
 10
-1650.363812
 20
-1465.945391
 30
0.0
  0
ENDBLK
  5
EB2
100
AcDbEntity
  8
0
100
AcDbBlockEnd
  0
BLOCK
  5
EB5
100
AcDbEntity
  8
0
100
AcDbBlockBegin
  2
*D35
 70
    65
 10
0.0
 20
0.0
 30
0.0
  3
*D35
  1

  0
LINE
  5
EB6
100
AcDbEntity
  8
0
  6
BYBLOCK
 62
     0
100
AcDbLine
 10
-1650.363812
 20
-1519.077878
 30
0.0
 11
-1634.374407
 21
-1526.190467
 31
0.0
  0
SOLID
  5
EB7
100
AcDbEntity
  8
0
  6
BYBLOCK
 62
     0
100
AcDbTrace
 10
-1634.20506
 20
-1525.809767
 30
0.0
 11
-1634.543754
 21
-1526.571167
 31
0.0
 12
-1632.090206
 22
-1527.206551
 32
0.0
 13
-1632.090206
 23
-1527.206551
 33
0.0
  0
MTEXT
  5
EB8
100
AcDbEntity
  8
0
  6
BYBLOCK
 62
     0
100
AcDbMText
 10
-1640.363338
 20
-1521.200644
 30
0.0
 40
3.0
 41
0.0
 71
     5
 72
     1
  1
\A1;R20
 11
0.91368
 21
-0.406434
 31
0.0
  0
POINT
  5
EB9
100
AcDbEntity
  8
DEFPOINTS
  6
BYBLOCK
 62
     0
100
AcDbPoint
 10
-1632.090206
 20
-1527.206551
 30
0.0
  0
POINT
  5
EBA
100
AcDbEntity
  8
DEFPOINTS
  6
BYBLOCK
 62
     0
100
AcDbPoint
 10
-1650.363812
 20
-1519.077878
 30
0.0
  0
ENDBLK
  5
EBB
100
AcDbEntity
  8
0
100
AcDbBlockEnd
  0
BLOCK
  5
F08
100
AcDbEntity
  8
0
100
AcDbBlockBegin
  2
*D36
 70
    65
 10
0.0
 20
0.0
 30
0.0
  3
*D36
  1

  0
LINE
  5
F09
100
AcDbEntity
  8
0
  6
BYBLOCK
 62
     0
100
AcDbLine
 10
-1587.363812
 20
-1561.570391
 30
0.0
 11
-1587.363812
 21
-1576.971154
 31
0.0
  0
LINE
  5
F0A
100
AcDbEntity
  8
0
  6
BYBLOCK
 62
     0
100
AcDbLine
 10
-1660.363812
 20
-1561.570391
 30
0.0
 11
-1660.363812
 21
-1576.971154
 31
0.0
  0
LINE
  5
F0B
100
AcDbEntity
  8
0
  6
BYBLOCK
 62
     0
100
AcDbLine
 10
-1589.863812
 20
-1575.721154
 30
0.0
 11
-1657.863812
 21
-1575.721154
 31
0.0
  0
SOLID
  5
F0C
100
AcDbEntity
  8
0
  6
BYBLOCK
 62
     0
100
AcDbTrace
 10
-1589.863812
 20
-1575.304487
 30
0.0
 11
-1589.863812
 21
-1576.137821
 31
0.0
 12
-1587.363812
 22
-1575.721154
 32
0.0
 13
-1587.363812
 23
-1575.721154
 33
0.0
  0
SOLID
  5
F0D
100
AcDbEntity
  8
0
  6
BYBLOCK
 62
     0
100
AcDbTrace
 10
-1657.863812
 20
-1575.304487
 30
0.0
 11
-1657.863812
 21
-1576.137821
 31
0.0
 12
-1660.363812
 22
-1575.721154
 32
0.0
 13
-1660.363812
 23
-1575.721154
 33
0.0
  0
MTEXT
  5
F0E
100
AcDbEntity
  8
0
  6
BYBLOCK
 62
     0
100
AcDbMText
 10
-1623.863812
 20
-1573.596154
 30
0.0
 40
3.0
 41
0.0
 71
     5
 72
     1
  1
\A1;{100}
  0
POINT
  5
F0F
100
AcDbEntity
  8
DEFPOINTS
  6
BYBLOCK
 62
     0
100
AcDbPoint
 10
-1587.363812
 20
-1560.945391
 30
0.0
  0
POINT
  5
F10
100
AcDbEntity
  8
DEFPOINTS
  6
BYBLOCK
 62
     0
100
AcDbPoint
 10
-1660.363812
 20
-1560.945391
 30
0.0
  0
POINT
  5
F11
100
AcDbEntity
  8
DEFPOINTS
  6
BYBLOCK
 62
     0
100
AcDbPoint
 10
-1660.363812
 20
-1575.721154
 30
0.0
  0
ENDBLK
  5
F12
100
AcDbEntity
  8
0
100
AcDbBlockEnd
  0
BLOCK
  5
F29
100
AcDbEntity
  8
0
100
AcDbBlockBegin
  2
*D37
 70
    65
 10
0.0
 20
0.0
 30
0.0
  3
*D37
  1

  0
LINE
  5
F2A
100
AcDbEntity
  8
0
  6
BYBLOCK
 62
     0
100
AcDbLine
 10
-1576.985389
 20
-1561.570391
 30
0.0
 11
-1576.985389
 21
-1576.971154
 31
0.0
  0
LINE
  5
F2B
100
AcDbEntity
  8
0
  6
BYBLOCK
 62
     0
100
AcDbLine
 10
-1503.985389
 20
-1561.570391
 30
0.0
 11
-1503.985389
 21
-1576.971154
 31
0.0
  0
LINE
  5
F2C
100
AcDbEntity
  8
0
  6
BYBLOCK
 62
     0
100
AcDbLine
 10
-1574.485389
 20
-1575.721154
 30
0.0
 11
-1506.485389
 21
-1575.721154
 31
0.0
  0
SOLID
  5
F2D
100
AcDbEntity
  8
0
  6
BYBLOCK
 62
     0
100
AcDbTrace
 10
-1574.485389
 20
-1575.304487
 30
0.0
 11
-1574.485389
 21
-1576.137821
 31
0.0
 12
-1576.985389
 22
-1575.721154
 32
0.0
 13
-1576.985389
 23
-1575.721154
 33
0.0
  0
SOLID
  5
F2E
100
AcDbEntity
  8
0
  6
BYBLOCK
 62
     0
100
AcDbTrace
 10
-1506.485389
 20
-1575.304487
 30
0.0
 11
-1506.485389
 21
-1576.137821
 31
0.0
 12
-1503.985389
 22
-1575.721154
 32
0.0
 13
-1503.985389
 23
-1575.721154
 33
0.0
  0
MTEXT
  5
F2F
100
AcDbEntity
  8
0
  6
BYBLOCK
 62
     0
100
AcDbMText
 10
-1540.485389
 20
-1573.596154
 30
0.0
 40
3.0
 41
0.0
 71
     5
 72
     1
  1
\A1;{100}
  0
POINT
  5
F30
100
AcDbEntity
  8
DEFPOINTS
  6
BYBLOCK
 62
     0
100
AcDbPoint
 10
-1576.985389
 20
-1560.945391
 30
0.0
  0
POINT
  5
F31
100
AcDbEntity
  8
DEFPOINTS
  6
BYBLOCK
 62
     0
100
AcDbPoint
 10
-1503.985389
 20
-1560.945391
 30
0.0
  0
POINT
  5
F32
100
AcDbEntity
  8
DEFPOINTS
  6
BYBLOCK
 62
     0
100
AcDbPoint
 10
-1503.985389
 20
-1575.721154
 30
0.0
  0
ENDBLK
  5
F33
100
AcDbEntity
  8
0
100
AcDbBlockEnd
  0
BLOCK
  5
ED8
100
AcDbEntity
  8
0
100
AcDbBlockBegin
  2
*D38
 70
    65
 10
0.0
 20
0.0
 30
0.0
  3
*D38
  1

  0
LINE
  5
ED9
100
AcDbEntity
  8
0
  6
BYBLOCK
 62
     0
100
AcDbLine
 10
-1660.363812
 20
-1547.320391
 30
0.0
 11
-1660.363812
 21
-1529.228643
 31
0.0
  0
ARC
  5
EDA
100
AcDbEntity
  8
0
  6
BYBLOCK
 62
     0
100
AcDbCircle
 10
-1660.363812
 20
-1547.945391
 30
0.0
 40
17.466748
100
AcDbArc
 50
38.20771
 51
81.79229
  0
SOLID
  5
EDB
100
AcDbEntity
  8
0
  6
BYBLOCK
 62
     0
100
AcDbTrace
 10
-1646.293892
 20
-1536.908338
 30
0.0
 11
-1646.98391
 21
-1537.375583
 31
0.0
 12
-1645.237164
 22
-1539.212017
 32
0.0
 13
-1645.237164
 23
-1539.212017
 33
0.0
  0
SOLID
  5
EDC
100
AcDbEntity
  8
0
  6
BYBLOCK
 62
     0
100
AcDbTrace
 10
-1657.900041
 20
-1531.073153
 30
0.0
 11
-1657.840404
 21
-1530.241956
 31
0.0
 12
-1660.363812
 22
-1530.478643
 32
0.0
 13
-1660.363812
 23
-1530.478643
 33
0.0
  0
MTEXT
  5
EDD
100
AcDbEntity
  8
0
  6
BYBLOCK
 62
     0
100
AcDbMText
 10
-1650.567938
 20
-1530.97844
 30
0.0
 40
3.0
 41
0.0
 71
     5
 72
     1
  1
\A1;60°
 11
0.866025
 21
-0.5
 31
0.0
  0
POINT
  5
EDE
100
AcDbEntity
  8
DEFPOINTS
  6
BYBLOCK
 62
     0
100
AcDbPoint
 10
-1649.136403
 20
-1534.565086
 30
0.0
  0
POINT
  5
EDF
100
AcDbEntity
  8
DEFPOINTS
  6
BYBLOCK
 62
     0
100
AcDbPoint
 10
-1660.363812
 20
-1547.945391
 30
0.0
  0
POINT
  5
EE0
100
AcDbEntity
  8
DEFPOINTS
  6
BYBLOCK
 62
     0
100
AcDbPoint
 10
-1660.363812
 20
-1547.945391
 30
0.0
  0
POINT
  5
EE1
100
AcDbEntity
  8
DEFPOINTS
  6
BYBLOCK
 62
     0
100
AcDbPoint
 10
-1640.363812
 20
-1536.398386
 30
0.0
  0
POINT
  5
EE2
100
AcDbEntity
  8
DEFPOINTS
  6
BYBLOCK
 62
     0
100
AcDbPoint
 10
-1660.363812
 20
-1560.945391
 30
0.0
  0
ENDBLK
  5
EE3
100
AcDbEntity
  8
0
100
AcDbBlockEnd
  0
BLOCK
  5
EE6
100
AcDbEntity
  8
0
100
AcDbBlockBegin
  2
*D39
 70
    65
 10
0.0
 20
0.0
 30
0.0
  3
*D39
  1

  0
LINE
  5
EE7
100
AcDbEntity
  8
0
  6
BYBLOCK
 62
     0
100
AcDbLine
 10
-1660.988812
 20
-1547.945391
 30
0.0
 11
-1670.95491
 21
-1547.945391
 31
0.0
  0
LINE
  5
EE8
100
AcDbEntity
  8
0
  6
BYBLOCK
 62
     0
100
AcDbLine
 10
-1660.988812
 20
-1560.945391
 30
0.0
 11
-1670.95491
 21
-1560.945391
 31
0.0
  0
LINE
  5
EE9
100
AcDbEntity
  8
0
  6
BYBLOCK
 62
     0
100
AcDbLine
 10
-1669.70491
 20
-1550.445391
 30
0.0
 11
-1669.70491
 21
-1558.445391
 31
0.0
  0
SOLID
  5
EEA
100
AcDbEntity
  8
0
  6
BYBLOCK
 62
     0
100
AcDbTrace
 10
-1670.121577
 20
-1550.445391
 30
0.0
 11
-1669.288243
 21
-1550.445391
 31
0.0
 12
-1669.70491
 22
-1547.945391
 32
0.0
 13
-1669.70491
 23
-1547.945391
 33
0.0
  0
SOLID
  5
EEB
100
AcDbEntity
  8
0
  6
BYBLOCK
 62
     0
100
AcDbTrace
 10
-1670.121577
 20
-1558.445391
 30
0.0
 11
-1669.288243
 21
-1558.445391
 31
0.0
 12
-1669.70491
 22
-1560.945391
 32
0.0
 13
-1669.70491
 23
-1560.945391
 33
0.0
  0
MTEXT
  5
EEC
100
AcDbEntity
  8
0
  6
BYBLOCK
 62
     0
100
AcDbMText
 10
-1671.82991
 20
-1554.445391
 30
0.0
 40
3.0
 41
0.0
 71
     5
 72
     1
  1
\A1;13
 11
0.0
 21
1.0
 31
0.0
  0
POINT
  5
EED
100
AcDbEntity
  8
DEFPOINTS
  6
BYBLOCK
 62
     0
100
AcDbPoint
 10
-1660.363812
 20
-1547.945391
 30
0.0
  0
POINT
  5
EEE
100
AcDbEntity
  8
DEFPOINTS
  6
BYBLOCK
 62
     0
100
AcDbPoint
 10
-1660.363812
 20
-1560.945391
 30
0.0
  0
POINT
  5
EEF
100
AcDbEntity
  8
DEFPOINTS
  6
BYBLOCK
 62
     0
100
AcDbPoint
 10
-1669.70491
 20
-1560.945391
 30
0.0
  0
ENDBLK
  5
EF0
100
AcDbEntity
  8
0
100
AcDbBlockEnd
  0
BLOCK
  5
F36
100
AcDbEntity
  8
0
100
AcDbBlockBegin
  2
*D40
 70
    65
 10
0.0
 20
0.0
 30
0.0
  3
*D40
  1

  0
LINE
  5
F37
100
AcDbEntity
  8
0
  6
BYBLOCK
 62
     0
100
AcDbLine
 10
-1660.988812
 20
-1395.945391
 30
0.0
 11
-1667.758117
 21
-1395.945391
 31
0.0
  0
LINE
  5
F38
100
AcDbEntity
  8
0
  6
BYBLOCK
 62
     0
100
AcDbLine
 10
-1660.988812
 20
-1445.945391
 30
0.0
 11
-1667.758117
 21
-1445.945391
 31
0.0
  0
LINE
  5
F39
100
AcDbEntity
  8
0
  6
BYBLOCK
 62
     0
100
AcDbLine
 10
-1666.508117
 20
-1398.445391
 30
0.0
 11
-1666.508117
 21
-1443.445391
 31
0.0
  0
SOLID
  5
F3A
100
AcDbEntity
  8
0
  6
BYBLOCK
 62
     0
100
AcDbTrace
 10
-1666.924783
 20
-1398.445391
 30
0.0
 11
-1666.09145
 21
-1398.445391
 31
0.0
 12
-1666.508117
 22
-1395.945391
 32
0.0
 13
-1666.508117
 23
-1395.945391
 33
0.0
  0
SOLID
  5
F3B
100
AcDbEntity
  8
0
  6
BYBLOCK
 62
     0
100
AcDbTrace
 10
-1666.924783
 20
-1443.445391
 30
0.0
 11
-1666.09145
 21
-1443.445391
 31
0.0
 12
-1666.508117
 22
-1445.945391
 32
0.0
 13
-1666.508117
 23
-1445.945391
 33
0.0
  0
MTEXT
  5
F3C
100
AcDbEntity
  8
0
  6
BYBLOCK
 62
     0
100
AcDbMText
 10
-1668.633117
 20
-1420.945391
 30
0.0
 40
3.0
 41
0.0
 71
     5
 72
     1
  1
\A1;50
 11
0.0
 21
1.0
 31
0.0
  0
POINT
  5
F3D
100
AcDbEntity
  8
DEFPOINTS
  6
BYBLOCK
 62
     0
100
AcDbPoint
 10
-1660.363812
 20
-1395.945391
 30
0.0
  0
POINT
  5
F3E
100
AcDbEntity
  8
DEFPOINTS
  6
BYBLOCK
 62
     0
100
AcDbPoint
 10
-1660.363812
 20
-1445.945391
 30
0.0
  0
POINT
  5
F3F
100
AcDbEntity
  8
DEFPOINTS
  6
BYBLOCK
 62
     0
100
AcDbPoint
 10
-1666.508117
 20
-1445.945391
 30
0.0
  0
ENDBLK
  5
F40
100
AcDbEntity
  8
0
100
AcDbBlockEnd
  0
BLOCK
  5
F43
100
AcDbEntity
  8
0
100
AcDbBlockBegin
  2
*D41
 70
    65
 10
0.0
 20
0.0
 30
0.0
  3
*D41
  1

  0
LINE
  5
F44
100
AcDbEntity
  8
0
  6
BYBLOCK
 62
     0
100
AcDbLine
 10
-1660.363812
 20
-1446.570391
 30
0.0
 11
-1660.363812
 21
-1484.077383
 31
0.0
  0
LINE
  5
F45
100
AcDbEntity
  8
0
  6
BYBLOCK
 62
     0
100
AcDbLine
 10
-1630.363812
 20
-1479.571728
 30
0.0
 11
-1630.363812
 21
-1484.077383
 31
0.0
  0
LINE
  5
F46
100
AcDbEntity
  8
0
  6
BYBLOCK
 62
     0
100
AcDbLine
 10
-1657.863812
 20
-1482.827383
 30
0.0
 11
-1632.863812
 21
-1482.827383
 31
0.0
  0
SOLID
  5
F47
100
AcDbEntity
  8
0
  6
BYBLOCK
 62
     0
100
AcDbTrace
 10
-1657.863812
 20
-1482.410716
 30
0.0
 11
-1657.863812
 21
-1483.24405
 31
0.0
 12
-1660.363812
 22
-1482.827383
 32
0.0
 13
-1660.363812
 23
-1482.827383
 33
0.0
  0
SOLID
  5
F48
100
AcDbEntity
  8
0
  6
BYBLOCK
 62
     0
100
AcDbTrace
 10
-1632.863812
 20
-1482.410716
 30
0.0
 11
-1632.863812
 21
-1483.24405
 31
0.0
 12
-1630.363812
 22
-1482.827383
 32
0.0
 13
-1630.363812
 23
-1482.827383
 33
0.0
  0
MTEXT
  5
F49
100
AcDbEntity
  8
0
  6
BYBLOCK
 62
     0
100
AcDbMText
 10
-1645.363812
 20
-1480.702383
 30
0.0
 40
3.0
 41
0.0
 71
     5
 72
     1
  1
\A1;30
  0
POINT
  5
F4A
100
AcDbEntity
  8
DEFPOINTS
  6
BYBLOCK
 62
     0
100
AcDbPoint
 10
-1660.363812
 20
-1445.945391
 30
0.0
  0
POINT
  5
F4B
100
AcDbEntity
  8
DEFPOINTS
  6
BYBLOCK
 62
     0
100
AcDbPoint
 10
-1630.363812
 20
-1478.946728
 30
0.0
  0
POINT
  5
F4C
100
AcDbEntity
  8
DEFPOINTS
  6
BYBLOCK
 62
     0
100
AcDbPoint
 10
-1630.363812
 20
-1482.827383
 30
0.0
  0
ENDBLK
  5
F4D
100
AcDbEntity
  8
0
100
AcDbBlockEnd
  0
BLOCK
  5
FA2
100
AcDbEntity
  8
0
100
AcDbBlockBegin
  2
*D42
 70
    65
 10
0.0
 20
0.0
 30
0.0
  3
*D42
  1

  0
LINE
  5
FA3
100
AcDbEntity
  8
0
  6
BYBLOCK
 62
     0
100
AcDbLine
 10
-1610.980082
 20
-1433.945391
 30
0.0
 11
-1607.76562
 21
-1433.945391
 31
0.0
  0
LINE
  5
FA4
100
AcDbEntity
  8
0
  6
BYBLOCK
 62
     0
100
AcDbLine
 10
-1611.303765
 20
-1459.060396
 30
0.0
 11
-1607.76562
 21
-1459.060396
 31
0.0
  0
LINE
  5
FA5
100
AcDbEntity
  8
0
  6
BYBLOCK
 62
     0
100
AcDbLine
 10
-1609.01562
 20
-1436.445391
 30
0.0
 11
-1609.01562
 21
-1456.560396
 31
0.0
  0
SOLID
  5
FA6
100
AcDbEntity
  8
0
  6
BYBLOCK
 62
     0
100
AcDbTrace
 10
-1609.432287
 20
-1436.445391
 30
0.0
 11
-1608.598954
 21
-1436.445391
 31
0.0
 12
-1609.01562
 22
-1433.945391
 32
0.0
 13
-1609.01562
 23
-1433.945391
 33
0.0
  0
SOLID
  5
FA7
100
AcDbEntity
  8
0
  6
BYBLOCK
 62
     0
100
AcDbTrace
 10
-1609.432287
 20
-1456.560396
 30
0.0
 11
-1608.598954
 21
-1456.560396
 31
0.0
 12
-1609.01562
 22
-1459.060396
 32
0.0
 13
-1609.01562
 23
-1459.060396
 33
0.0
  0
MTEXT
  5
FA8
100
AcDbEntity
  8
0
  6
BYBLOCK
 62
     0
100
AcDbMText
 10
-1611.14062
 20
-1446.502894
 30
0.0
 40
3.0
 41
0.0
 71
     5
 72
     1
  1
\A1;{=}
 11
0.0
 21
1.0
 31
0.0
  0
POINT
  5
FA9
100
AcDbEntity
  8
DEFPOINTS
  6
BYBLOCK
 62
     0
100
AcDbPoint
 10
-1611.605082
 20
-1433.945391
 30
0.0
  0
POINT
  5
FAA
100
AcDbEntity
  8
DEFPOINTS
  6
BYBLOCK
 62
     0
100
AcDbPoint
 10
-1611.928765
 20
-1459.060396
 30
0.0
  0
POINT
  5
FAB
100
AcDbEntity
  8
DEFPOINTS
  6
BYBLOCK
 62
     0
100
AcDbPoint
 10
-1609.01562
 20
-1459.060396
 30
0.0
  0
ENDBLK
  5
FAC
100
AcDbEntity
  8
0
100
AcDbBlockEnd
  0
BLOCK
  5
FC3
100
AcDbEntity
  8
0
100
AcDbBlockBegin
  2
*D43
 70
    65
 10
0.0
 20
0.0
 30
0.0
  3
*D43
  1

  0
LINE
  5
FC4
100
AcDbEntity
  8
0
  6
BYBLOCK
 62
     0
100
AcDbLine
 10
-1608.714303
 20
-1467.060396
 30
0.0
 11
-1607.76562
 21
-1467.060396
 31
0.0
  0
LINE
  5
FC5
100
AcDbEntity
  8
0
  6
BYBLOCK
 62
     0
100
AcDbLine
 10
-1608.39062
 20
-1492.175401
 30
0.0
 11
-1607.76562
 21
-1492.175401
 31
0.0
  0
LINE
  5
FC6
100
AcDbEntity
  8
0
  6
BYBLOCK
 62
     0
100
AcDbLine
 10
-1609.01562
 20
-1469.560396
 30
0.0
 11
-1609.01562
 21
-1489.675401
 31
0.0
  0
SOLID
  5
FC7
100
AcDbEntity
  8
0
  6
BYBLOCK
 62
     0
100
AcDbTrace
 10
-1609.432287
 20
-1469.560396
 30
0.0
 11
-1608.598954
 21
-1469.560396
 31
0.0
 12
-1609.01562
 22
-1467.060396
 32
0.0
 13
-1609.01562
 23
-1467.060396
 33
0.0
  0
SOLID
  5
FC8
100
AcDbEntity
  8
0
  6
BYBLOCK
 62
     0
100
AcDbTrace
 10
-1609.432287
 20
-1489.675401
 30
0.0
 11
-1608.598954
 21
-1489.675401
 31
0.0
 12
-1609.01562
 22
-1492.175401
 32
0.0
 13
-1609.01562
 23
-1492.175401
 33
0.0
  0
MTEXT
  5
FC9
100
AcDbEntity
  8
0
  6
BYBLOCK
 62
     0
100
AcDbMText
 10
-1611.14062
 20
-1479.617898
 30
0.0
 40
3.0
 41
0.0
 71
     5
 72
     1
  1
\A1;{=}
 11
0.0
 21
1.0
 31
0.0
  0
POINT
  5
FCA
100
AcDbEntity
  8
DEFPOINTS
  6
BYBLOCK
 62
     0
100
AcDbPoint
 10
-1609.339303
 20
-1467.060396
 30
0.0
  0
POINT
  5
FCB
100
AcDbEntity
  8
DEFPOINTS
  6
BYBLOCK
 62
     0
100
AcDbPoint
 10
-1609.01562
 20
-1492.175401
 30
0.0
  0
POINT
  5
FCC
100
AcDbEntity
  8
DEFPOINTS
  6
BYBLOCK
 62
     0
100
AcDbPoint
 10
-1609.01562
 20
-1492.175401
 30
0.0
  0
ENDBLK
  5
FCD
100
AcDbEntity
  8
0
100
AcDbBlockEnd
  0
BLOCK
  5
1005
100
AcDbEntity
  8
0
100
AcDbBlockBegin
  2
*D44
 70
    65
 10
0.0
 20
0.0
 30
0.0
  3
*D44
  1

  0
LINE
  5
1006
100
AcDbEntity
  8
0
  6
BYBLOCK
 62
     0
100
AcDbLine
 10
-1630.363812
 20
-1467.232575
 30
0.0
 11
-1630.363812
 21
-1462.403532
 31
0.0
  0
LINE
  5
1007
100
AcDbEntity
  8
0
  6
BYBLOCK
 62
     0
100
AcDbLine
 10
-1613.863812
 20
-1463.35192
 30
0.0
 11
-1613.863812
 21
-1462.403532
 31
0.0
  0
LINE
  5
1008
100
AcDbEntity
  8
0
  6
BYBLOCK
 62
     0
100
AcDbLine
 10
-1627.863812
 20
-1463.653532
 30
0.0
 11
-1616.363812
 21
-1463.653532
 31
0.0
  0
SOLID
  5
1009
100
AcDbEntity
  8
0
  6
BYBLOCK
 62
     0
100
AcDbTrace
 10
-1627.863812
 20
-1463.236865
 30
0.0
 11
-1627.863812
 21
-1464.070199
 31
0.0
 12
-1630.363812
 22
-1463.653532
 32
0.0
 13
-1630.363812
 23
-1463.653532
 33
0.0
  0
SOLID
  5
100A
100
AcDbEntity
  8
0
  6
BYBLOCK
 62
     0
100
AcDbTrace
 10
-1616.363812
 20
-1463.236865
 30
0.0
 11
-1616.363812
 21
-1464.070199
 31
0.0
 12
-1613.863812
 22
-1463.653532
 32
0.0
 13
-1613.863812
 23
-1463.653532
 33
0.0
  0
MTEXT
  5
100B
100
AcDbEntity
  8
0
  6
BYBLOCK
 62
     0
100
AcDbMText
 10
-1622.113812
 20
-1461.528532
 30
0.0
 40
3.0
 41
0.0
 71
     5
 72
     1
  1
\A1;{=}
  0
POINT
  5
100C
100
AcDbEntity
  8
DEFPOINTS
  6
BYBLOCK
 62
     0
100
AcDbPoint
 10
-1630.363812
 20
-1467.857575
 30
0.0
  0
POINT
  5
100D
100
AcDbEntity
  8
DEFPOINTS
  6
BYBLOCK
 62
     0
100
AcDbPoint
 10
-1613.863812
 20
-1463.97692
 30
0.0
  0
POINT
  5
100E
100
AcDbEntity
  8
DEFPOINTS
  6
BYBLOCK
 62
     0
100
AcDbPoint
 10
-1613.863812
 20
-1463.653532
 30
0.0
  0
ENDBLK
  5
100F
100
AcDbEntity
  8
0
100
AcDbBlockEnd
  0
BLOCK
  5
FE4
100
AcDbEntity
  8
0
100
AcDbBlockBegin
  2
*D45
 70
    65
 10
0.0
 20
0.0
 30
0.0
  3
*D45
  1

  0
LINE
  5
FE5
100
AcDbEntity
  8
0
  6
BYBLOCK
 62
     0
100
AcDbLine
 10
-1603.863812
 20
-1463.35192
 30
0.0
 11
-1603.863812
 21
-1462.403532
 31
0.0
  0
LINE
  5
FE6
100
AcDbEntity
  8
0
  6
BYBLOCK
 62
     0
100
AcDbLine
 10
-1587.363812
 20
-1463.955144
 30
0.0
 11
-1587.363812
 21
-1464.903532
 31
0.0
  0
LINE
  5
FE7
100
AcDbEntity
  8
0
  6
BYBLOCK
 62
     0
100
AcDbLine
 10
-1601.363812
 20
-1463.653532
 30
0.0
 11
-1589.863812
 21
-1463.653532
 31
0.0
  0
SOLID
  5
FE8
100
AcDbEntity
  8
0
  6
BYBLOCK
 62
     0
100
AcDbTrace
 10
-1601.363812
 20
-1463.236865
 30
0.0
 11
-1601.363812
 21
-1464.070199
 31
0.0
 12
-1603.863812
 22
-1463.653532
 32
0.0
 13
-1603.863812
 23
-1463.653532
 33
0.0
  0
SOLID
  5
FE9
100
AcDbEntity
  8
0
  6
BYBLOCK
 62
     0
100
AcDbTrace
 10
-1589.863812
 20
-1463.236865
 30
0.0
 11
-1589.863812
 21
-1464.070199
 31
0.0
 12
-1587.363812
 22
-1463.653532
 32
0.0
 13
-1587.363812
 23
-1463.653532
 33
0.0
  0
MTEXT
  5
FEA
100
AcDbEntity
  8
0
  6
BYBLOCK
 62
     0
100
AcDbMText
 10
-1595.613812
 20
-1461.528532
 30
0.0
 40
3.0
 41
0.0
 71
     5
 72
     1
  1
\A1;{=}
  0
POINT
  5
FEB
100
AcDbEntity
  8
DEFPOINTS
  6
BYBLOCK
 62
     0
100
AcDbPoint
 10
-1603.863812
 20
-1463.97692
 30
0.0
  0
POINT
  5
FEC
100
AcDbEntity
  8
DEFPOINTS
  6
BYBLOCK
 62
     0
100
AcDbPoint
 10
-1587.363812
 20
-1463.330144
 30
0.0
  0
POINT
  5
FED
100
AcDbEntity
  8
DEFPOINTS
  6
BYBLOCK
 62
     0
100
AcDbPoint
 10
-1587.363812
 20
-1463.653532
 30
0.0
  0
ENDBLK
  5
FEE
100
AcDbEntity
  8
0
100
AcDbBlockEnd
  0
BLOCK
  5
102B
100
AcDbEntity
  8
0
100
AcDbBlockBegin
  2
*D46
 70
    65
 10
0.0
 20
0.0
 30
0.0
  3
*D46
  1

  0
ARC
  5
102C
100
AcDbEntity
  8
0
  6
BYBLOCK
 62
     0
100
AcDbCircle
 10
-1298.059443
 20
-1603.460927
 30
0.0
 40
16.475139
100
AcDbArc
 50
85.702642
 51
94.297358
  0
SOLID
  5
102D
100
AcDbEntity
  8
0
  6
BYBLOCK
 62
     0
100
AcDbTrace
 10
-1296.762259
 20
-1586.620178
 30
0.0
 11
-1296.887572
 21
-1587.444035
 31
0.0
 12
-1294.353343
 22
-1587.408045
 32
0.0
 13
-1294.353343
 23
-1587.408045
 33
0.0
  0
SOLID
  5
102E
100
AcDbEntity
  8
0
  6
BYBLOCK
 62
     0
100
AcDbTrace
 10
-1299.231314
 20
-1587.444035
 30
0.0
 11
-1299.356627
 21
-1586.620178
 31
0.0
 12
-1301.765543
 22
-1587.408045
 32
0.0
 13
-1301.765543
 23
-1587.408045
 33
0.0
  0
MTEXT
  5
102F
100
AcDbEntity
  8
0
  6
BYBLOCK
 62
     0
100
AcDbMText
 10
-1297.659177
 20
-1584.865096
 30
0.0
 40
3.0
 41
0.0
 71
     5
 72
     1
  1
\A1;26°
 11
0.999768
 21
-0.021519
 31
0.0
  0
POINT
  5
1030
100
AcDbEntity
  8
DEFPOINTS
  6
BYBLOCK
 62
     0
100
AcDbPoint
 10
-1299.304285
 20
-1587.032885
 30
0.0
  0
POINT
  5
1031
100
AcDbEntity
  8
DEFPOINTS
  6
BYBLOCK
 62
     0
100
AcDbPoint
 10
-1299.042194
 20
-1599.204163
 30
0.0
  0
POINT
  5
1032
100
AcDbEntity
  8
DEFPOINTS
  6
BYBLOCK
 62
     0
100
AcDbPoint
 10
-1297.076691
 20
-1599.204163
 30
0.0
  0
POINT
  5
1033
100
AcDbEntity
  8
DEFPOINTS
  6
BYBLOCK
 62
     0
100
AcDbPoint
 10
-1293.785313
 20
-1584.947635
 30
0.0
  0
POINT
  5
1034
100
AcDbEntity
  8
DEFPOINTS
  6
BYBLOCK
 62
     0
100
AcDbPoint
 10
-1302.158814
 20
-1585.704598
 30
0.0
  0
ENDBLK
  5
1035
100
AcDbEntity
  8
0
100
AcDbBlockEnd
  0
BLOCK
  5
113E
100
AcDbEntity
  8
0
100
AcDbBlockBegin
  2
*D47
 70
    65
 10
0.0
 20
0.0
 30
0.0
  3
*D47
  1

  0
LINE
  5
113F
100
AcDbEntity
  8
0
  6
BYBLOCK
 62
     0
100
AcDbLine
 10
-1288.809443
 20
-1404.329163
 30
0.0
 11
-1288.809443
 21
-1389.106649
 31
0.0
  0
LINE
  5
1140
100
AcDbEntity
  8
0
  6
BYBLOCK
 62
     0
100
AcDbLine
 10
-1307.309443
 20
-1404.329163
 30
0.0
 11
-1307.309443
 21
-1389.106649
 31
0.0
  0
LINE
  5
1141
100
AcDbEntity
  8
0
  6
BYBLOCK
 62
     0
100
AcDbLine
 10
-1286.309443
 20
-1390.356649
 30
0.0
 11
-1283.809443
 21
-1390.356649
 31
0.0
  0
LINE
  5
1142
100
AcDbEntity
  8
0
  6
BYBLOCK
 62
     0
100
AcDbLine
 10
-1309.809443
 20
-1390.356649
 30
0.0
 11
-1312.309443
 21
-1390.356649
 31
0.0
  0
SOLID
  5
1143
100
AcDbEntity
  8
0
  6
BYBLOCK
 62
     0
100
AcDbTrace
 10
-1286.309443
 20
-1389.939982
 30
0.0
 11
-1286.309443
 21
-1390.773315
 31
0.0
 12
-1288.809443
 22
-1390.356649
 32
0.0
 13
-1288.809443
 23
-1390.356649
 33
0.0
  0
SOLID
  5
1144
100
AcDbEntity
  8
0
  6
BYBLOCK
 62
     0
100
AcDbTrace
 10
-1309.809443
 20
-1389.939982
 30
0.0
 11
-1309.809443
 21
-1390.773315
 31
0.0
 12
-1307.309443
 22
-1390.356649
 32
0.0
 13
-1307.309443
 23
-1390.356649
 33
0.0
  0
MTEXT
  5
1145
100
AcDbEntity
  8
0
  6
BYBLOCK
 62
     0
100
AcDbMText
 10
-1298.059443
 20
-1388.231649
 30
0.0
 40
3.0
 41
0.0
 71
     5
 72
     1
  1
\A2;18.5{\H2.400000;±0.05}
  0
POINT
  5
1146
100
AcDbEntity
  8
DEFPOINTS
  6
BYBLOCK
 62
     0
100
AcDbPoint
 10
-1288.809443
 20
-1404.954163
 30
0.0
  0
POINT
  5
1147
100
AcDbEntity
  8
DEFPOINTS
  6
BYBLOCK
 62
     0
100
AcDbPoint
 10
-1307.309443
 20
-1404.954163
 30
0.0
  0
POINT
  5
1148
100
AcDbEntity
  8
DEFPOINTS
  6
BYBLOCK
 62
     0
100
AcDbPoint
 10
-1307.309443
 20
-1390.356649
 30
0.0
  0
ENDBLK
  5
1149
100
AcDbEntity
  8
0
100
AcDbBlockEnd
  0
BLOCK
  5
13F4
100
AcDbEntity
  8
0
100
AcDbBlockBegin
  2
*D48
 70
    65
 10
0.0
 20
0.0
 30
0.0
  3
*D48
  1

  0
LINE
  5
13F5
100
AcDbEntity
  8
0
  6
BYBLOCK
 62
     0
100
AcDbLine
 10
-1306.384443
 20
-1403.404163
 30
0.0
 11
-1333.70839
 21
-1403.404163
 31
0.0
  0
LINE
  5
13F6
100
AcDbEntity
  8
0
  6
BYBLOCK
 62
     0
100
AcDbLine
 10
-1307.934443
 20
-1422.0485
 30
0.0
 11
-1333.70839
 21
-1422.0485
 31
0.0
  0
LINE
  5
13F7
100
AcDbEntity
  8
0
  6
BYBLOCK
 62
     0
100
AcDbLine
 10
-1332.45839
 20
-1400.904163
 30
0.0
 11
-1332.45839
 21
-1398.404163
 31
0.0
  0
LINE
  5
13F8
100
AcDbEntity
  8
0
  6
BYBLOCK
 62
     0
100
AcDbLine
 10
-1332.45839
 20
-1424.5485
 30
0.0
 11
-1332.45839
 21
-1427.0485
 31
0.0
  0
SOLID
  5
13F9
100
AcDbEntity
  8
0
  6
BYBLOCK
 62
     0
100
AcDbTrace
 10
-1332.875057
 20
-1400.904163
 30
0.0
 11
-1332.041723
 21
-1400.904163
 31
0.0
 12
-1332.45839
 22
-1403.404163
 32
0.0
 13
-1332.45839
 23
-1403.404163
 33
0.0
  0
SOLID
  5
13FA
100
AcDbEntity
  8
0
  6
BYBLOCK
 62
     0
100
AcDbTrace
 10
-1332.875057
 20
-1424.5485
 30
0.0
 11
-1332.041723
 21
-1424.5485
 31
0.0
 12
-1332.45839
 22
-1422.0485
 32
0.0
 13
-1332.45839
 23
-1422.0485
 33
0.0
  0
MTEXT
  5
13FB
100
AcDbEntity
  8
0
  6
BYBLOCK
 62
     0
100
AcDbMText
 10
-1336.434571
 20
-1412.726332
 30
0.0
 40
3.0
 41
0.0
 71
     5
 72
     1
  1
\A1;18.64\S-0.1^  0;
 11
0.0
 21
1.0
 31
0.0
  0
POINT
  5
13FC
100
AcDbEntity
  8
DEFPOINTS
  6
BYBLOCK
 62
     0
100
AcDbPoint
 10
-1305.759443
 20
-1403.404163
 30
0.0
  0
POINT
  5
13FD
100
AcDbEntity
  8
DEFPOINTS
  6
BYBLOCK
 62
     0
100
AcDbPoint
 10
-1307.309443
 20
-1422.0485
 30
0.0
  0
POINT
  5
13FE
100
AcDbEntity
  8
DEFPOINTS
  6
BYBLOCK
 62
     0
100
AcDbPoint
 10
-1332.45839
 20
-1422.0485
 30
0.0
  0
ENDBLK
  5
13FF
100
AcDbEntity
  8
0
100
AcDbBlockEnd
  0
BLOCK
  5
140B
100
AcDbEntity
  8
0
100
AcDbBlockBegin
  2
*D49
 70
    65
 10
0.0
 20
0.0
 30
0.0
  3
*D49
  1

  0
LINE
  5
140C
100
AcDbEntity
  8
0
  6
BYBLOCK
 62
     0
100
AcDbLine
 10
-1306.384443
 20
-1403.404163
 30
0.0
 11
-1342.285983
 21
-1403.404163
 31
0.0
  0
LINE
  5
140D
100
AcDbEntity
  8
0
  6
BYBLOCK
 62
     0
100
AcDbLine
 10
-1305.884443
 20
-1423.019633
 30
0.0
 11
-1342.285983
 21
-1423.019633
 31
0.0
  0
LINE
  5
140E
100
AcDbEntity
  8
0
  6
BYBLOCK
 62
     0
100
AcDbLine
 10
-1341.035983
 20
-1400.904163
 30
0.0
 11
-1341.035983
 21
-1398.404163
 31
0.0
  0
LINE
  5
140F
100
AcDbEntity
  8
0
  6
BYBLOCK
 62
     0
100
AcDbLine
 10
-1341.035983
 20
-1425.519633
 30
0.0
 11
-1341.035983
 21
-1428.019633
 31
0.0
  0
SOLID
  5
1410
100
AcDbEntity
  8
0
  6
BYBLOCK
 62
     0
100
AcDbTrace
 10
-1341.45265
 20
-1400.904163
 30
0.0
 11
-1340.619316
 21
-1400.904163
 31
0.0
 12
-1341.035983
 22
-1403.404163
 32
0.0
 13
-1341.035983
 23
-1403.404163
 33
0.0
  0
SOLID
  5
1411
100
AcDbEntity
  8
0
  6
BYBLOCK
 62
     0
100
AcDbTrace
 10
-1341.45265
 20
-1425.519633
 30
0.0
 11
-1340.619316
 21
-1425.519633
 31
0.0
 12
-1341.035983
 22
-1423.019633
 32
0.0
 13
-1341.035983
 23
-1423.019633
 33
0.0
  0
MTEXT
  5
1412
100
AcDbEntity
  8
0
  6
BYBLOCK
 62
     0
100
AcDbMText
 10
-1345.012164
 20
-1413.211898
 30
0.0
 40
3.0
 41
0.0
 71
     5
 72
     1
  1
\A1;19.62\S+0.1^  0;
 11
0.0
 21
1.0
 31
0.0
  0
POINT
  5
1413
100
AcDbEntity
  8
DEFPOINTS
  6
BYBLOCK
 62
     0
100
AcDbPoint
 10
-1305.759443
 20
-1403.404163
 30
0.0
  0
POINT
  5
1414
100
AcDbEntity
  8
DEFPOINTS
  6
BYBLOCK
 62
     0
100
AcDbPoint
 10
-1305.259443
 20
-1423.019633
 30
0.0
  0
POINT
  5
1415
100
AcDbEntity
  8
DEFPOINTS
  6
BYBLOCK
 62
     0
100
AcDbPoint
 10
-1341.035983
 20
-1423.019633
 30
0.0
  0
ENDBLK
  5
1416
100
AcDbEntity
  8
0
100
AcDbBlockEnd
  0
BLOCK
  5
11BE
100
AcDbEntity
  8
0
100
AcDbBlockBegin
  2
*D50
 70
    65
 10
0.0
 20
0.0
 30
0.0
  3
*D50
  1

  0
LINE
  5
11BF
100
AcDbEntity
  8
0
  6
BYBLOCK
 62
     0
100
AcDbLine
 10
-1289.734443
 20
-1403.404163
 30
0.0
 11
-1261.756958
 21
-1403.404163
 31
0.0
  0
LINE
  5
11C0
100
AcDbEntity
  8
0
  6
BYBLOCK
 62
     0
100
AcDbLine
 10
-1288.184443
 20
-1463.27115
 30
0.0
 11
-1261.756958
 21
-1463.27115
 31
0.0
  0
LINE
  5
11C1
100
AcDbEntity
  8
0
  6
BYBLOCK
 62
     0
100
AcDbLine
 10
-1263.006958
 20
-1405.904163
 30
0.0
 11
-1263.006958
 21
-1460.77115
 31
0.0
  0
SOLID
  5
11C2
100
AcDbEntity
  8
0
  6
BYBLOCK
 62
     0
100
AcDbTrace
 10
-1263.423624
 20
-1405.904163
 30
0.0
 11
-1262.590291
 21
-1405.904163
 31
0.0
 12
-1263.006958
 22
-1403.404163
 32
0.0
 13
-1263.006958
 23
-1403.404163
 33
0.0
  0
SOLID
  5
11C3
100
AcDbEntity
  8
0
  6
BYBLOCK
 62
     0
100
AcDbTrace
 10
-1263.423624
 20
-1460.77115
 30
0.0
 11
-1262.590291
 21
-1460.77115
 31
0.0
 12
-1263.006958
 22
-1463.27115
 32
0.0
 13
-1263.006958
 23
-1463.27115
 33
0.0
  0
MTEXT
  5
11C4
100
AcDbEntity
  8
0
  6
BYBLOCK
 62
     0
100
AcDbMText
 10
-1265.131958
 20
-1433.337656
 30
0.0
 40
3.0
 41
0.0
 71
     5
 72
     1
  1
\A1;59.87±0.1
 11
0.0
 21
1.0
 31
0.0
  0
POINT
  5
11C5
100
AcDbEntity
  8
DEFPOINTS
  6
BYBLOCK
 62
     0
100
AcDbPoint
 10
-1290.359443
 20
-1403.404163
 30
0.0
  0
POINT
  5
11C6
100
AcDbEntity
  8
DEFPOINTS
  6
BYBLOCK
 62
     0
100
AcDbPoint
 10
-1288.809443
 20
-1463.27115
 30
0.0
  0
POINT
  5
11C7
100
AcDbEntity
  8
DEFPOINTS
  6
BYBLOCK
 62
     0
100
AcDbPoint
 10
-1263.006958
 20
-1463.27115
 30
0.0
  0
ENDBLK
  5
11C8
100
AcDbEntity
  8
0
100
AcDbBlockEnd
  0
BLOCK
  5
10D7
100
AcDbEntity
  8
0
100
AcDbBlockBegin
  2
*D51
 70
    65
 10
0.0
 20
0.0
 30
0.0
  3
*D51
  1

  0
LINE
  5
10D8
100
AcDbEntity
  8
0
  6
BYBLOCK
 62
     0
100
AcDbLine
 10
-1306.384443
 20
-1403.404163
 30
0.0
 11
-1352.980939
 21
-1403.404163
 31
0.0
  0
LINE
  5
10D9
100
AcDbEntity
  8
0
  6
BYBLOCK
 62
     0
100
AcDbLine
 10
-1313.684443
 20
-1441.704163
 30
0.0
 11
-1352.980939
 21
-1441.704163
 31
0.0
  0
LINE
  5
10DA
100
AcDbEntity
  8
0
  6
BYBLOCK
 62
     0
100
AcDbLine
 10
-1351.730939
 20
-1405.904163
 30
0.0
 11
-1351.730939
 21
-1439.204163
 31
0.0
  0
SOLID
  5
10DB
100
AcDbEntity
  8
0
  6
BYBLOCK
 62
     0
100
AcDbTrace
 10
-1352.147606
 20
-1405.904163
 30
0.0
 11
-1351.314273
 21
-1405.904163
 31
0.0
 12
-1351.730939
 22
-1403.404163
 32
0.0
 13
-1351.730939
 23
-1403.404163
 33
0.0
  0
SOLID
  5
10DC
100
AcDbEntity
  8
0
  6
BYBLOCK
 62
     0
100
AcDbTrace
 10
-1352.147606
 20
-1439.204163
 30
0.0
 11
-1351.314273
 21
-1439.204163
 31
0.0
 12
-1351.730939
 22
-1441.704163
 32
0.0
 13
-1351.730939
 23
-1441.704163
 33
0.0
  0
MTEXT
  5
10DD
100
AcDbEntity
  8
0
  6
BYBLOCK
 62
     0
100
AcDbMText
 10
-1355.707121
 20
-1422.554163
 30
0.0
 40
3.0
 41
0.0
 71
     5
 72
     1
  1
\A1;38.3\S+0.1^  0;
 11
0.0
 21
1.0
 31
0.0
  0
POINT
  5
10DE
100
AcDbEntity
  8
DEFPOINTS
  6
BYBLOCK
 62
     0
100
AcDbPoint
 10
-1305.759443
 20
-1403.404163
 30
0.0
  0
POINT
  5
10DF
100
AcDbEntity
  8
DEFPOINTS
  6
BYBLOCK
 62
     0
100
AcDbPoint
 10
-1313.059443
 20
-1441.704163
 30
0.0
  0
POINT
  5
10E0
100
AcDbEntity
  8
DEFPOINTS
  6
BYBLOCK
 62
     0
100
AcDbPoint
 10
-1351.730939
 20
-1441.704163
 30
0.0
  0
ENDBLK
  5
10E1
100
AcDbEntity
  8
0
100
AcDbBlockEnd
  0
BLOCK
  5
10B1
100
AcDbEntity
  8
0
100
AcDbBlockBegin
  2
*D52
 70
    65
 10
0.0
 20
0.0
 30
0.0
  3
*D52
  1

  0
LINE
  5
10B2
100
AcDbEntity
  8
0
  6
BYBLOCK
 62
     0
100
AcDbLine
 10
-1288.268177
 20
-1422.361
 30
0.0
 11
-1277.590999
 21
-1428.525472
 31
0.0
  0
LINE
  5
10B3
100
AcDbEntity
  8
0
  6
BYBLOCK
 62
     0
100
AcDbLine
 10
-1293.268177
 20
-1431.021254
 30
0.0
 11
-1282.590999
 21
-1437.185726
 31
0.0
  0
LINE
  5
10B4
100
AcDbEntity
  8
0
  6
BYBLOCK
 62
     0
100
AcDbLine
 10
-1282.42353
 20
-1434.395663
 30
0.0
 11
-1279.92353
 21
-1430.065536
 31
0.0
  0
LINE
  5
10B5
100
AcDbEntity
  8
0
  6
BYBLOCK
 62
     0
100
AcDbLine
 10
-1278.67353
 20
-1427.900472
 30
0.0
 11
-1272.12603
 21
-1416.559869
 31
0.0
  0
SOLID
  5
10B6
100
AcDbEntity
  8
0
  6
BYBLOCK
 62
     0
100
AcDbTrace
 10
-1282.784374
 20
-1434.187329
 30
0.0
 11
-1282.062686
 21
-1434.603996
 31
0.0
 12
-1283.67353
 22
-1436.560726
 32
0.0
 13
-1283.67353
 23
-1436.560726
 33
0.0
  0
SOLID
  5
10B7
100
AcDbEntity
  8
0
  6
BYBLOCK
 62
     0
100
AcDbTrace
 10
-1280.284374
 20
-1429.857202
 30
0.0
 11
-1279.562686
 21
-1430.273869
 31
0.0
 12
-1278.67353
 22
-1427.900472
 32
0.0
 13
-1278.67353
 23
-1427.900472
 33
0.0
  0
MTEXT
  5
10B8
100
AcDbEntity
  8
0
  6
BYBLOCK
 62
     0
100
AcDbMText
 10
-1278.687004
 20
-1419.971447
 30
0.0
 40
3.0
 41
0.0
 71
     5
 72
     1
  1
\A1;10\S+0.1^  0;
 11
0.5
 21
0.866025
 31
0.0
  0
POINT
  5
10B9
100
AcDbEntity
  8
DEFPOINTS
  6
BYBLOCK
 62
     0
100
AcDbPoint
 10
-1288.809443
 20
-1422.0485
 30
0.0
  0
POINT
  5
10BA
100
AcDbEntity
  8
DEFPOINTS
  6
BYBLOCK
 62
     0
100
AcDbPoint
 10
-1293.809443
 20
-1430.708754
 30
0.0
  0
POINT
  5
10BB
100
AcDbEntity
  8
DEFPOINTS
  6
BYBLOCK
 62
     0
100
AcDbPoint
 10
-1283.67353
 20
-1436.560726
 30
0.0
  0
ENDBLK
  5
10BC
100
AcDbEntity
  8
0
100
AcDbBlockEnd
  0
BLOCK
  5
10BE
100
AcDbEntity
  8
0
100
AcDbBlockBegin
  2
*D53
 70
    65
 10
0.0
 20
0.0
 30
0.0
  3
*D53
  1

  0
LINE
  5
10BF
100
AcDbEntity
  8
0
  6
BYBLOCK
 62
     0
100
AcDbLine
 10
-1292.400709
 20
-1419.975082
 30
0.0
 11
-1298.922266
 21
-1416.209859
 31
0.0
  0
ARC
  5
10C0
100
AcDbEntity
  8
0
  6
BYBLOCK
 62
     0
100
AcDbCircle
 10
-1288.809443
 20
-1422.0485
 30
0.0
 40
10.427282
100
AcDbArc
 50
72.795134
 51
90.0
  0
ARC
  5
10C1
100
AcDbEntity
  8
0
  6
BYBLOCK
 62
     0
100
AcDbCircle
 10
-1288.809443
 20
-1422.0485
 30
0.0
 40
10.427282
100
AcDbArc
 50
103.770105
 51
136.229895
  0
SOLID
  5
10C2
100
AcDbEntity
  8
0
  6
BYBLOCK
 62
     0
100
AcDbTrace
 10
-1291.341364
 20
-1411.507251
 30
0.0
 11
-1291.241465
 21
-1412.334575
 31
0.0
 12
-1288.809443
 22
-1411.621218
 32
0.0
 13
-1288.809443
 23
-1411.621218
 33
0.0
  0
SOLID
  5
10C3
100
AcDbEntity
  8
0
  6
BYBLOCK
 62
     0
100
AcDbTrace
 10
-1296.005938
 20
-1415.085344
 30
0.0
 11
-1296.672472
 21
-1414.585168
 31
0.0
 12
-1297.839734
 22
-1416.834859
 32
0.0
 13
-1297.839734
 23
-1416.834859
 33
0.0
  0
MTEXT
  5
10C4
100
AcDbEntity
  8
0
  6
BYBLOCK
 62
     0
100
AcDbMText
 10
-1281.820095
 20
-1411.072449
 30
0.0
 40
3.0
 41
0.0
 71
     5
 72
     1
  1
\A1;60°
 11
0.955253
 21
-0.295789
 31
0.0
  0
POINT
  5
10C5
100
AcDbEntity
  8
DEFPOINTS
  6
BYBLOCK
 62
     0
100
AcDbPoint
 10
-1295.51197
 20
-1414.060739
 30
0.0
  0
POINT
  5
10C6
100
AcDbEntity
  8
DEFPOINTS
  6
BYBLOCK
 62
     0
100
AcDbPoint
 10
-1288.809443
 20
-1422.0485
 30
0.0
  0
POINT
  5
10C7
100
AcDbEntity
  8
DEFPOINTS
  6
BYBLOCK
 62
     0
100
AcDbPoint
 10
-1288.809443
 20
-1404.954163
 30
0.0
  0
POINT
  5
10C8
100
AcDbEntity
  8
DEFPOINTS
  6
BYBLOCK
 62
     0
100
AcDbPoint
 10
-1288.809443
 20
-1422.0485
 30
0.0
  0
POINT
  5
10C9
100
AcDbEntity
  8
DEFPOINTS
  6
BYBLOCK
 62
     0
100
AcDbPoint
 10
-1291.859443
 20
-1420.287582
 30
0.0
  0
ENDBLK
  5
10CA
100
AcDbEntity
  8
0
100
AcDbBlockEnd
  0
BLOCK
  5
1127
100
AcDbEntity
  8
0
100
AcDbBlockBegin
  2
*D54
 70
    65
 10
0.0
 20
0.0
 30
0.0
  3
*D54
  1

  0
LINE
  5
1128
100
AcDbEntity
  8
0
  6
BYBLOCK
 62
     0
100
AcDbLine
 10
-1288.809443
 20
-1404.329163
 30
0.0
 11
-1288.809443
 21
-1381.517994
 31
0.0
  0
LINE
  5
1129
100
AcDbEntity
  8
0
  6
BYBLOCK
 62
     0
100
AcDbLine
 10
-1314.309443
 20
-1442.329163
 30
0.0
 11
-1314.309443
 21
-1381.517994
 31
0.0
  0
LINE
  5
112A
100
AcDbEntity
  8
0
  6
BYBLOCK
 62
     0
100
AcDbLine
 10
-1291.309443
 20
-1382.767994
 30
0.0
 11
-1311.809443
 21
-1382.767994
 31
0.0
  0
SOLID
  5
112B
100
AcDbEntity
  8
0
  6
BYBLOCK
 62
     0
100
AcDbTrace
 10
-1291.309443
 20
-1382.351328
 30
0.0
 11
-1291.309443
 21
-1383.184661
 31
0.0
 12
-1288.809443
 22
-1382.767994
 32
0.0
 13
-1288.809443
 23
-1382.767994
 33
0.0
  0
SOLID
  5
112C
100
AcDbEntity
  8
0
  6
BYBLOCK
 62
     0
100
AcDbTrace
 10
-1311.809443
 20
-1382.351328
 30
0.0
 11
-1311.809443
 21
-1383.184661
 31
0.0
 12
-1314.309443
 22
-1382.767994
 32
0.0
 13
-1314.309443
 23
-1382.767994
 33
0.0
  0
MTEXT
  5
112D
100
AcDbEntity
  8
0
  6
BYBLOCK
 62
     0
100
AcDbMText
 10
-1301.559443
 20
-1380.642994
 30
0.0
 40
3.0
 41
0.0
 71
     5
 72
     1
  1
\A2;25.5{\H2.400000;±0.05}
  0
POINT
  5
112E
100
AcDbEntity
  8
DEFPOINTS
  6
BYBLOCK
 62
     0
100
AcDbPoint
 10
-1288.809443
 20
-1404.954163
 30
0.0
  0
POINT
  5
112F
100
AcDbEntity
  8
DEFPOINTS
  6
BYBLOCK
 62
     0
100
AcDbPoint
 10
-1314.309443
 20
-1442.954163
 30
0.0
  0
POINT
  5
1130
100
AcDbEntity
  8
DEFPOINTS
  6
BYBLOCK
 62
     0
100
AcDbPoint
 10
-1314.309443
 20
-1382.767994
 30
0.0
  0
ENDBLK
  5
1131
100
AcDbEntity
  8
0
100
AcDbBlockEnd
  0
BLOCK
  5
1192
100
AcDbEntity
  8
0
100
AcDbBlockBegin
  2
*D55
 70
    65
 10
0.0
 20
0.0
 30
0.0
  3
*D55
  1

  0
LINE
  5
1193
100
AcDbEntity
  8
0
  6
BYBLOCK
 62
     0
100
AcDbLine
 10
-1289.734443
 20
-1403.404163
 30
0.0
 11
-1228.940144
 21
-1403.404163
 31
0.0
  0
LINE
  5
1194
100
AcDbEntity
  8
0
  6
BYBLOCK
 62
     0
100
AcDbLine
 10
-1296.451691
 20
-1599.204163
 30
0.0
 11
-1228.940144
 21
-1599.204163
 31
0.0
  0
LINE
  5
1195
100
AcDbEntity
  8
0
  6
BYBLOCK
 62
     0
100
AcDbLine
 10
-1230.190144
 20
-1405.904163
 30
0.0
 11
-1230.190144
 21
-1596.704163
 31
0.0
  0
SOLID
  5
1196
100
AcDbEntity
  8
0
  6
BYBLOCK
 62
     0
100
AcDbTrace
 10
-1230.60681
 20
-1405.904163
 30
0.0
 11
-1229.773477
 21
-1405.904163
 31
0.0
 12
-1230.190144
 22
-1403.404163
 32
0.0
 13
-1230.190144
 23
-1403.404163
 33
0.0
  0
SOLID
  5
1197
100
AcDbEntity
  8
0
  6
BYBLOCK
 62
     0
100
AcDbTrace
 10
-1230.60681
 20
-1596.704163
 30
0.0
 11
-1229.773477
 21
-1596.704163
 31
0.0
 12
-1230.190144
 22
-1599.204163
 32
0.0
 13
-1230.190144
 23
-1599.204163
 33
0.0
  0
MTEXT
  5
1198
100
AcDbEntity
  8
0
  6
BYBLOCK
 62
     0
100
AcDbMText
 10
-1234.166325
 20
-1501.304163
 30
0.0
 40
3.0
 41
0.0
 71
     5
 72
     1
  1
\A1;195.8\S+0.1^  0;
 11
0.0
 21
1.0
 31
0.0
  0
POINT
  5
1199
100
AcDbEntity
  8
DEFPOINTS
  6
BYBLOCK
 62
     0
100
AcDbPoint
 10
-1290.359443
 20
-1403.404163
 30
0.0
  0
POINT
  5
119A
100
AcDbEntity
  8
DEFPOINTS
  6
BYBLOCK
 62
     0
100
AcDbPoint
 10
-1297.076691
 20
-1599.204163
 30
0.0
  0
POINT
  5
119B
100
AcDbEntity
  8
DEFPOINTS
  6
BYBLOCK
 62
     0
100
AcDbPoint
 10
-1230.190144
 20
-1599.204163
 30
0.0
  0
ENDBLK
  5
119C
100
AcDbEntity
  8
0
100
AcDbBlockEnd
  0
BLOCK
  5
11D4
100
AcDbEntity
  8
0
100
AcDbBlockBegin
  2
*D56
 70
    65
 10
0.0
 20
0.0
 30
0.0
  3
*D56
  1

  0
LINE
  5
11D5
100
AcDbEntity
  8
0
  6
BYBLOCK
 62
     0
100
AcDbLine
 10
-1288.184443
 20
-1403.404163
 30
0.0
 11
-1248.684792
 21
-1403.404163
 31
0.0
  0
LINE
  5
11D6
100
AcDbEntity
  8
0
  6
BYBLOCK
 62
     0
100
AcDbLine
 10
-1287.434443
 20
-1481.972112
 30
0.0
 11
-1248.684792
 21
-1481.972112
 31
0.0
  0
LINE
  5
11D7
100
AcDbEntity
  8
0
  6
BYBLOCK
 62
     0
100
AcDbLine
 10
-1249.934792
 20
-1405.904163
 30
0.0
 11
-1249.934792
 21
-1479.472112
 31
0.0
  0
SOLID
  5
11D8
100
AcDbEntity
  8
0
  6
BYBLOCK
 62
     0
100
AcDbTrace
 10
-1250.351459
 20
-1405.904163
 30
0.0
 11
-1249.518126
 21
-1405.904163
 31
0.0
 12
-1249.934792
 22
-1403.404163
 32
0.0
 13
-1249.934792
 23
-1403.404163
 33
0.0
  0
SOLID
  5
11D9
100
AcDbEntity
  8
0
  6
BYBLOCK
 62
     0
100
AcDbTrace
 10
-1250.351459
 20
-1479.472112
 30
0.0
 11
-1249.518126
 21
-1479.472112
 31
0.0
 12
-1249.934792
 22
-1481.972112
 32
0.0
 13
-1249.934792
 23
-1481.972112
 33
0.0
  0
MTEXT
  5
11DA
100
AcDbEntity
  8
0
  6
BYBLOCK
 62
     0
100
AcDbMText
 10
-1252.059792
 20
-1442.688137
 30
0.0
 40
3.0
 41
0.0
 71
     5
 72
     1
  1
\A1;78.57±0.1
 11
0.0
 21
1.0
 31
0.0
  0
POINT
  5
11DB
100
AcDbEntity
  8
DEFPOINTS
  6
BYBLOCK
 62
     0
100
AcDbPoint
 10
-1288.809443
 20
-1403.404163
 30
0.0
  0
POINT
  5
11DC
100
AcDbEntity
  8
DEFPOINTS
  6
BYBLOCK
 62
     0
100
AcDbPoint
 10
-1288.059443
 20
-1481.972112
 30
0.0
  0
POINT
  5
11DD
100
AcDbEntity
  8
DEFPOINTS
  6
BYBLOCK
 62
     0
100
AcDbPoint
 10
-1249.934792
 20
-1481.972112
 30
0.0
  0
ENDBLK
  5
11DE
100
AcDbEntity
  8
0
100
AcDbBlockEnd
  0
BLOCK
  5
11EA
100
AcDbEntity
  8
0
100
AcDbBlockBegin
  2
*D57
 70
    65
 10
0.0
 20
0.0
 30
0.0
  3
*D57
  1

  0
LINE
  5
11EB
100
AcDbEntity
  8
0
  6
BYBLOCK
 62
     0
100
AcDbLine
 10
-1289.734443
 20
-1403.404163
 30
0.0
 11
-1240.26904
 21
-1403.404163
 31
0.0
  0
LINE
  5
11EC
100
AcDbEntity
  8
0
  6
BYBLOCK
 62
     0
100
AcDbLine
 10
-1287.434443
 20
-1553.83635
 30
0.0
 11
-1240.26904
 21
-1553.83635
 31
0.0
  0
LINE
  5
11ED
100
AcDbEntity
  8
0
  6
BYBLOCK
 62
     0
100
AcDbLine
 10
-1241.51904
 20
-1405.904163
 30
0.0
 11
-1241.51904
 21
-1551.33635
 31
0.0
  0
SOLID
  5
11EE
100
AcDbEntity
  8
0
  6
BYBLOCK
 62
     0
100
AcDbTrace
 10
-1241.935707
 20
-1405.904163
 30
0.0
 11
-1241.102373
 21
-1405.904163
 31
0.0
 12
-1241.51904
 22
-1403.404163
 32
0.0
 13
-1241.51904
 23
-1403.404163
 33
0.0
  0
SOLID
  5
11EF
100
AcDbEntity
  8
0
  6
BYBLOCK
 62
     0
100
AcDbTrace
 10
-1241.935707
 20
-1551.33635
 30
0.0
 11
-1241.102373
 21
-1551.33635
 31
0.0
 12
-1241.51904
 22
-1553.83635
 32
0.0
 13
-1241.51904
 23
-1553.83635
 33
0.0
  0
MTEXT
  5
11F0
100
AcDbEntity
  8
0
  6
BYBLOCK
 62
     0
100
AcDbMText
 10
-1245.495221
 20
-1478.620256
 30
0.0
 40
3.0
 41
0.0
 71
     5
 72
     1
  1
\A1;150.43\S+0.1^  0;
 11
0.0
 21
1.0
 31
0.0
  0
POINT
  5
11F1
100
AcDbEntity
  8
DEFPOINTS
  6
BYBLOCK
 62
     0
100
AcDbPoint
 10
-1290.359443
 20
-1403.404163
 30
0.0
  0
POINT
  5
11F2
100
AcDbEntity
  8
DEFPOINTS
  6
BYBLOCK
 62
     0
100
AcDbPoint
 10
-1288.059443
 20
-1553.83635
 30
0.0
  0
POINT
  5
11F3
100
AcDbEntity
  8
DEFPOINTS
  6
BYBLOCK
 62
     0
100
AcDbPoint
 10
-1241.51904
 20
-1553.83635
 30
0.0
  0
ENDBLK
  5
11F4
100
AcDbEntity
  8
0
100
AcDbBlockEnd
  0
BLOCK
  5
11F6
100
AcDbEntity
  8
0
100
AcDbBlockBegin
  2
*D58
 70
    65
 10
0.0
 20
0.0
 30
0.0
  3
*D58
  1

  0
ARC
  5
11F7
100
AcDbEntity
  8
0
  6
BYBLOCK
 62
     0
100
AcDbCircle
 10
-1288.809443
 20
-1463.27115
 30
0.0
 40
8.984985
100
AcDbArc
 50
105.99397
 51
224.00603
  0
SOLID
  5
11F8
100
AcDbEntity
  8
0
  6
BYBLOCK
 62
     0
100
AcDbTrace
 10
-1291.343098
 20
-1454.221353
 30
0.0
 11
-1291.227164
 21
-1455.046583
 31
0.0
 12
-1288.809443
 22
-1454.286165
 32
0.0
 13
-1288.809443
 23
-1454.286165
 33
0.0
  0
SOLID
  5
11F9
100
AcDbEntity
  8
0
  6
BYBLOCK
 62
     0
100
AcDbTrace
 10
-1295.015535
 20
-1469.184974
 30
0.0
 11
-1295.528551
 21
-1469.841676
 31
0.0
 12
-1293.301935
 22
-1471.052375
 32
0.0
 13
-1293.301935
 23
-1471.052375
 33
0.0
  0
MTEXT
  5
11FA
100
AcDbEntity
  8
0
  6
BYBLOCK
 62
     0
100
AcDbMText
 10
-1299.540864
 20
-1460.395674
 30
0.0
 40
3.0
 41
0.0
 71
     5
 72
     1
  1
\A1;150°
 11
0.258819
 21
0.965926
 31
0.0
  0
POINT
  5
11FB
100
AcDbEntity
  8
DEFPOINTS
  6
BYBLOCK
 62
     0
100
AcDbPoint
 10
-1295.69234
 20
-1457.495713
 30
0.0
  0
POINT
  5
11FC
100
AcDbEntity
  8
DEFPOINTS
  6
BYBLOCK
 62
     0
100
AcDbPoint
 10
-1288.809443
 20
-1433.595506
 30
0.0
  0
POINT
  5
11FD
100
AcDbEntity
  8
DEFPOINTS
  6
BYBLOCK
 62
     0
100
AcDbPoint
 10
-1288.809443
 20
-1463.27115
 30
0.0
  0
POINT
  5
11FE
100
AcDbEntity
  8
DEFPOINTS
  6
BYBLOCK
 62
     0
100
AcDbPoint
 10
-1296.719697
 20
-1476.972112
 30
0.0
  0
POINT
  5
11FF
100
AcDbEntity
  8
DEFPOINTS
  6
BYBLOCK
 62
     0
100
AcDbPoint
 10
-1288.809443
 20
-1463.27115
 30
0.0
  0
ENDBLK
  5
1200
100
AcDbEntity
  8
0
100
AcDbBlockEnd
  0
BLOCK
  5
1203
100
AcDbEntity
  8
0
100
AcDbBlockBegin
  2
*D59
 70
    65
 10
0.0
 20
0.0
 30
0.0
  3
*D59
  1

  0
LINE
  5
1204
100
AcDbEntity
  8
0
  6
BYBLOCK
 62
     0
100
AcDbLine
 10
-1288.059443
 20
-1481.972112
 30
0.0
 11
-1295.145217
 21
-1479.514103
 31
0.0
  0
SOLID
  5
1205
100
AcDbEntity
  8
0
  6
BYBLOCK
 62
     0
100
AcDbTrace
 10
-1295.008661
 20
-1479.120449
 30
0.0
 11
-1295.281773
 21
-1479.907757
 31
0.0
 12
-1297.507141
 22
-1478.694766
 32
0.0
 13
-1297.507141
 23
-1478.694766
 33
0.0
  0
MTEXT
  5
1206
100
AcDbEntity
  8
0
  6
BYBLOCK
 62
     0
100
AcDbMText
 10
-1292.086856
 20
-1478.325803
 30
0.0
 40
3.0
 41
0.0
 71
     5
 72
     1
  1
\A1;R10
 11
0.94477
 21
-0.327735
 31
0.0
  0
POINT
  5
1207
100
AcDbEntity
  8
DEFPOINTS
  6
BYBLOCK
 62
     0
100
AcDbPoint
 10
-1297.507141
 20
-1478.694766
 30
0.0
  0
POINT
  5
1208
100
AcDbEntity
  8
DEFPOINTS
  6
BYBLOCK
 62
     0
100
AcDbPoint
 10
-1288.059443
 20
-1481.972112
 30
0.0
  0
ENDBLK
  5
1209
100
AcDbEntity
  8
0
100
AcDbBlockEnd
  0
BLOCK
  5
120C
100
AcDbEntity
  8
0
100
AcDbBlockBegin
  2
*D60
 70
    65
 10
0.0
 20
0.0
 30
0.0
  3
*D60
  1

  0
LINE
  5
120D
100
AcDbEntity
  8
0
  6
BYBLOCK
 62
     0
100
AcDbLine
 10
-1288.059443
 20
-1553.83635
 30
0.0
 11
-1295.509609
 21
-1554.699501
 31
0.0
  0
SOLID
  5
120E
100
AcDbEntity
  8
0
  6
BYBLOCK
 62
     0
100
AcDbTrace
 10
-1295.557561
 20
-1554.285603
 30
0.0
 11
-1295.461656
 21
-1555.113399
 31
0.0
 12
-1297.992997
 22
-1554.987218
 32
0.0
 13
-1297.992997
 23
-1554.987218
 33
0.0
  0
MTEXT
  5
120F
100
AcDbEntity
  8
0
  6
BYBLOCK
 62
     0
100
AcDbMText
 10
-1293.27078
 20
-1552.300904
 30
0.0
 40
3.0
 41
0.0
 71
     5
 72
     1
  1
\A1;R10
 11
0.993355
 21
0.115087
 31
0.0
  0
POINT
  5
1210
100
AcDbEntity
  8
DEFPOINTS
  6
BYBLOCK
 62
     0
100
AcDbPoint
 10
-1297.992997
 20
-1554.987218
 30
0.0
  0
POINT
  5
1211
100
AcDbEntity
  8
DEFPOINTS
  6
BYBLOCK
 62
     0
100
AcDbPoint
 10
-1288.059443
 20
-1553.83635
 30
0.0
  0
ENDBLK
  5
1212
100
AcDbEntity
  8
0
100
AcDbBlockEnd
  0
BLOCK
  5
1221
100
AcDbEntity
  8
0
100
AcDbBlockBegin
  2
*D61
 70
    65
 10
0.0
 20
0.0
 30
0.0
  3
*D61
  1

  0
ARC
  5
1222
100
AcDbEntity
  8
0
  6
BYBLOCK
 62
     0
100
AcDbCircle
 10
-1298.059443
 20
-1554.535618
 30
0.0
 40
16.812352
100
AcDbArc
 50
286.527763
 51
81.472237
  0
SOLID
  5
1223
100
AcDbEntity
  8
0
  6
BYBLOCK
 62
     0
100
AcDbTrace
 10
-1293.188161
 20
-1571.060475
 30
0.0
 11
-1293.365173
 21
-1570.246159
 31
0.0
 12
-1295.719616
 22
-1571.184353
 32
0.0
 13
-1295.719616
 23
-1571.184353
 33
0.0
  0
SOLID
  5
1224
100
AcDbEntity
  8
0
  6
BYBLOCK
 62
     0
100
AcDbTrace
 10
-1295.597342
 20
-1538.324655
 30
0.0
 11
-1295.535383
 21
-1537.493628
 31
0.0
 12
-1298.059443
 22
-1537.723267
 32
0.0
 13
-1298.059443
 23
-1537.723267
 33
0.0
  0
MTEXT
  5
1225
100
AcDbEntity
  8
0
  6
BYBLOCK
 62
     0
100
AcDbMText
 10
-1281.338645
 20
-1545.645275
 30
0.0
 40
3.0
 41
0.0
 71
     5
 72
     1
  1
\A1;172°
 11
0.469461
 21
-0.882953
 31
0.0
  0
POINT
  5
1226
100
AcDbEntity
  8
DEFPOINTS
  6
BYBLOCK
 62
     0
100
AcDbPoint
 10
-1282.781199
 20
-1561.552059
 30
0.0
  0
POINT
  5
1227
100
AcDbEntity
  8
DEFPOINTS
  6
BYBLOCK
 62
     0
100
AcDbPoint
 10
-1298.059443
 20
-1580.488818
 30
0.0
  0
POINT
  5
1228
100
AcDbEntity
  8
DEFPOINTS
  6
BYBLOCK
 62
     0
100
AcDbPoint
 10
-1293.785313
 20
-1584.947635
 30
0.0
  0
POINT
  5
1229
100
AcDbEntity
  8
DEFPOINTS
  6
BYBLOCK
 62
     0
100
AcDbPoint
 10
-1297.962124
 20
-1555.228081
 30
0.0
  0
POINT
  5
122A
100
AcDbEntity
  8
DEFPOINTS
  6
BYBLOCK
 62
     0
100
AcDbPoint
 10
-1298.059443
 20
-1436.479763
 30
0.0
  0
ENDBLK
  5
122B
100
AcDbEntity
  8
0
100
AcDbBlockEnd
  0
BLOCK
  5
122D
100
AcDbEntity
  8
0
100
AcDbBlockBegin
  2
*D62
 70
    65
 10
0.0
 20
0.0
 30
0.0
  3
*D62
  1

  0
LINE
  5
122E
100
AcDbEntity
  8
0
  6
BYBLOCK
 62
     0
100
AcDbLine
 10
-1293.160313
 20
-1584.947635
 30
0.0
 11
-1278.247696
 21
-1584.947635
 31
0.0
  0
LINE
  5
122F
100
AcDbEntity
  8
0
  6
BYBLOCK
 62
     0
100
AcDbLine
 10
-1296.451691
 20
-1599.204163
 30
0.0
 11
-1278.247696
 21
-1599.204163
 31
0.0
  0
LINE
  5
1230
100
AcDbEntity
  8
0
  6
BYBLOCK
 62
     0
100
AcDbLine
 10
-1279.497696
 20
-1582.447635
 30
0.0
 11
-1279.497696
 21
-1579.947635
 31
0.0
  0
LINE
  5
1231
100
AcDbEntity
  8
0
  6
BYBLOCK
 62
     0
100
AcDbLine
 10
-1279.497696
 20
-1601.704163
 30
0.0
 11
-1279.497696
 21
-1604.204163
 31
0.0
  0
SOLID
  5
1232
100
AcDbEntity
  8
0
  6
BYBLOCK
 62
     0
100
AcDbTrace
 10
-1279.914362
 20
-1582.447635
 30
0.0
 11
-1279.081029
 21
-1582.447635
 31
0.0
 12
-1279.497696
 22
-1584.947635
 32
0.0
 13
-1279.497696
 23
-1584.947635
 33
0.0
  0
SOLID
  5
1233
100
AcDbEntity
  8
0
  6
BYBLOCK
 62
     0
100
AcDbTrace
 10
-1279.914362
 20
-1601.704163
 30
0.0
 11
-1279.081029
 21
-1601.704163
 31
0.0
 12
-1279.497696
 22
-1599.204163
 32
0.0
 13
-1279.497696
 23
-1599.204163
 33
0.0
  0
MTEXT
  5
1234
100
AcDbEntity
  8
0
  6
BYBLOCK
 62
     0
100
AcDbMText
 10
-1281.622696
 20
-1592.075899
 30
0.0
 40
3.0
 41
0.0
 71
     5
 72
     1
  1
\A1;14.26
 11
0.0
 21
1.0
 31
0.0
  0
POINT
  5
1235
100
AcDbEntity
  8
DEFPOINTS
  6
BYBLOCK
 62
     0
100
AcDbPoint
 10
-1293.785313
 20
-1584.947635
 30
0.0
  0
POINT
  5
1236
100
AcDbEntity
  8
DEFPOINTS
  6
BYBLOCK
 62
     0
100
AcDbPoint
 10
-1297.076691
 20
-1599.204163
 30
0.0
  0
POINT
  5
1237
100
AcDbEntity
  8
DEFPOINTS
  6
BYBLOCK
 62
     0
100
AcDbPoint
 10
-1279.497696
 20
-1599.204163
 30
0.0
  0
ENDBLK
  5
1238
100
AcDbEntity
  8
0
100
AcDbBlockEnd
  0
BLOCK
  5
123B
100
AcDbEntity
  8
0
100
AcDbBlockBegin
  2
*D63
 70
    65
 10
0.0
 20
0.0
 30
0.0
  3
*D63
  1

  0
LINE
  5
123C
100
AcDbEntity
  8
0
  6
BYBLOCK
 62
     0
100
AcDbLine
 10
-1302.783814
 20
-1585.704598
 30
0.0
 11
-1313.925178
 21
-1585.704598
 31
0.0
  0
LINE
  5
123D
100
AcDbEntity
  8
0
  6
BYBLOCK
 62
     0
100
AcDbLine
 10
-1299.667194
 20
-1599.204163
 30
0.0
 11
-1313.925178
 21
-1599.204163
 31
0.0
  0
LINE
  5
123E
100
AcDbEntity
  8
0
  6
BYBLOCK
 62
     0
100
AcDbLine
 10
-1312.675178
 20
-1588.204598
 30
0.0
 11
-1312.675178
 21
-1596.704163
 31
0.0
  0
SOLID
  5
123F
100
AcDbEntity
  8
0
  6
BYBLOCK
 62
     0
100
AcDbTrace
 10
-1313.091845
 20
-1588.204598
 30
0.0
 11
-1312.258512
 21
-1588.204598
 31
0.0
 12
-1312.675178
 22
-1585.704598
 32
0.0
 13
-1312.675178
 23
-1585.704598
 33
0.0
  0
SOLID
  5
1240
100
AcDbEntity
  8
0
  6
BYBLOCK
 62
     0
100
AcDbTrace
 10
-1313.091845
 20
-1596.704163
 30
0.0
 11
-1312.258512
 21
-1596.704163
 31
0.0
 12
-1312.675178
 22
-1599.204163
 32
0.0
 13
-1312.675178
 23
-1599.204163
 33
0.0
  0
MTEXT
  5
1241
100
AcDbEntity
  8
0
  6
BYBLOCK
 62
     0
100
AcDbMText
 10
-1314.800178
 20
-1592.45438
 30
0.0
 40
3.0
 41
0.0
 71
     5
 72
     1
  1
\A1;13.5
 11
0.0
 21
1.0
 31
0.0
  0
POINT
  5
1242
100
AcDbEntity
  8
DEFPOINTS
  6
BYBLOCK
 62
     0
100
AcDbPoint
 10
-1302.158814
 20
-1585.704598
 30
0.0
  0
POINT
  5
1243
100
AcDbEntity
  8
DEFPOINTS
  6
BYBLOCK
 62
     0
100
AcDbPoint
 10
-1299.042194
 20
-1599.204163
 30
0.0
  0
POINT
  5
1244
100
AcDbEntity
  8
DEFPOINTS
  6
BYBLOCK
 62
     0
100
AcDbPoint
 10
-1312.675178
 20
-1599.204163
 30
0.0
  0
ENDBLK
  5
1245
100
AcDbEntity
  8
0
100
AcDbBlockEnd
  0
BLOCK
  5
13DD
100
AcDbEntity
  8
0
100
AcDbBlockBegin
  2
*D64
 70
    65
 10
0.0
 20
0.0
 30
0.0
  3
*D64
  1

  0
LINE
  5
13DE
100
AcDbEntity
  8
0
  6
BYBLOCK
 62
     0
100
AcDbLine
 10
-1302.299409
 20
-1585.095617
 30
0.0
 11
-1305.421788
 21
-1571.571109
 31
0.0
  0
LINE
  5
13DF
100
AcDbEntity
  8
0
  6
BYBLOCK
 62
     0
100
AcDbLine
 10
-1301.373757
 20
-1584.881913
 30
0.0
 11
-1304.496136
 21
-1571.357405
 31
0.0
  0
LINE
  5
13E0
100
AcDbEntity
  8
0
  6
BYBLOCK
 62
     0
100
AcDbLine
 10
-1301.779022
 20
-1572.01299
 30
0.0
 11
-1299.343097
 21
-1571.450613
 31
0.0
  0
LINE
  5
13E1
100
AcDbEntity
  8
0
  6
BYBLOCK
 62
     0
100
AcDbLine
 10
-1307.576524
 20
-1573.351449
 30
0.0
 11
-1324.205641
 21
-1577.190583
 31
0.0
  0
SOLID
  5
13E2
100
AcDbEntity
  8
0
  6
BYBLOCK
 62
     0
100
AcDbTrace
 10
-1301.872752
 20
-1571.607003
 30
0.0
 11
-1301.685292
 21
-1572.418978
 31
0.0
 12
-1304.214947
 22
-1572.575368
 32
0.0
 13
-1304.214947
 23
-1572.575368
 33
0.0
  0
SOLID
  5
13E3
100
AcDbEntity
  8
0
  6
BYBLOCK
 62
     0
100
AcDbTrace
 10
-1307.670253
 20
-1572.945461
 30
0.0
 11
-1307.482794
 21
-1573.757436
 31
0.0
 12
-1305.140599
 22
-1572.789071
 32
0.0
 13
-1305.140599
 23
-1572.789071
 33
0.0
  0
MTEXT
  5
13E4
100
AcDbEntity
  8
0
  6
BYBLOCK
 62
     0
100
AcDbMText
 10
-1317.090019
 20
-1571.467041
 30
0.0
 40
3.0
 41
0.0
 71
     5
 72
     1
  1
\A1;0.95\S+0.1^  0;
 11
0.97437
 21
0.224951
 31
0.0
  0
POINT
  5
13E5
100
AcDbEntity
  8
DEFPOINTS
  6
BYBLOCK
 62
     0
100
AcDbPoint
 10
-1302.158814
 20
-1585.704598
 30
0.0
  0
POINT
  5
13E6
100
AcDbEntity
  8
DEFPOINTS
  6
BYBLOCK
 62
     0
100
AcDbPoint
 10
-1301.233163
 20
-1585.490894
 30
0.0
  0
POINT
  5
13E7
100
AcDbEntity
  8
DEFPOINTS
  6
BYBLOCK
 62
     0
100
AcDbPoint
 10
-1304.214947
 20
-1572.575368
 30
0.0
  0
ENDBLK
  5
13E8
100
AcDbEntity
  8
0
100
AcDbBlockEnd
  0
BLOCK
  5
1316
100
AcDbEntity
  8
0
100
AcDbBlockBegin
  2
*X65
 70
    65
 10
0.0
 20
0.0
 30
0.0
  3
*X65
  1

  0
LINE
  5
1318
100
AcDbEntity
  8
0
 62
     0
100
AcDbLine
 10
-1299.454289
 20
-1597.419187
 30
0.0
 11
-1298.059443
 21
-1596.024341
 31
0.0
  0
LINE
  5
1319
100
AcDbEntity
  8
0
 62
     0
100
AcDbLine
 10
-1298.059443
 20
-1596.024341
 30
0.0
 11
-1295.827223
 21
-1593.792121
 31
0.0
  0
LINE
  5
131A
100
AcDbEntity
  8
0
 62
     0
100
AcDbLine
 10
-1299.50482
 20
-1597.200311
 30
0.0
 11
-1298.059443
 21
-1595.754933
 31
0.0
  0
LINE
  5
131B
100
AcDbEntity
  8
0
 62
     0
100
AcDbLine
 10
-1295.884319
 20
-1593.57981
 30
0.0
 11
-1295.746356
 21
-1593.441846
 31
0.0
  0
LINE
  5
131C
100
AcDbEntity
  8
0
 62
     0
100
AcDbLine
 10
-1298.059443
 20
-1595.754933
 30
0.0
 11
-1296.827031
 21
-1594.522522
 31
0.0
  0
LINE
  5
131D
100
AcDbEntity
  8
0
 62
     0
100
AcDbLine
 10
-1299.555352
 20
-1596.981434
 30
0.0
 11
-1298.059443
 21
-1595.485526
 31
0.0
  0
LINE
  5
131E
100
AcDbEntity
  8
0
 62
     0
100
AcDbLine
 10
-1295.676107
 20
-1593.10219
 30
0.0
 11
-1295.665488
 21
-1593.091571
 31
0.0
  0
LINE
  5
131F
100
AcDbEntity
  8
0
 62
     0
100
AcDbLine
 10
-1298.059443
 20
-1595.485526
 30
0.0
 11
-1297.304652
 21
-1594.730734
 31
0.0
  0
LINE
  5
1320
100
AcDbEntity
  8
0
 62
     0
100
AcDbLine
 10
-1299.605883
 20
-1596.762558
 30
0.0
 11
-1298.059443
 21
-1595.216118
 31
0.0
  0
LINE
  5
1321
100
AcDbEntity
  8
0
 62
     0
100
AcDbLine
 10
-1298.059443
 20
-1595.216118
 30
0.0
 11
-1297.658336
 21
-1594.815011
 31
0.0
  0
LINE
  5
1322
100
AcDbEntity
  8
0
 62
     0
100
AcDbLine
 10
-1299.656415
 20
-1596.543682
 30
0.0
 11
-1298.059443
 21
-1594.94671
 31
0.0
  0
LINE
  5
1323
100
AcDbEntity
  8
0
 62
     0
100
AcDbLine
 10
-1298.059443
 20
-1594.94671
 30
0.0
 11
-1297.958075
 21
-1594.845342
 31
0.0
  0
LINE
  5
1324
100
AcDbEntity
  8
0
 62
     0
100
AcDbLine
 10
-1299.706946
 20
-1596.324806
 30
0.0
 11
-1298.22411
 21
-1594.841969
 31
0.0
  0
LINE
  5
1325
100
AcDbEntity
  8
0
 62
     0
100
AcDbLine
 10
-1299.757478
 20
-1596.10593
 30
0.0
 11
-1298.465714
 21
-1594.814166
 31
0.0
  0
LINE
  5
1326
100
AcDbEntity
  8
0
 62
     0
100
AcDbLine
 10
-1299.808009
 20
-1595.887054
 30
0.0
 11
-1298.688038
 21
-1594.767082
 31
0.0
  0
LINE
  5
1327
100
AcDbEntity
  8
0
 62
     0
100
AcDbLine
 10
-1299.858541
 20
-1595.668177
 30
0.0
 11
-1298.894259
 21
-1594.703896
 31
0.0
  0
LINE
  5
1328
100
AcDbEntity
  8
0
 62
     0
100
AcDbLine
 10
-1299.909072
 20
-1595.449301
 30
0.0
 11
-1299.086471
 21
-1594.6267
 31
0.0
  0
LINE
  5
1329
100
AcDbEntity
  8
0
 62
     0
100
AcDbLine
 10
-1299.959604
 20
-1595.230425
 30
0.0
 11
-1299.266095
 21
-1594.536917
 31
0.0
  0
LINE
  5
132A
100
AcDbEntity
  8
0
 62
     0
100
AcDbLine
 10
-1300.010135
 20
-1595.011549
 30
0.0
 11
-1299.434113
 21
-1594.435527
 31
0.0
  0
LINE
  5
132B
100
AcDbEntity
  8
0
 62
     0
100
AcDbLine
 10
-1300.060667
 20
-1594.792673
 30
0.0
 11
-1299.591186
 21
-1594.323192
 31
0.0
  0
LINE
  5
132C
100
AcDbEntity
  8
0
 62
     0
100
AcDbLine
 10
-1300.111199
 20
-1594.573797
 30
0.0
 11
-1299.73773
 21
-1594.200329
 31
0.0
  0
LINE
  5
132D
100
AcDbEntity
  8
0
 62
     0
100
AcDbLine
 10
-1300.16173
 20
-1594.354921
 30
0.0
 11
-1299.873957
 21
-1594.067148
 31
0.0
  0
LINE
  5
132E
100
AcDbEntity
  8
0
 62
     0
100
AcDbLine
 10
-1300.212262
 20
-1594.136044
 30
0.0
 11
-1299.999893
 21
-1593.923676
 31
0.0
  0
LINE
  5
132F
100
AcDbEntity
  8
0
 62
     0
100
AcDbLine
 10
-1300.262793
 20
-1593.917168
 30
0.0
 11
-1300.115383
 21
-1593.769759
 31
0.0
  0
LINE
  5
1330
100
AcDbEntity
  8
0
 62
     0
100
AcDbLine
 10
-1300.313325
 20
-1593.698292
 30
0.0
 11
-1300.220075
 21
-1593.605042
 31
0.0
  0
LINE
  5
1331
100
AcDbEntity
  8
0
 62
     0
100
AcDbLine
 10
-1300.363856
 20
-1593.479416
 30
0.0
 11
-1300.313385
 21
-1593.428945
 31
0.0
  0
LINE
  5
1332
100
AcDbEntity
  8
0
 62
     0
100
AcDbLine
 10
-1300.414388
 20
-1593.26054
 30
0.0
 11
-1300.394439
 21
-1593.240591
 31
0.0
  0
LINE
  5
1333
100
AcDbEntity
  8
0
 62
     0
100
AcDbLine
 10
-1300.464919
 20
-1593.041664
 30
0.0
 11
-1300.461961
 21
-1593.038706
 31
0.0
  0
LINE
  5
1334
100
AcDbEntity
  8
0
 62
     0
100
AcDbLine
 10
-1299.403757
 20
-1597.638063
 30
0.0
 11
-1298.059443
 21
-1596.293749
 31
0.0
  0
LINE
  5
1335
100
AcDbEntity
  8
0
 62
     0
100
AcDbLine
 10
-1298.059443
 20
-1596.293749
 30
0.0
 11
-1295.908091
 21
-1594.142396
 31
0.0
  0
LINE
  5
1336
100
AcDbEntity
  8
0
 62
     0
100
AcDbLine
 10
-1299.353225
 20
-1597.856939
 30
0.0
 11
-1298.059443
 21
-1596.563156
 31
0.0
  0
LINE
  5
1337
100
AcDbEntity
  8
0
 62
     0
100
AcDbLine
 10
-1298.059443
 20
-1596.563156
 30
0.0
 11
-1295.988958
 21
-1594.492671
 31
0.0
  0
LINE
  5
1338
100
AcDbEntity
  8
0
 62
     0
100
AcDbLine
 10
-1299.302694
 20
-1598.075815
 30
0.0
 11
-1298.059443
 21
-1596.832564
 31
0.0
  0
LINE
  5
1339
100
AcDbEntity
  8
0
 62
     0
100
AcDbLine
 10
-1298.059443
 20
-1596.832564
 30
0.0
 11
-1296.069825
 21
-1594.842946
 31
0.0
  0
LINE
  5
133A
100
AcDbEntity
  8
0
 62
     0
100
AcDbLine
 10
-1299.252162
 20
-1598.294691
 30
0.0
 11
-1298.059443
 21
-1597.101972
 31
0.0
  0
LINE
  5
133B
100
AcDbEntity
  8
0
 62
     0
100
AcDbLine
 10
-1298.059443
 20
-1597.101972
 30
0.0
 11
-1296.150693
 21
-1595.193221
 31
0.0
  0
LINE
  5
133C
100
AcDbEntity
  8
0
 62
     0
100
AcDbLine
 10
-1299.201631
 20
-1598.513567
 30
0.0
 11
-1298.059443
 21
-1597.371379
 31
0.0
  0
LINE
  5
133D
100
AcDbEntity
  8
0
 62
     0
100
AcDbLine
 10
-1298.059443
 20
-1597.371379
 30
0.0
 11
-1296.23156
 21
-1595.543496
 31
0.0
  0
LINE
  5
133E
100
AcDbEntity
  8
0
 62
     0
100
AcDbLine
 10
-1299.151099
 20
-1598.732444
 30
0.0
 11
-1298.059443
 21
-1597.640787
 31
0.0
  0
LINE
  5
133F
100
AcDbEntity
  8
0
 62
     0
100
AcDbLine
 10
-1298.059443
 20
-1597.640787
 30
0.0
 11
-1296.312427
 21
-1595.893772
 31
0.0
  0
LINE
  5
1340
100
AcDbEntity
  8
0
 62
     0
100
AcDbLine
 10
-1299.100568
 20
-1598.95132
 30
0.0
 11
-1298.059443
 21
-1597.910195
 31
0.0
  0
LINE
  5
1341
100
AcDbEntity
  8
0
 62
     0
100
AcDbLine
 10
-1298.059443
 20
-1597.910195
 30
0.0
 11
-1296.393295
 21
-1596.244047
 31
0.0
  0
LINE
  5
1342
100
AcDbEntity
  8
0
 62
     0
100
AcDbLine
 10
-1299.050036
 20
-1599.170196
 30
0.0
 11
-1298.059443
 21
-1598.179602
 31
0.0
  0
LINE
  5
1343
100
AcDbEntity
  8
0
 62
     0
100
AcDbLine
 10
-1298.059443
 20
-1598.179602
 30
0.0
 11
-1296.474162
 21
-1596.594322
 31
0.0
  0
LINE
  5
1344
100
AcDbEntity
  8
0
 62
     0
100
AcDbLine
 10
-1298.814596
 20
-1599.204163
 30
0.0
 11
-1298.059443
 21
-1598.44901
 31
0.0
  0
LINE
  5
1345
100
AcDbEntity
  8
0
 62
     0
100
AcDbLine
 10
-1298.059443
 20
-1598.44901
 30
0.0
 11
-1296.555029
 21
-1596.944597
 31
0.0
  0
LINE
  5
1346
100
AcDbEntity
  8
0
 62
     0
100
AcDbLine
 10
-1298.545188
 20
-1599.204163
 30
0.0
 11
-1298.059443
 21
-1598.718418
 31
0.0
  0
LINE
  5
1347
100
AcDbEntity
  8
0
 62
     0
100
AcDbLine
 10
-1298.059443
 20
-1598.718418
 30
0.0
 11
-1296.635897
 21
-1597.294872
 31
0.0
  0
LINE
  5
1348
100
AcDbEntity
  8
0
 62
     0
100
AcDbLine
 10
-1298.27578
 20
-1599.204163
 30
0.0
 11
-1298.059443
 21
-1598.987825
 31
0.0
  0
LINE
  5
1349
100
AcDbEntity
  8
0
 62
     0
100
AcDbLine
 10
-1298.059443
 20
-1598.987825
 30
0.0
 11
-1296.716764
 21
-1597.645147
 31
0.0
  0
LINE
  5
134A
100
AcDbEntity
  8
0
 62
     0
100
AcDbLine
 10
-1298.006372
 20
-1599.204163
 30
0.0
 11
-1296.797632
 21
-1597.995422
 31
0.0
  0
LINE
  5
134B
100
AcDbEntity
  8
0
 62
     0
100
AcDbLine
 10
-1297.736965
 20
-1599.204163
 30
0.0
 11
-1296.878499
 21
-1598.345697
 31
0.0
  0
LINE
  5
134C
100
AcDbEntity
  8
0
 62
     0
100
AcDbLine
 10
-1297.467557
 20
-1599.204163
 30
0.0
 11
-1296.959366
 21
-1598.695972
 31
0.0
  0
LINE
  5
134D
100
AcDbEntity
  8
0
 62
     0
100
AcDbLine
 10
-1297.198149
 20
-1599.204163
 30
0.0
 11
-1297.040234
 21
-1599.046247
 31
0.0
  0
ENDBLK
  5
134E
100
AcDbEntity
  8
0
100
AcDbBlockEnd
  0
BLOCK
  5
1351
100
AcDbEntity
  8
0
100
AcDbBlockBegin
  2
*D66
 70
    65
 10
0.0
 20
0.0
 30
0.0
  3
*D66
  1

  0
LINE
  5
1352
100
AcDbEntity
  8
0
  6
BYBLOCK
 62
     0
100
AcDbLine
 10
-1307.934443
 20
-1439.704163
 30
0.0
 11
-1330.64342
 21
-1439.704163
 31
0.0
  0
LINE
  5
1353
100
AcDbEntity
  8
0
  6
BYBLOCK
 62
     0
100
AcDbLine
 10
-1313.684443
 20
-1441.704163
 30
0.0
 11
-1330.64342
 21
-1441.704163
 31
0.0
  0
LINE
  5
1354
100
AcDbEntity
  8
0
  6
BYBLOCK
 62
     0
100
AcDbLine
 10
-1329.39342
 20
-1437.204163
 30
0.0
 11
-1329.39342
 21
-1434.704163
 31
0.0
  0
LINE
  5
1355
100
AcDbEntity
  8
0
  6
BYBLOCK
 62
     0
100
AcDbLine
 10
-1329.39342
 20
-1444.204163
 30
0.0
 11
-1329.39342
 21
-1449.556157
 31
0.0
  0
SOLID
  5
1356
100
AcDbEntity
  8
0
  6
BYBLOCK
 62
     0
100
AcDbTrace
 10
-1329.810086
 20
-1437.204163
 30
0.0
 11
-1328.976753
 21
-1437.204163
 31
0.0
 12
-1329.39342
 22
-1439.704163
 32
0.0
 13
-1329.39342
 23
-1439.704163
 33
0.0
  0
SOLID
  5
1357
100
AcDbEntity
  8
0
  6
BYBLOCK
 62
     0
100
AcDbTrace
 10
-1329.810086
 20
-1444.204163
 30
0.0
 11
-1328.976753
 21
-1444.204163
 31
0.0
 12
-1329.39342
 22
-1441.704163
 32
0.0
 13
-1329.39342
 23
-1441.704163
 33
0.0
  0
MTEXT
  5
1358
100
AcDbEntity
  8
0
  6
BYBLOCK
 62
     0
100
AcDbMText
 10
-1331.518715
 20
-1448.13016
 30
0.0
 40
3.0
 41
0.0
 71
     5
 72
     1
  1
\A1;2
 11
0.0
 21
1.0
 31
0.0
  0
POINT
  5
1359
100
AcDbEntity
  8
DEFPOINTS
  6
BYBLOCK
 62
     0
100
AcDbPoint
 10
-1307.309443
 20
-1439.704163
 30
0.0
  0
POINT
  5
135A
100
AcDbEntity
  8
DEFPOINTS
  6
BYBLOCK
 62
     0
100
AcDbPoint
 10
-1313.059443
 20
-1441.704163
 30
0.0
  0
POINT
  5
135B
100
AcDbEntity
  8
DEFPOINTS
  6
BYBLOCK
 62
     0
100
AcDbPoint
 10
-1329.39342
 20
-1441.704163
 30
0.0
  0
ENDBLK
  5
135C
100
AcDbEntity
  8
0
100
AcDbBlockEnd
  0
BLOCK
  5
136C
100
AcDbEntity
  8
0
100
AcDbBlockBegin
  2
*D67
 70
    65
 10
0.0
 20
0.0
 30
0.0
  3
*D67
  1

  0
LINE
  5
136D
100
AcDbEntity
  8
0
  6
BYBLOCK
 62
     0
100
AcDbLine
 10
-1307.309443
 20
-1439.079163
 30
0.0
 11
-1307.309443
 21
-1435.304734
 31
0.0
  0
LINE
  5
136E
100
AcDbEntity
  8
0
  6
BYBLOCK
 62
     0
100
AcDbLine
 10
-1306.459443
 20
-1439.079163
 30
0.0
 11
-1306.459443
 21
-1435.304734
 31
0.0
  0
LINE
  5
136F
100
AcDbEntity
  8
0
  6
BYBLOCK
 62
     0
100
AcDbLine
 10
-1309.809443
 20
-1436.554734
 30
0.0
 11
-1312.309443
 21
-1436.554734
 31
0.0
  0
LINE
  5
1370
100
AcDbEntity
  8
0
  6
BYBLOCK
 62
     0
100
AcDbLine
 10
-1303.959443
 20
-1436.554734
 30
0.0
 11
-1293.142752
 21
-1436.554734
 31
0.0
  0
SOLID
  5
1371
100
AcDbEntity
  8
0
  6
BYBLOCK
 62
     0
100
AcDbTrace
 10
-1309.809443
 20
-1436.138067
 30
0.0
 11
-1309.809443
 21
-1436.971401
 31
0.0
 12
-1307.309443
 22
-1436.554734
 32
0.0
 13
-1307.309443
 23
-1436.554734
 33
0.0
  0
SOLID
  5
1372
100
AcDbEntity
  8
0
  6
BYBLOCK
 62
     0
100
AcDbTrace
 10
-1303.959443
 20
-1436.138067
 30
0.0
 11
-1303.959443
 21
-1436.971401
 31
0.0
 12
-1306.459443
 22
-1436.554734
 32
0.0
 13
-1306.459443
 23
-1436.554734
 33
0.0
  0
MTEXT
  5
1373
100
AcDbEntity
  8
0
  6
BYBLOCK
 62
     0
100
AcDbMText
 10
-1297.301098
 20
-1434.429734
 30
0.0
 40
3.0
 41
0.0
 71
     5
 72
     1
  1
\A1;0.85
  0
POINT
  5
1374
100
AcDbEntity
  8
DEFPOINTS
  6
BYBLOCK
 62
     0
100
AcDbPoint
 10
-1307.309443
 20
-1439.704163
 30
0.0
  0
POINT
  5
1375
100
AcDbEntity
  8
DEFPOINTS
  6
BYBLOCK
 62
     0
100
AcDbPoint
 10
-1306.459443
 20
-1439.704163
 30
0.0
  0
POINT
  5
1376
100
AcDbEntity
  8
DEFPOINTS
  6
BYBLOCK
 62
     0
100
AcDbPoint
 10
-1306.459443
 20
-1436.554734
 30
0.0
  0
ENDBLK
  5
1377
100
AcDbEntity
  8
0
100
AcDbBlockEnd
  0
BLOCK
  5
1379
100
AcDbEntity
  8
0
100
AcDbBlockBegin
  2
*D68
 70
    65
 10
0.0
 20
0.0
 30
0.0
  3
*D68
  1

  0
LINE
  5
137A
100
AcDbEntity
  8
0
  6
BYBLOCK
 62
     0
100
AcDbLine
 10
-1314.309443
 20
-1529.476303
 30
0.0
 11
-1314.309443
 21
-1557.409526
 31
0.0
  0
ARC
  5
137B
100
AcDbEntity
  8
0
  6
BYBLOCK
 62
     0
100
AcDbCircle
 10
-1314.309443
 20
-1528.851303
 30
0.0
 40
27.308223
100
AcDbArc
 50
259.50576
 51
264.75288
  0
ARC
  5
137C
100
AcDbEntity
  8
0
  6
BYBLOCK
 62
     0
100
AcDbCircle
 10
-1314.309443
 20
-1528.851303
 30
0.0
 40
27.308223
100
AcDbArc
 50
288.24712
 51
293.49424
  0
SOLID
  5
137D
100
AcDbEntity
  8
0
  6
BYBLOCK
 62
     0
100
AcDbTrace
 10
-1316.78775
 20
-1555.628861
 30
0.0
 11
-1316.825895
 21
-1556.461321
 31
0.0
 12
-1314.309443
 22
-1556.159526
 32
0.0
 13
-1314.309443
 23
-1556.159526
 33
0.0
  0
SOLID
  5
137E
100
AcDbEntity
  8
0
  6
BYBLOCK
 62
     0
100
AcDbTrace
 10
-1305.646585
 20
-1555.1876
 30
0.0
 11
-1305.871015
 21
-1554.385057
 31
0.0
 12
-1308.166429
 22
-1555.459618
 32
0.0
 13
-1308.166429
 23
-1555.459618
 33
0.0
  0
MTEXT
  5
137F
100
AcDbEntity
  8
0
  6
BYBLOCK
 62
     0
100
AcDbMText
 10
-1320.57157
 20
-1553.243525
 30
0.0
 40
3.0
 41
0.0
 71
     5
 72
     1
  1
\A1;13°
 11
0.96859
 21
-0.248663
 31
0.0
  0
POINT
  5
1380
100
AcDbEntity
  8
DEFPOINTS
  6
BYBLOCK
 62
     0
100
AcDbPoint
 10
-1310.194484
 20
-1555.847713
 30
0.0
  0
POINT
  5
1381
100
AcDbEntity
  8
DEFPOINTS
  6
BYBLOCK
 62
     0
100
AcDbPoint
 10
-1314.309443
 20
-1442.954163
 30
0.0
  0
POINT
  5
1382
100
AcDbEntity
  8
DEFPOINTS
  6
BYBLOCK
 62
     0
100
AcDbPoint
 10
-1302.248519
 20
-1581.092903
 30
0.0
  0
POINT
  5
1383
100
AcDbEntity
  8
DEFPOINTS
  6
BYBLOCK
 62
     0
100
AcDbPoint
 10
-1314.309443
 20
-1528.851303
 30
0.0
  0
POINT
  5
1384
100
AcDbEntity
  8
DEFPOINTS
  6
BYBLOCK
 62
     0
100
AcDbPoint
 10
-1314.309443
 20
-1528.851303
 30
0.0
  0
ENDBLK
  5
1385
100
AcDbEntity
  8
0
100
AcDbBlockEnd
  0
BLOCK
  5
13C5
100
AcDbEntity
  8
0
100
AcDbBlockBegin
  2
*D69
 70
    65
 10
0.0
 20
0.0
 30
0.0
  3
*D69
  1

  0
LINE
  5
13C6
100
AcDbEntity
  8
0
  6
BYBLOCK
 62
     0
100
AcDbLine
 10
-1288.809443
 20
-1463.89615
 30
0.0
 11
-1288.809443
 21
-1506.794227
 31
0.0
  0
LINE
  5
13C7
100
AcDbEntity
  8
0
  6
BYBLOCK
 62
     0
100
AcDbLine
 10
-1298.059443
 20
-1503.582124
 30
0.0
 11
-1298.059443
 21
-1506.794227
 31
0.0
  0
LINE
  5
13C8
100
AcDbEntity
  8
0
  6
BYBLOCK
 62
     0
100
AcDbLine
 10
-1295.559443
 20
-1505.544227
 30
0.0
 11
-1291.309443
 21
-1505.544227
 31
0.0
  0
LINE
  5
13C9
100
AcDbEntity
  8
0
  6
BYBLOCK
 62
     0
100
AcDbLine
 10
-1288.809443
 20
-1505.544227
 30
0.0
 11
-1271.841382
 21
-1505.544227
 31
0.0
  0
SOLID
  5
13CA
100
AcDbEntity
  8
0
  6
BYBLOCK
 62
     0
100
AcDbTrace
 10
-1295.559443
 20
-1505.127561
 30
0.0
 11
-1295.559443
 21
-1505.960894
 31
0.0
 12
-1298.059443
 22
-1505.544227
 32
0.0
 13
-1298.059443
 23
-1505.544227
 33
0.0
  0
SOLID
  5
13CB
100
AcDbEntity
  8
0
  6
BYBLOCK
 62
     0
100
AcDbTrace
 10
-1291.309443
 20
-1505.127561
 30
0.0
 11
-1291.309443
 21
-1505.960894
 31
0.0
 12
-1288.809443
 22
-1505.544227
 32
0.0
 13
-1288.809443
 23
-1505.544227
 33
0.0
  0
MTEXT
  5
13CC
100
AcDbEntity
  8
0
  6
BYBLOCK
 62
     0
100
AcDbMText
 10
-1279.567148
 20
-1503.419227
 30
0.0
 40
3.0
 41
0.0
 71
     5
 72
     1
  1
\A1;9.25±0.1
  0
POINT
  5
13CD
100
AcDbEntity
  8
DEFPOINTS
  6
BYBLOCK
 62
     0
100
AcDbPoint
 10
-1288.809443
 20
-1463.27115
 30
0.0
  0
POINT
  5
13CE
100
AcDbEntity
  8
DEFPOINTS
  6
BYBLOCK
 62
     0
100
AcDbPoint
 10
-1298.059443
 20
-1502.957124
 30
0.0
  0
POINT
  5
13CF
100
AcDbEntity
  8
DEFPOINTS
  6
BYBLOCK
 62
     0
100
AcDbPoint
 10
-1298.059443
 20
-1505.544227
 30
0.0
  0
ENDBLK
  5
13D0
100
AcDbEntity
  8
0
100
AcDbBlockEnd
  0
BLOCK
  5
1431
100
AcDbEntity
  8
0
100
AcDbBlockBegin
  2
*D70
 70
    65
 10
0.0
 20
0.0
 30
0.0
  3
*D70
  1

  0
LINE
  5
1432
100
AcDbEntity
  8
0
  6
BYBLOCK
 62
     0
100
AcDbLine
 10
-1291.859443
 20
-1419.662582
 30
0.0
 11
-1291.859443
 21
-1397.246755
 31
0.0
  0
LINE
  5
1433
100
AcDbEntity
  8
0
  6
BYBLOCK
 62
     0
100
AcDbLine
 10
-1288.809443
 20
-1404.329163
 30
0.0
 11
-1288.809443
 21
-1397.246755
 31
0.0
  0
LINE
  5
1434
100
AcDbEntity
  8
0
  6
BYBLOCK
 62
     0
100
AcDbLine
 10
-1294.359443
 20
-1398.496755
 30
0.0
 11
-1296.859443
 21
-1398.496755
 31
0.0
  0
LINE
  5
1435
100
AcDbEntity
  8
0
  6
BYBLOCK
 62
     0
100
AcDbLine
 10
-1286.309443
 20
-1398.496755
 30
0.0
 11
-1267.379443
 21
-1398.496755
 31
0.0
  0
SOLID
  5
1436
100
AcDbEntity
  8
0
  6
BYBLOCK
 62
     0
100
AcDbTrace
 10
-1294.359443
 20
-1398.080088
 30
0.0
 11
-1294.359443
 21
-1398.913421
 31
0.0
 12
-1291.859443
 22
-1398.496755
 32
0.0
 13
-1291.859443
 23
-1398.496755
 33
0.0
  0
SOLID
  5
1437
100
AcDbEntity
  8
0
  6
BYBLOCK
 62
     0
100
AcDbTrace
 10
-1286.309443
 20
-1398.080088
 30
0.0
 11
-1286.309443
 21
-1398.913421
 31
0.0
 12
-1288.809443
 22
-1398.496755
 32
0.0
 13
-1288.809443
 23
-1398.496755
 33
0.0
  0
MTEXT
  5
1438
100
AcDbEntity
  8
0
  6
BYBLOCK
 62
     0
100
AcDbMText
 10
-1275.594443
 20
-1394.520573
 30
0.0
 40
3.0
 41
0.0
 71
     5
 72
     1
  1
\A1;3.05\S+0.1^  0;
  0
POINT
  5
1439
100
AcDbEntity
  8
DEFPOINTS
  6
BYBLOCK
 62
     0
100
AcDbPoint
 10
-1291.859443
 20
-1420.287582
 30
0.0
  0
POINT
  5
143A
100
AcDbEntity
  8
DEFPOINTS
  6
BYBLOCK
 62
     0
100
AcDbPoint
 10
-1288.809443
 20
-1404.954163
 30
0.0
  0
POINT
  5
143B
100
AcDbEntity
  8
DEFPOINTS
  6
BYBLOCK
 62
     0
100
AcDbPoint
 10
-1288.809443
 20
-1398.496755
 30
0.0
  0
ENDBLK
  5
143C
100
AcDbEntity
  8
0
100
AcDbBlockEnd
  0
BLOCK
  5
14A9
100
AcDbEntity
  8
0
100
AcDbBlockBegin
  2
*D71
 70
    65
 10
0.0
 20
0.0
 30
0.0
  3
*D71
  1

  0
LINE
  5
14AA
100
AcDbEntity
  8
0
  6
BYBLOCK
 62
     0
100
AcDbLine
 10
-1297.076691
 20
-1599.829163
 30
0.0
 11
-1297.076691
 21
-1608.495519
 31
0.0
  0
LINE
  5
14AB
100
AcDbEntity
  8
0
  6
BYBLOCK
 62
     0
100
AcDbLine
 10
-1299.042194
 20
-1599.829163
 30
0.0
 11
-1299.042194
 21
-1608.495519
 31
0.0
  0
LINE
  5
14AC
100
AcDbEntity
  8
0
  6
BYBLOCK
 62
     0
100
AcDbLine
 10
-1294.576691
 20
-1607.245519
 30
0.0
 11
-1292.076691
 21
-1607.245519
 31
0.0
  0
LINE
  5
14AD
100
AcDbEntity
  8
0
  6
BYBLOCK
 62
     0
100
AcDbLine
 10
-1301.542194
 20
-1607.245519
 30
0.0
 11
-1319.823726
 21
-1607.245519
 31
0.0
  0
SOLID
  5
14AE
100
AcDbEntity
  8
0
  6
BYBLOCK
 62
     0
100
AcDbTrace
 10
-1294.576691
 20
-1606.828852
 30
0.0
 11
-1294.576691
 21
-1607.662186
 31
0.0
 12
-1297.076691
 22
-1607.245519
 32
0.0
 13
-1297.076691
 23
-1607.245519
 33
0.0
  0
SOLID
  5
14AF
100
AcDbEntity
  8
0
  6
BYBLOCK
 62
     0
100
AcDbTrace
 10
-1301.542194
 20
-1606.828852
 30
0.0
 11
-1301.542194
 21
-1607.662186
 31
0.0
 12
-1299.042194
 22
-1607.245519
 32
0.0
 13
-1299.042194
 23
-1607.245519
 33
0.0
  0
MTEXT
  5
14B0
100
AcDbEntity
  8
0
  6
BYBLOCK
 62
     0
100
AcDbMText
 10
-1311.93296
 20
-1603.269338
 30
0.0
 40
3.0
 41
0.0
 71
     5
 72
     1
  1
\A1;1.97\S+0.1^  0;
  0
POINT
  5
14B1
100
AcDbEntity
  8
DEFPOINTS
  6
BYBLOCK
 62
     0
100
AcDbPoint
 10
-1297.076691
 20
-1599.204163
 30
0.0
  0
POINT
  5
14B2
100
AcDbEntity
  8
DEFPOINTS
  6
BYBLOCK
 62
     0
100
AcDbPoint
 10
-1299.042194
 20
-1599.204163
 30
0.0
  0
POINT
  5
14B3
100
AcDbEntity
  8
DEFPOINTS
  6
BYBLOCK
 62
     0
100
AcDbPoint
 10
-1299.042194
 20
-1607.245519
 30
0.0
  0
ENDBLK
  5
14B4
100
AcDbEntity
  8
0
100
AcDbBlockEnd
  0
BLOCK
  5
14E5
100
AcDbEntity
  8
QUOTE
100
AcDbBlockBegin
  2
A$C2374
 70
     0
 10
0.0
 20
0.0
 30
0.0
  3
A$C2374
  1

  0
LINE
  5
14DD
100
AcDbEntity
  8
DISEGNO
100
AcDbLine
 10
17.722439
 20
17.075291
 30
0.0
 11
18.222439
 21
17.575291
 31
0.0
  0
LINE
  5
14DE
100
AcDbEntity
  8
DISEGNO
100
AcDbLine
 10
17.222439
 20
24.075291
 30
0.0
 11
18.222439
 21
23.075291
 31
0.0
  0
LINE
  5
14DF
100
AcDbEntity
  8
DISEGNO
100
AcDbLine
 10
1.222439
 20
24.075291
 30
0.0
 11
0.222439
 21
23.075291
 31
0.0
  0
LINE
  5
14E0
100
AcDbEntity
  8
DISEGNO
100
AcDbLine
 10
0.222439
 20
23.075291
 30
0.0
 11
0.222439
 21
0.075291
 31
0.0
  0
LINE
  5
14E1
100
AcDbEntity
  8
DISEGNO
100
AcDbLine
 10
17.222439
 20
24.075291
 30
0.0
 11
1.222439
 21
24.075291
 31
0.0
  0
LINE
  5
14E2
100
AcDbEntity
  8
DISEGNO
100
AcDbLine
 10
18.222439
 20
17.575291
 30
0.0
 11
18.222439
 21
23.075291
 31
0.0
  0
LINE
  5
14E3
100
AcDbEntity
  8
DISEGNO
100
AcDbLine
 10
14.222439
 20
17.075291
 30
0.0
 11
17.722439
 21
17.075291
 31
0.0
  0
LINE
  5
14E4
100
AcDbEntity
  8
DISEGNO
100
AcDbLine
 10
14.222439
 20
0.075291
 30
0.0
 11
14.222439
 21
17.075291
 31
0.0
  0
ENDBLK
  5
14E6
100
AcDbEntity
  8
QUOTE
100
AcDbBlockEnd
  0
BLOCK
  5
14F6
100
AcDbEntity
  8
0
100
AcDbBlockBegin
  2
*D73
 70
    65
 10
0.0
 20
0.0
 30
0.0
  3
*D73
  1

  0
LINE
  5
14F7
100
AcDbEntity
  8
0
  6
BYBLOCK
 62
     0
100
AcDbLine
 10
-2049.584343
 20
-1403.704163
 30
0.0
 11
-2069.059377
 21
-1403.704163
 31
0.0
  0
LINE
  5
14F8
100
AcDbEntity
  8
0
  6
BYBLOCK
 62
     0
100
AcDbLine
 10
-2054.584343
 20
-1441.704163
 30
0.0
 11
-2069.059377
 21
-1441.704163
 31
0.0
  0
LINE
  5
14F9
100
AcDbEntity
  8
0
  6
BYBLOCK
 62
     0
100
AcDbLine
 10
-2067.809377
 20
-1406.204163
 30
0.0
 11
-2067.809377
 21
-1439.204163
 31
0.0
  0
SOLID
  5
14FA
100
AcDbEntity
  8
0
  6
BYBLOCK
 62
     0
100
AcDbTrace
 10
-2068.226043
 20
-1406.204163
 30
0.0
 11
-2067.39271
 21
-1406.204163
 31
0.0
 12
-2067.809377
 22
-1403.704163
 32
0.0
 13
-2067.809377
 23
-1403.704163
 33
0.0
  0
SOLID
  5
14FB
100
AcDbEntity
  8
0
  6
BYBLOCK
 62
     0
100
AcDbTrace
 10
-2068.226043
 20
-1439.204163
 30
0.0
 11
-2067.39271
 21
-1439.204163
 31
0.0
 12
-2067.809377
 22
-1441.704163
 32
0.0
 13
-2067.809377
 23
-1441.704163
 33
0.0
  0
MTEXT
  5
14FC
100
AcDbEntity
  8
0
  6
BYBLOCK
 62
     0
100
AcDbMText
 10
-2069.934377
 20
-1422.704163
 30
0.0
 40
3.0
 41
0.0
 71
     5
 72
     1
  1
\A1;38
 11
0.0
 21
1.0
 31
0.0
  0
POINT
  5
14FD
100
AcDbEntity
  8
DEFPOINTS
  6
BYBLOCK
 62
     0
100
AcDbPoint
 10
-2048.959343
 20
-1403.704163
 30
0.0
  0
POINT
  5
14FE
100
AcDbEntity
  8
DEFPOINTS
  6
BYBLOCK
 62
     0
100
AcDbPoint
 10
-2053.959343
 20
-1441.704163
 30
0.0
  0
POINT
  5
14FF
100
AcDbEntity
  8
DEFPOINTS
  6
BYBLOCK
 62
     0
100
AcDbPoint
 10
-2067.809377
 20
-1441.704163
 30
0.0
  0
ENDBLK
  5
1500
100
AcDbEntity
  8
0
100
AcDbBlockEnd
  0
BLOCK
  5
1503
100
AcDbEntity
  8
0
100
AcDbBlockBegin
  2
*D74
 70
    65
 10
0.0
 20
0.0
 30
0.0
  3
*D74
  1

  0
LINE
  5
1504
100
AcDbEntity
  8
0
  6
BYBLOCK
 62
     0
100
AcDbLine
 10
-2049.584343
 20
-1403.704163
 30
0.0
 11
-2063.102619
 21
-1403.704163
 31
0.0
  0
LINE
  5
1505
100
AcDbEntity
  8
0
  6
BYBLOCK
 62
     0
100
AcDbLine
 10
-2050.084343
 20
-1410.704163
 30
0.0
 11
-2063.102619
 21
-1410.704163
 31
0.0
  0
LINE
  5
1506
100
AcDbEntity
  8
0
  6
BYBLOCK
 62
     0
100
AcDbLine
 10
-2061.852619
 20
-1401.204163
 30
0.0
 11
-2061.852619
 21
-1398.704163
 31
0.0
  0
LINE
  5
1507
100
AcDbEntity
  8
0
  6
BYBLOCK
 62
     0
100
AcDbLine
 10
-2061.852619
 20
-1413.204163
 30
0.0
 11
-2061.852619
 21
-1415.704163
 31
0.0
  0
SOLID
  5
1508
100
AcDbEntity
  8
0
  6
BYBLOCK
 62
     0
100
AcDbTrace
 10
-2062.269286
 20
-1401.204163
 30
0.0
 11
-2061.435952
 21
-1401.204163
 31
0.0
 12
-2061.852619
 22
-1403.704163
 32
0.0
 13
-2061.852619
 23
-1403.704163
 33
0.0
  0
SOLID
  5
1509
100
AcDbEntity
  8
0
  6
BYBLOCK
 62
     0
100
AcDbTrace
 10
-2062.269286
 20
-1413.204163
 30
0.0
 11
-2061.435952
 21
-1413.204163
 31
0.0
 12
-2061.852619
 22
-1410.704163
 32
0.0
 13
-2061.852619
 23
-1410.704163
 33
0.0
  0
MTEXT
  5
150A
100
AcDbEntity
  8
0
  6
BYBLOCK
 62
     0
100
AcDbMText
 10
-2063.977619
 20
-1407.204163
 30
0.0
 40
3.0
 41
0.0
 71
     5
 72
     1
  1
\A1;7
 11
0.0
 21
1.0
 31
0.0
  0
POINT
  5
150B
100
AcDbEntity
  8
DEFPOINTS
  6
BYBLOCK
 62
     0
100
AcDbPoint
 10
-2048.959343
 20
-1403.704163
 30
0.0
  0
POINT
  5
150C
100
AcDbEntity
  8
DEFPOINTS
  6
BYBLOCK
 62
     0
100
AcDbPoint
 10
-2049.459343
 20
-1410.704163
 30
0.0
  0
POINT
  5
150D
100
AcDbEntity
  8
DEFPOINTS
  6
BYBLOCK
 62
     0
100
AcDbPoint
 10
-2061.852619
 20
-1410.704163
 30
0.0
  0
ENDBLK
  5
150E
100
AcDbEntity
  8
0
100
AcDbBlockEnd
  0
BLOCK
  5
1511
100
AcDbEntity
  8
0
100
AcDbBlockBegin
  2
*D75
 70
    65
 10
0.0
 20
0.0
 30
0.0
  3
*D75
  1

  0
LINE
  5
1512
100
AcDbEntity
  8
0
  6
BYBLOCK
 62
     0
100
AcDbLine
 10
-2031.959343
 20
-1404.079163
 30
0.0
 11
-2031.959343
 21
-1394.904601
 31
0.0
  0
LINE
  5
1513
100
AcDbEntity
  8
0
  6
BYBLOCK
 62
     0
100
AcDbLine
 10
-2049.959343
 20
-1404.079163
 30
0.0
 11
-2049.959343
 21
-1394.904601
 31
0.0
  0
LINE
  5
1514
100
AcDbEntity
  8
0
  6
BYBLOCK
 62
     0
100
AcDbLine
 10
-2034.459343
 20
-1396.154601
 30
0.0
 11
-2047.459343
 21
-1396.154601
 31
0.0
  0
SOLID
  5
1515
100
AcDbEntity
  8
0
  6
BYBLOCK
 62
     0
100
AcDbTrace
 10
-2034.459343
 20
-1395.737935
 30
0.0
 11
-2034.459343
 21
-1396.571268
 31
0.0
 12
-2031.959343
 22
-1396.154601
 32
0.0
 13
-2031.959343
 23
-1396.154601
 33
0.0
  0
SOLID
  5
1516
100
AcDbEntity
  8
0
  6
BYBLOCK
 62
     0
100
AcDbTrace
 10
-2047.459343
 20
-1395.737935
 30
0.0
 11
-2047.459343
 21
-1396.571268
 31
0.0
 12
-2049.959343
 22
-1396.154601
 32
0.0
 13
-2049.959343
 23
-1396.154601
 33
0.0
  0
MTEXT
  5
1517
100
AcDbEntity
  8
0
  6
BYBLOCK
 62
     0
100
AcDbMText
 10
-2040.959343
 20
-1394.029601
 30
0.0
 40
3.0
 41
0.0
 71
     5
 72
     1
  1
\A1;18
  0
POINT
  5
1518
100
AcDbEntity
  8
DEFPOINTS
  6
BYBLOCK
 62
     0
100
AcDbPoint
 10
-2031.959343
 20
-1404.704163
 30
0.0
  0
POINT
  5
1519
100
AcDbEntity
  8
DEFPOINTS
  6
BYBLOCK
 62
     0
100
AcDbPoint
 10
-2049.959343
 20
-1404.704163
 30
0.0
  0
POINT
  5
151A
100
AcDbEntity
  8
DEFPOINTS
  6
BYBLOCK
 62
     0
100
AcDbPoint
 10
-2049.959343
 20
-1396.154601
 30
0.0
  0
ENDBLK
  5
151B
100
AcDbEntity
  8
0
100
AcDbBlockEnd
  0
BLOCK
  5
151E
100
AcDbEntity
  8
0
100
AcDbBlockBegin
  2
*D76
 70
    65
 10
0.0
 20
0.0
 30
0.0
  3
*D76
  1

  0
LINE
  5
151F
100
AcDbEntity
  8
0
  6
BYBLOCK
 62
     0
100
AcDbLine
 10
-2032.334343
 20
-1403.704163
 30
0.0
 11
-2022.241103
 21
-1403.704163
 31
0.0
  0
LINE
  5
1520
100
AcDbEntity
  8
0
  6
BYBLOCK
 62
     0
100
AcDbLine
 10
-2031.334343
 20
-1420.749462
 30
0.0
 11
-2022.241103
 21
-1420.749462
 31
0.0
  0
LINE
  5
1521
100
AcDbEntity
  8
0
  6
BYBLOCK
 62
     0
100
AcDbLine
 10
-2023.491103
 20
-1406.204163
 30
0.0
 11
-2023.491103
 21
-1418.249462
 31
0.0
  0
SOLID
  5
1522
100
AcDbEntity
  8
0
  6
BYBLOCK
 62
     0
100
AcDbTrace
 10
-2023.90777
 20
-1406.204163
 30
0.0
 11
-2023.074436
 21
-1406.204163
 31
0.0
 12
-2023.491103
 22
-1403.704163
 32
0.0
 13
-2023.491103
 23
-1403.704163
 33
0.0
  0
SOLID
  5
1523
100
AcDbEntity
  8
0
  6
BYBLOCK
 62
     0
100
AcDbTrace
 10
-2023.90777
 20
-1418.249462
 30
0.0
 11
-2023.074436
 21
-1418.249462
 31
0.0
 12
-2023.491103
 22
-1420.749462
 32
0.0
 13
-2023.491103
 23
-1420.749462
 33
0.0
  0
MTEXT
  5
1524
100
AcDbEntity
  8
0
  6
BYBLOCK
 62
     0
100
AcDbMText
 10
-2025.616103
 20
-1412.226812
 30
0.0
 40
3.0
 41
0.0
 71
     5
 72
     1
  1
\A1;17.05
 11
0.0
 21
1.0
 31
0.0
  0
POINT
  5
1525
100
AcDbEntity
  8
DEFPOINTS
  6
BYBLOCK
 62
     0
100
AcDbPoint
 10
-2032.959343
 20
-1403.704163
 30
0.0
  0
POINT
  5
1526
100
AcDbEntity
  8
DEFPOINTS
  6
BYBLOCK
 62
     0
100
AcDbPoint
 10
-2031.959343
 20
-1420.749462
 30
0.0
  0
POINT
  5
1527
100
AcDbEntity
  8
DEFPOINTS
  6
BYBLOCK
 62
     0
100
AcDbPoint
 10
-2023.491103
 20
-1420.749462
 30
0.0
  0
ENDBLK
  5
1528
100
AcDbEntity
  8
0
100
AcDbBlockEnd
  0
BLOCK
  5
152B
100
AcDbEntity
  8
0
100
AcDbBlockBegin
  2
*D77
 70
    65
 10
0.0
 20
0.0
 30
0.0
  3
*D77
  1

  0
LINE
  5
152C
100
AcDbEntity
  8
0
  6
BYBLOCK
 62
     0
100
AcDbLine
 10
-2031.334343
 20
-1420.749462
 30
0.0
 11
-2018.905319
 21
-1420.749462
 31
0.0
  0
LINE
  5
152D
100
AcDbEntity
  8
0
  6
BYBLOCK
 62
     0
100
AcDbLine
 10
-2031.334343
 20
-1432.296468
 30
0.0
 11
-2018.905319
 21
-1432.296468
 31
0.0
  0
LINE
  5
152E
100
AcDbEntity
  8
0
  6
BYBLOCK
 62
     0
100
AcDbLine
 10
-2020.155319
 20
-1418.249462
 30
0.0
 11
-2020.155319
 21
-1415.749462
 31
0.0
  0
LINE
  5
152F
100
AcDbEntity
  8
0
  6
BYBLOCK
 62
     0
100
AcDbLine
 10
-2020.155319
 20
-1434.796468
 30
0.0
 11
-2020.155319
 21
-1437.296468
 31
0.0
  0
SOLID
  5
1530
100
AcDbEntity
  8
0
  6
BYBLOCK
 62
     0
100
AcDbTrace
 10
-2020.571986
 20
-1418.249462
 30
0.0
 11
-2019.738653
 21
-1418.249462
 31
0.0
 12
-2020.155319
 22
-1420.749462
 32
0.0
 13
-2020.155319
 23
-1420.749462
 33
0.0
  0
SOLID
  5
1531
100
AcDbEntity
  8
0
  6
BYBLOCK
 62
     0
100
AcDbTrace
 10
-2020.571986
 20
-1434.796468
 30
0.0
 11
-2019.738653
 21
-1434.796468
 31
0.0
 12
-2020.155319
 22
-1432.296468
 32
0.0
 13
-2020.155319
 23
-1432.296468
 33
0.0
  0
MTEXT
  5
1532
100
AcDbEntity
  8
0
  6
BYBLOCK
 62
     0
100
AcDbMText
 10
-2022.280319
 20
-1426.522965
 30
0.0
 40
3.0
 41
0.0
 71
     5
 72
     1
  1
\A1;11.55
 11
0.0
 21
1.0
 31
0.0
  0
POINT
  5
1533
100
AcDbEntity
  8
DEFPOINTS
  6
BYBLOCK
 62
     0
100
AcDbPoint
 10
-2031.959343
 20
-1420.749462
 30
0.0
  0
POINT
  5
1534
100
AcDbEntity
  8
DEFPOINTS
  6
BYBLOCK
 62
     0
100
AcDbPoint
 10
-2031.959343
 20
-1432.296468
 30
0.0
  0
POINT
  5
1535
100
AcDbEntity
  8
DEFPOINTS
  6
BYBLOCK
 62
     0
100
AcDbPoint
 10
-2020.155319
 20
-1432.296468
 30
0.0
  0
ENDBLK
  5
1536
100
AcDbEntity
  8
0
100
AcDbBlockEnd
  0
BLOCK
  5
1539
100
AcDbEntity
  8
0
100
AcDbBlockBegin
  2
*D78
 70
    65
 10
0.0
 20
0.0
 30
0.0
  3
*D78
  1

  0
LINE
  5
153A
100
AcDbEntity
  8
0
  6
BYBLOCK
 62
     0
100
AcDbLine
 10
-2046.584343
 20
-1410.704163
 30
0.0
 11
-2050.593428
 21
-1410.704163
 31
0.0
  0
LINE
  5
153B
100
AcDbEntity
  8
0
  6
BYBLOCK
 62
     0
100
AcDbLine
 10
-2046.584343
 20
-1420.749462
 30
0.0
 11
-2050.593428
 21
-1420.749462
 31
0.0
  0
LINE
  5
153C
100
AcDbEntity
  8
0
  6
BYBLOCK
 62
     0
100
AcDbLine
 10
-2049.343428
 20
-1408.204163
 30
0.0
 11
-2049.343428
 21
-1405.704163
 31
0.0
  0
LINE
  5
153D
100
AcDbEntity
  8
0
  6
BYBLOCK
 62
     0
100
AcDbLine
 10
-2049.343428
 20
-1423.249462
 30
0.0
 11
-2049.343428
 21
-1425.749462
 31
0.0
  0
SOLID
  5
153E
100
AcDbEntity
  8
0
  6
BYBLOCK
 62
     0
100
AcDbTrace
 10
-2049.760095
 20
-1408.204163
 30
0.0
 11
-2048.926762
 21
-1408.204163
 31
0.0
 12
-2049.343428
 22
-1410.704163
 32
0.0
 13
-2049.343428
 23
-1410.704163
 33
0.0
  0
SOLID
  5
153F
100
AcDbEntity
  8
0
  6
BYBLOCK
 62
     0
100
AcDbTrace
 10
-2049.760095
 20
-1423.249462
 30
0.0
 11
-2048.926762
 21
-1423.249462
 31
0.0
 12
-2049.343428
 22
-1420.749462
 32
0.0
 13
-2049.343428
 23
-1420.749462
 33
0.0
  0
MTEXT
  5
1540
100
AcDbEntity
  8
0
  6
BYBLOCK
 62
     0
100
AcDbMText
 10
-2051.468428
 20
-1415.726812
 30
0.0
 40
3.0
 41
0.0
 71
     5
 72
     1
  1
\A1;10.05
 11
0.0
 21
1.0
 31
0.0
  0
POINT
  5
1541
100
AcDbEntity
  8
DEFPOINTS
  6
BYBLOCK
 62
     0
100
AcDbPoint
 10
-2045.959343
 20
-1410.704163
 30
0.0
  0
POINT
  5
1542
100
AcDbEntity
  8
DEFPOINTS
  6
BYBLOCK
 62
     0
100
AcDbPoint
 10
-2045.959343
 20
-1420.749462
 30
0.0
  0
POINT
  5
1543
100
AcDbEntity
  8
DEFPOINTS
  6
BYBLOCK
 62
     0
100
AcDbPoint
 10
-2049.343428
 20
-1420.749462
 30
0.0
  0
ENDBLK
  5
1544
100
AcDbEntity
  8
0
100
AcDbBlockEnd
  0
BLOCK
  5
1547
100
AcDbEntity
  8
0
100
AcDbBlockBegin
  2
*D79
 70
    65
 10
0.0
 20
0.0
 30
0.0
  3
*D79
  1

  0
LINE
  5
1548
100
AcDbEntity
  8
0
  6
BYBLOCK
 62
     0
100
AcDbLine
 10
-2046.584343
 20
-1420.749462
 30
0.0
 11
-2058.813753
 21
-1420.749462
 31
0.0
  0
LINE
  5
1549
100
AcDbEntity
  8
0
  6
BYBLOCK
 62
     0
100
AcDbLine
 10
-2046.584343
 20
-1432.296468
 30
0.0
 11
-2058.813753
 21
-1432.296468
 31
0.0
  0
LINE
  5
154A
100
AcDbEntity
  8
0
  6
BYBLOCK
 62
     0
100
AcDbLine
 10
-2057.563753
 20
-1418.249462
 30
0.0
 11
-2057.563753
 21
-1415.749462
 31
0.0
  0
LINE
  5
154B
100
AcDbEntity
  8
0
  6
BYBLOCK
 62
     0
100
AcDbLine
 10
-2057.563753
 20
-1434.796468
 30
0.0
 11
-2057.563753
 21
-1437.296468
 31
0.0
  0
SOLID
  5
154C
100
AcDbEntity
  8
0
  6
BYBLOCK
 62
     0
100
AcDbTrace
 10
-2057.98042
 20
-1418.249462
 30
0.0
 11
-2057.147087
 21
-1418.249462
 31
0.0
 12
-2057.563753
 22
-1420.749462
 32
0.0
 13
-2057.563753
 23
-1420.749462
 33
0.0
  0
SOLID
  5
154D
100
AcDbEntity
  8
0
  6
BYBLOCK
 62
     0
100
AcDbTrace
 10
-2057.98042
 20
-1434.796468
 30
0.0
 11
-2057.147087
 21
-1434.796468
 31
0.0
 12
-2057.563753
 22
-1432.296468
 32
0.0
 13
-2057.563753
 23
-1432.296468
 33
0.0
  0
MTEXT
  5
154E
100
AcDbEntity
  8
0
  6
BYBLOCK
 62
     0
100
AcDbMText
 10
-2059.688753
 20
-1426.522965
 30
0.0
 40
3.0
 41
0.0
 71
     5
 72
     1
  1
\A1;11.55
 11
0.0
 21
1.0
 31
0.0
  0
POINT
  5
154F
100
AcDbEntity
  8
DEFPOINTS
  6
BYBLOCK
 62
     0
100
AcDbPoint
 10
-2045.959343
 20
-1420.749462
 30
0.0
  0
POINT
  5
1550
100
AcDbEntity
  8
DEFPOINTS
  6
BYBLOCK
 62
     0
100
AcDbPoint
 10
-2045.959343
 20
-1432.296468
 30
0.0
  0
POINT
  5
1551
100
AcDbEntity
  8
DEFPOINTS
  6
BYBLOCK
 62
     0
100
AcDbPoint
 10
-2057.563753
 20
-1432.296468
 30
0.0
  0
ENDBLK
  5
1552
100
AcDbEntity
  8
0
100
AcDbBlockEnd
  0
BLOCK
  5
1555
100
AcDbEntity
  8
0
100
AcDbBlockBegin
  2
*D80
 70
    65
 10
0.0
 20
0.0
 30
0.0
  3
*D80
  1

  0
LINE
  5
1556
100
AcDbEntity
  8
0
  6
BYBLOCK
 62
     0
100
AcDbLine
 10
-2045.959343
 20
-1411.329163
 30
0.0
 11
-2045.959343
 21
-1419.907891
 31
0.0
  0
LINE
  5
1557
100
AcDbEntity
  8
0
  6
BYBLOCK
 62
     0
100
AcDbLine
 10
-2031.959343
 20
-1413.210574
 30
0.0
 11
-2031.959343
 21
-1419.907891
 31
0.0
  0
LINE
  5
1558
100
AcDbEntity
  8
0
  6
BYBLOCK
 62
     0
100
AcDbLine
 10
-2043.459343
 20
-1418.657891
 30
0.0
 11
-2034.459343
 21
-1418.657891
 31
0.0
  0
SOLID
  5
1559
100
AcDbEntity
  8
0
  6
BYBLOCK
 62
     0
100
AcDbTrace
 10
-2043.459343
 20
-1418.241224
 30
0.0
 11
-2043.459343
 21
-1419.074558
 31
0.0
 12
-2045.959343
 22
-1418.657891
 32
0.0
 13
-2045.959343
 23
-1418.657891
 33
0.0
  0
SOLID
  5
155A
100
AcDbEntity
  8
0
  6
BYBLOCK
 62
     0
100
AcDbTrace
 10
-2034.459343
 20
-1418.241224
 30
0.0
 11
-2034.459343
 21
-1419.074558
 31
0.0
 12
-2031.959343
 22
-1418.657891
 32
0.0
 13
-2031.959343
 23
-1418.657891
 33
0.0
  0
MTEXT
  5
155B
100
AcDbEntity
  8
0
  6
BYBLOCK
 62
     0
100
AcDbMText
 10
-2038.959343
 20
-1416.532891
 30
0.0
 40
3.0
 41
0.0
 71
     5
 72
     1
  1
\A1;14
  0
POINT
  5
155C
100
AcDbEntity
  8
DEFPOINTS
  6
BYBLOCK
 62
     0
100
AcDbPoint
 10
-2045.959343
 20
-1410.704163
 30
0.0
  0
POINT
  5
155D
100
AcDbEntity
  8
DEFPOINTS
  6
BYBLOCK
 62
     0
100
AcDbPoint
 10
-2031.959343
 20
-1412.585574
 30
0.0
  0
POINT
  5
155E
100
AcDbEntity
  8
DEFPOINTS
  6
BYBLOCK
 62
     0
100
AcDbPoint
 10
-2031.959343
 20
-1418.657891
 30
0.0
  0
ENDBLK
  5
155F
100
AcDbEntity
  8
0
100
AcDbBlockEnd
  0
BLOCK
  5
15DF
100
AcDbEntity
  8
TABELLA
100
AcDbBlockBegin
  2
A$CD226
 70
     0
 10
0.0
 20
0.0
 30
0.0
  3
A$CD226
  1

  0
POLYLINE
  5
1562
100
AcDbEntity
  8
TABELLA
 62
     8
100
AcDb2dPolyline
 66
     1
 10
0.0
 20
0.0
 30
0.0
 70
     1
  0
VERTEX
  5
1563
100
AcDbEntity
  8
TABELLA
 62
     8
100
AcDbVertex
100
AcDb2dVertex
 10
279.859233
 20
401.902207
 30
0.0
  0
VERTEX
  5
1564
100
AcDbEntity
  8
TABELLA
 62
     8
100
AcDbVertex
100
AcDb2dVertex
 10
279.859233
 20
4.902207
 30
0.0
  0
VERTEX
  5
1565
100
AcDbEntity
  8
TABELLA
 62
     8
100
AcDbVertex
100
AcDb2dVertex
 10
5.859233
 20
4.902207
 30
0.0
  0
VERTEX
  5
1566
100
AcDbEntity
  8
TABELLA
 62
     8
100
AcDbVertex
100
AcDb2dVertex
 10
5.859233
 20
401.902207
 30
0.0
  0
SEQEND
  5
1567
100
AcDbEntity
  8
TABELLA
 62
     8
  0
LINE
  5
1568
100
AcDbEntity
  8
TABELLA
 62
     8
100
AcDbLine
 10
142.859233
 20
0.902207
 30
0.0
 11
142.859233
 21
4.902207
 31
0.0
  0
LINE
  5
1569
100
AcDbEntity
  8
TABELLA
 62
     8
100
AcDbLine
 10
283.859233
 20
203.402207
 30
0.0
 11
279.859233
 21
203.402207
 31
0.0
  0
LINE
  5
156A
100
AcDbEntity
  8
TABELLA
 62
     8
100
AcDbLine
 10
107.609233
 20
0.902207
 30
0.0
 11
107.609233
 21
4.902207
 31
0.0
  0
LINE
  5
156B
100
AcDbEntity
  8
TABELLA
 62
     8
100
AcDbLine
 10
72.359233
 20
0.902207
 30
0.0
 11
72.359233
 21
4.902207
 31
0.0
  0
LINE
  5
156C
100
AcDbEntity
  8
TABELLA
 62
     8
100
AcDbLine
 10
37.109233
 20
0.902207
 30
0.0
 11
37.109233
 21
4.902207
 31
0.0
  0
LINE
  5
156D
100
AcDbEntity
  8
TABELLA
 62
     8
100
AcDbLine
 10
178.109233
 20
0.902207
 30
0.0
 11
178.109233
 21
4.902207
 31
0.0
  0
LINE
  5
156E
100
AcDbEntity
  8
TABELLA
 62
     8
100
AcDbLine
 10
213.359233
 20
0.902207
 30
0.0
 11
213.359233
 21
4.902207
 31
0.0
  0
LINE
  5
156F
100
AcDbEntity
  8
TABELLA
 62
     8
100
AcDbLine
 10
248.609233
 20
0.902207
 30
0.0
 11
248.609233
 21
4.902207
 31
0.0
  0
LINE
  5
1570
100
AcDbEntity
  8
TABELLA
 62
     8
100
AcDbLine
 10
283.859233
 20
238.402207
 30
0.0
 11
279.859233
 21
238.402207
 31
0.0
  0
LINE
  5
1571
100
AcDbEntity
  8
TABELLA
 62
     8
100
AcDbLine
 10
283.859233
 20
273.402207
 30
0.0
 11
279.859233
 21
273.402207
 31
0.0
  0
LINE
  5
1572
100
AcDbEntity
  8
TABELLA
 62
     8
100
AcDbLine
 10
283.859233
 20
308.402207
 30
0.0
 11
279.859233
 21
308.402207
 31
0.0
  0
LINE
  5
1573
100
AcDbEntity
  8
TABELLA
 62
     8
100
AcDbLine
 10
283.859233
 20
343.402207
 30
0.0
 11
279.859233
 21
343.402207
 31
0.0
  0
LINE
  5
1574
100
AcDbEntity
  8
TABELLA
 62
     8
100
AcDbLine
 10
283.859233
 20
378.402207
 30
0.0
 11
279.859233
 21
378.402207
 31
0.0
  0
LINE
  5
1575
100
AcDbEntity
  8
TABELLA
 62
     8
100
AcDbLine
 10
283.859233
 20
168.402207
 30
0.0
 11
279.859233
 21
168.402207
 31
0.0
  0
LINE
  5
1576
100
AcDbEntity
  8
TABELLA
 62
     8
100
AcDbLine
 10
283.859233
 20
133.402207
 30
0.0
 11
279.859233
 21
133.402207
 31
0.0
  0
LINE
  5
1577
100
AcDbEntity
  8
TABELLA
 62
     8
100
AcDbLine
 10
283.859233
 20
98.402207
 30
0.0
 11
279.859233
 21
98.402207
 31
0.0
  0
LINE
  5
1578
100
AcDbEntity
  8
TABELLA
 62
     8
100
AcDbLine
 10
283.859233
 20
63.402207
 30
0.0
 11
279.859233
 21
63.402207
 31
0.0
  0
LINE
  5
1579
100
AcDbEntity
  8
TABELLA
 62
     8
100
AcDbLine
 10
283.859233
 20
28.402207
 30
0.0
 11
279.859233
 21
28.402207
 31
0.0
  0
LINE
  5
157A
100
AcDbEntity
  8
TABELLA
 62
     8
100
AcDbLine
 10
1.859233
 20
28.402207
 30
0.0
 11
5.859233
 21
28.402207
 31
0.0
  0
LINE
  5
157B
100
AcDbEntity
  8
TABELLA
 62
     8
100
AcDbLine
 10
1.859233
 20
63.402207
 30
0.0
 11
5.859233
 21
63.402207
 31
0.0
  0
LINE
  5
157C
100
AcDbEntity
  8
TABELLA
 62
     8
100
AcDbLine
 10
1.859233
 20
98.402207
 30
0.0
 11
5.859233
 21
98.402207
 31
0.0
  0
LINE
  5
157D
100
AcDbEntity
  8
TABELLA
 62
     8
100
AcDbLine
 10
1.859233
 20
133.402207
 30
0.0
 11
5.859233
 21
133.402207
 31
0.0
  0
LINE
  5
157E
100
AcDbEntity
  8
TABELLA
 62
     8
100
AcDbLine
 10
1.859233
 20
168.402207
 30
0.0
 11
5.859233
 21
168.402207
 31
0.0
  0
LINE
  5
157F
100
AcDbEntity
  8
TABELLA
 62
     8
100
AcDbLine
 10
1.859233
 20
378.402207
 30
0.0
 11
5.859233
 21
378.402207
 31
0.0
  0
LINE
  5
1580
100
AcDbEntity
  8
TABELLA
 62
     8
100
AcDbLine
 10
1.859233
 20
343.402207
 30
0.0
 11
5.859233
 21
343.402207
 31
0.0
  0
LINE
  5
1581
100
AcDbEntity
  8
TABELLA
 62
     8
100
AcDbLine
 10
1.859233
 20
308.402207
 30
0.0
 11
5.859233
 21
308.402207
 31
0.0
  0
LINE
  5
1582
100
AcDbEntity
  8
TABELLA
 62
     8
100
AcDbLine
 10
1.859233
 20
273.402207
 30
0.0
 11
5.859233
 21
273.402207
 31
0.0
  0
LINE
  5
1583
100
AcDbEntity
  8
TABELLA
 62
     8
100
AcDbLine
 10
1.859233
 20
238.402207
 30
0.0
 11
5.859233
 21
238.402207
 31
0.0
  0
LINE
  5
1584
100
AcDbEntity
  8
TABELLA
 62
     8
100
AcDbLine
 10
1.859233
 20
203.402207
 30
0.0
 11
5.859233
 21
203.402207
 31
0.0
  0
LINE
  5
1585
100
AcDbEntity
  8
TABELLA
 62
     8
100
AcDbLine
 10
248.609233
 20
405.902207
 30
0.0
 11
248.609233
 21
401.902207
 31
0.0
  0
LINE
  5
1586
100
AcDbEntity
  8
TABELLA
 62
     8
100
AcDbLine
 10
213.359233
 20
405.902207
 30
0.0
 11
213.359233
 21
401.902207
 31
0.0
  0
LINE
  5
1587
100
AcDbEntity
  8
TABELLA
 62
     8
100
AcDbLine
 10
178.109233
 20
405.902207
 30
0.0
 11
178.109233
 21
401.902207
 31
0.0
  0
LINE
  5
1588
100
AcDbEntity
  8
TABELLA
 62
     8
100
AcDbLine
 10
37.109233
 20
405.902207
 30
0.0
 11
37.109233
 21
401.902207
 31
0.0
  0
LINE
  5
1589
100
AcDbEntity
  8
TABELLA
 62
     8
100
AcDbLine
 10
72.359233
 20
405.902207
 30
0.0
 11
72.359233
 21
401.902207
 31
0.0
  0
LINE
  5
158A
100
AcDbEntity
  8
TABELLA
 62
     8
100
AcDbLine
 10
107.609233
 20
405.902207
 30
0.0
 11
107.609233
 21
401.902207
 31
0.0
  0
LINE
  5
158B
100
AcDbEntity
  8
TABELLA
 62
     8
100
AcDbLine
 10
142.859233
 20
405.902207
 30
0.0
 11
142.859233
 21
401.902207
 31
0.0
  0
LINE
  5
158C
100
AcDbEntity
  8
TABELLA
  6
CONTINUOUS
 62
     8
100
AcDbLine
 10
279.859233
 20
4.902207
 30
0.0
 11
279.859233
 21
34.902207
 31
0.0
  0
LINE
  5
158D
100
AcDbEntity
  8
TABELLA
  6
CONTINUOUS
 62
     8
100
AcDbLine
 10
271.904834
 20
29.989322
 30
0.0
 11
276.113634
 21
29.989322
 31
0.0
  0
TEXT
  5
158E
100
AcDbEntity
  8
TABELLA
  6
CONTINUOUS
 62
     8
100
AcDbText
 10
266.040794
 20
11.507515
 30
0.0
 40
2.0
  1
Formato
100
AcDbText
  0
LINE
  5
158F
100
AcDbEntity
  8
TABELLA
  6
CONTINUOUS
 62
     8
100
AcDbLine
 10
266.733426
 20
32.531211
 30
0.0
 11
266.733426
 21
27.447433
 31
0.0
  0
CIRCLE
  5
1590
100
AcDbEntity
  8
TABELLA
  6
CONTINUOUS
 62
     8
100
AcDbCircle
 10
274.009234
 20
29.989322
 30
0.0
 40
2.54
  0
LINE
  5
1591
100
AcDbEntity
  8
TABELLA
  6
CONTINUOUS
 62
     8
100
AcDbLine
 10
274.009234
 20
27.884922
 30
0.0
 11
274.009234
 21
32.093722
 31
0.0
  0
CIRCLE
  5
1592
100
AcDbEntity
  8
TABELLA
  6
CONTINUOUS
 62
     8
100
AcDbCircle
 10
274.009234
 20
29.989322
 30
0.0
 40
1.5
  0
LINE
  5
1593
100
AcDbEntity
  8
TABELLA
  6
CONTINUOUS
 62
     8
100
AcDbLine
 10
259.859233
 20
34.902207
 30
0.0
 11
259.859233
 21
24.902207
 31
0.0
  0
LINE
  5
1594
100
AcDbEntity
  8
TABELLA
  6
CONTINUOUS
 62
     8
100
AcDbLine
 10
260.82458
 20
31.489322
 30
0.0
 11
260.82458
 21
28.489322
 31
0.0
  0
LINE
  5
1595
100
AcDbEntity
  8
TABELLA
  6
CONTINUOUS
 62
     8
100
AcDbLine
 10
260.82458
 20
28.489322
 30
0.0
 11
266.733426
 21
27.447433
 31
0.0
  0
LINE
  5
1596
100
AcDbEntity
  8
TABELLA
  6
CONTINUOUS
 62
     8
100
AcDbLine
 10
260.82458
 20
31.489322
 30
0.0
 11
266.733426
 21
32.531211
 31
0.0
  0
LINE
  5
1597
100
AcDbEntity
  8
TABELLA
  6
CONTINUOUS
 62
     8
100
AcDbLine
 10
264.859233
 20
14.902207
 30
0.0
 11
264.859233
 21
4.902207
 31
0.0
  0
LINE
  5
1598
100
AcDbEntity
  8
TABELLA
  6
CONTINUOUS
 62
     8
100
AcDbLine
 10
260.82458
 20
29.989322
 30
0.0
 11
278.751082
 21
29.989322
 31
0.0
  0
LINE
  5
1599
100
AcDbEntity
  8
TABELLA
  6
CONTINUOUS
 62
     8
100
AcDbLine
 10
244.859233
 20
34.902207
 30
0.0
 11
244.859233
 21
24.902207
 31
0.0
  0
LINE
  5
159A
100
AcDbEntity
  8
TABELLA
  6
CONTINUOUS
 62
     8
100
AcDbLine
 10
229.859233
 20
34.902207
 30
0.0
 11
229.859233
 21
44.902207
 31
0.0
  0
LINE
  5
159B
100
AcDbEntity
  8
TABELLA
  6
CONTINUOUS
 62
     8
100
AcDbLine
 10
244.859233
 20
14.902207
 30
0.0
 11
244.859233
 21
4.902207
 31
0.0
  0
LINE
  5
159C
100
AcDbEntity
  8
TABELLA
  6
CONTINUOUS
 62
     8
100
AcDbLine
 10
204.859233
 20
24.902207
 30
0.0
 11
204.859233
 21
14.902207
 31
0.0
  0
LINE
  5
159D
100
AcDbEntity
  8
TABELLA
  6
CONTINUOUS
 62
     8
100
AcDbLine
 10
201.852425
 20
19.368631
 30
0.0
 11
200.484344
 21
23.127401
 31
0.0
1001
ACAD
1000
ASC_BOUNDS
1002
{
1070
    19
1002
}
  0
TEXT
  5
159E
100
AcDbEntity
  8
TABELLA
  6
CONTINUOUS
 62
     8
100
AcDbText
 10
205.668959
 20
11.738518
 30
0.0
 40
2.0
  1
Disegno
100
AcDbText
  0
LINE
  5
159F
100
AcDbEntity
  8
TABELLA
  6
CONTINUOUS
 62
     8
100
AcDbLine
 10
209.859233
 20
34.902207
 30
0.0
 11
209.859233
 21
24.902207
 31
0.0
  0
LINE
  5
15A0
100
AcDbEntity
  8
TABELLA
  6
CONTINUOUS
 62
     8
100
AcDbLine
 10
199.859233
 20
34.902207
 30
0.0
 11
199.859233
 21
44.902207
 31
0.0
  0
TEXT
  5
15A1
100
AcDbEntity
  8
TABELLA
  6
CONTINUOUS
 62
     8
100
AcDbText
 10
186.007634
 20
31.604823
 30
0.0
 40
2.0
  1
Controllato da
100
AcDbText
  0
LINE
  5
15A2
100
AcDbEntity
  8
TABELLA
  6
CONTINUOUS
 62
     8
100
AcDbLine
 10
198.432223
 20
9.971704
 30
0.0
 11
201.852425
 21
19.368631
 31
0.0
1001
ACAD
1000
ASC_BOUNDS
1002
{
1070
    19
1002
}
  0
LINE
  5
15A3
100
AcDbEntity
  8
TABELLA
  6
CONTINUOUS
 62
     8
100
AcDbLine
 10
197.732016
 20
10.971704
 30
0.0
 11
200.788247
 21
19.368631
 31
0.0
1001
ACAD
1000
ASC_BOUNDS
1002
{
1070
    19
1002
}
  0
LINE
  5
15A4
100
AcDbEntity
  8
TABELLA
  6
CONTINUOUS
 62
     8
100
AcDbLine
 10
200.788247
 20
19.368631
 30
0.0
 11
199.784137
 21
22.127401
 31
0.0
1001
ACAD
1000
ASC_BOUNDS
1002
{
1070
    19
1002
}
  0
LINE
  5
15A5
100
AcDbEntity
  8
TABELLA
  6
CONTINUOUS
 62
     8
100
AcDbLine
 10
204.859233
 20
14.902207
 30
0.0
 11
204.859233
 21
4.902207
 31
0.0
  0
TEXT
  5
15A6
100
AcDbEntity
  8
TABELLA
  6
CONTINUOUS
 62
     8
100
AcDbText
 10
205.90027
 20
21.902674
 30
0.0
 40
2.0
  1
Particolare
100
AcDbText
  0
TEXT
  5
15A7
100
AcDbEntity
  8
TABELLA
  6
CONTINUOUS
 62
     8
100
AcDbText
 10
210.989083
 20
31.604823
 30
0.0
 40
2.0
  1
Approvato da - data
100
AcDbText
  0
TEXT
  5
15A8
100
AcDbEntity
  8
TABELLA
  6
CONTINUOUS
 62
     8
100
AcDbText
 10
201.042765
 20
41.999983
 30
0.0
 40
2.0
  1
Dimensioni di prelievo
100
AcDbText
  0
LINE
  5
15A9
100
AcDbEntity
  8
TABELLA
  6
CONTINUOUS
 62
     8
100
AcDbLine
 10
204.859233
 20
14.972459
 30
0.0
 11
279.859233
 21
14.902207
 31
0.0
  0
LINE
  5
15AA
100
AcDbEntity
  8
TABELLA
  6
CONTINUOUS
 62
     8
100
AcDbLine
 10
209.859233
 20
24.902207
 30
0.0
 11
279.859233
 21
24.902207
 31
0.0
  0
LINE
  5
15AB
100
AcDbEntity
  8
TABELLA
  6
CONTINUOUS
 62
     8
100
AcDbLine
 10
209.859233
 20
34.902207
 30
0.0
 11
279.859233
 21
34.902207
 31
0.0
  0
TEXT
  5
15AC
100
AcDbEntity
  8
TABELLA
  6
CONTINUOUS
 62
     8
100
AcDbText
 10
246.14816
 20
11.738518
 30
0.0
 40
2.0
  1
Data
100
AcDbText
  0
TEXT
  5
15AD
100
AcDbEntity
  8
TABELLA
  6
CONTINUOUS
 62
     8
100
AcDbText
 10
245.916849
 20
31.604823
 30
0.0
 40
2.0
  1
Scala
100
AcDbText
  0
TEXT
  5
15AE
100
AcDbEntity
  8
TABELLA
  6
CONTINUOUS
 62
     8
100
AcDbText
 10
231.344337
 20
41.999983
 30
0.0
 40
2.0
  1
Trattamento Termico
100
AcDbText
  0
LINE
  5
15AF
100
AcDbEntity
  8
TABELLA
  6
CONTINUOUS
 62
     8
100
AcDbLine
 10
184.859233
 20
34.902207
 30
0.0
 11
184.859233
 21
24.902207
 31
0.0
  0
LINE
  5
15B0
100
AcDbEntity
  8
TABELLA
  6
CONTINUOUS
 62
     8
100
AcDbLine
 10
164.064143
 20
13.730475
 30
0.0
 11
165.432223
 21
9.971704
 31
0.0
1001
ACAD
1000
ASC_BOUNDS
1002
{
1070
    19
1002
}
  0
LINE
  5
15B1
100
AcDbEntity
  8
TABELLA
  6
CONTINUOUS
 62
     8
100
AcDbLine
 10
165.128321
 20
13.730475
 30
0.0
 11
166.132431
 21
10.971704
 31
0.0
1001
ACAD
1000
ASC_BOUNDS
1002
{
1070
    19
1002
}
  0
LINE
  5
15B2
100
AcDbEntity
  8
TABELLA
  6
CONTINUOUS
 62
     8
100
AcDbLine
 10
167.484344
 20
23.127401
 30
0.0
 11
164.064143
 21
13.730475
 31
0.0
1001
ACAD
1000
ASC_BOUNDS
1002
{
1070
    19
1002
}
  0
LINE
  5
15B3
100
AcDbEntity
  8
TABELLA
  6
CONTINUOUS
 62
     8
100
AcDbLine
 10
168.184552
 20
22.127401
 30
0.0
 11
165.128321
 21
13.730475
 31
0.0
1001
ACAD
1000
ASC_BOUNDS
1002
{
1070
    19
1002
}
  0
TEXT
  5
15B4
100
AcDbEntity
  8
TABELLA
  6
CONTINUOUS
 62
     8
100
AcDbText
 10
161.026186
 20
31.835827
 30
0.0
 40
2.0
  1
Disegnato da
100
AcDbText
  0
TEXT
  5
15B5
100
AcDbEntity
  8
TABELLA
  6
CONTINUOUS
 62
     8
100
AcDbText
 10
161.257495
 20
41.999983
 30
0.0
 40
2.0
  1
Materiale
100
AcDbText
  0
TEXT
  5
15B6
100
AcDbEntity
  8
TABELLA
  6
CONTINUOUS
 62
     8
100
AcDbText
 10
155.365725
 20
6.969168
 30
0.0
 40
1.5
  1
proprietà di questo disegno, con divieto
 50
90.0
100
AcDbText
  0
TEXT
  5
15B7
100
AcDbEntity
  8
TABELLA
  6
CONTINUOUS
 62
     8
100
AcDbText
 10
158.215725
 20
6.969168
 30
0.0
 40
1.5
  1
di riprodurlo e di comunicarlo a terzi.
 50
90.0
100
AcDbText
  0
LINE
  5
15B8
100
AcDbEntity
  8
TABELLA
  6
CONTINUOUS
 62
     8
100
AcDbLine
 10
159.869611
 20
44.902207
 30
0.0
 11
159.869611
 21
4.902207
 31
0.0
  0
TEXT
  5
15B9
100
AcDbEntity
  8
TABELLA
  6
CONTINUOUS
 62
     8
100
AcDbText
 10
152.515725
 20
6.969168
 30
0.0
 40
1.5
  1
A termine di legge la Rolleri si riserva la
 50
90.0
100
AcDbText
  0
LINE
  5
15BA
100
AcDbEntity
  8
TABELLA
  6
CONTINUOUS
 62
     8
100
AcDbLine
 10
149.869612
 20
44.910031
 30
0.0
 11
149.859233
 21
4.904802
 31
0.0
  0
TEXT
  5
15BB
100
AcDbEntity
  8
TABELLA
  6
CONTINUOUS
 62
     8
100
AcDbText
 10
91.348971
 20
41.84654
 30
0.0
 40
2.0
  1
TOLLERANZE GENERALI :
100
AcDbText
  0
TEXT
  5
15BC
100
AcDbEntity
  8
TABELLA
  6
CONTINUOUS
 62
     8
100
AcDbText
 10
91.348971
 20
19.04654
 30
0.0
 40
2.0
  1
   oltre 500 mm = +/- 0.5
100
AcDbText
  0
TEXT
  5
15BD
100
AcDbEntity
  8
TABELLA
  6
CONTINUOUS
 62
     8
100
AcDbText
 10
91.348971
 20
11.44654
 30
0.0
 40
2.0
  1
- Interassi fori = +/- 0.25
100
AcDbText
  0
TEXT
  5
15BE
100
AcDbEntity
  8
TABELLA
  6
CONTINUOUS
 62
     8
100
AcDbText
 10
91.348971
 20
38.04654
 30
0.0
 40
2.0
  1
- Parti fuse con spessori <10 mm = +/- 1 mm
100
AcDbText
  0
TEXT
  5
15BF
100
AcDbEntity
  8
TABELLA
  6
CONTINUOUS
 62
     8
100
AcDbText
 10
91.348971
 20
34.24654
 30
0.0
 40
2.0
  1
- Parti fuse con spessori >10 mm = +/- 10%
100
AcDbText
  0
TEXT
  5
15C0
100
AcDbEntity
  8
TABELLA
  6
CONTINUOUS
 62
     8
100
AcDbText
 10
91.348971
 20
30.44654
 30
0.0
 40
2.0
  1
- Superfici lavorate da mm 1 a mm 50 = +/- 0.2
100
AcDbText
  0
TEXT
  5
15C1
100
AcDbEntity
  8
TABELLA
  6
CONTINUOUS
 62
     8
100
AcDbText
 10
91.348971
 20
26.64654
 30
0.0
 40
2.0
  1
   da mm 51 a mm 150 = +/- 0.3
100
AcDbText
  0
TEXT
  5
15C2
100
AcDbEntity
  8
TABELLA
  6
CONTINUOUS
 62
     8
100
AcDbText
 10
91.348971
 20
22.84654
 30
0.0
 40
2.0
  1
   da mm 151 a mm 500 = +/- 0.4
100
AcDbText
  0
TEXT
  5
15C3
100
AcDbEntity
  8
TABELLA
  6
CONTINUOUS
 62
     8
100
AcDbText
 10
91.348971
 20
15.24654
 30
0.0
 40
2.0
  1
- Angoli su superfici lavorate = +/- 30'
100
AcDbText
  0
LINE
  5
15C4
100
AcDbEntity
  8
TABELLA
  6
CONTINUOUS
 62
     8
100
AcDbLine
 10
209.859233
 20
24.902207
 30
0.0
 11
159.859233
 21
24.902207
 31
0.0
  0
LINE
  5
15C5
100
AcDbEntity
  8
TABELLA
  6
CONTINUOUS
 62
     8
100
AcDbLine
 10
279.859233
 20
44.902207
 30
0.0
 11
89.774226
 21
44.910491
 31
0.0
  0
LINE
  5
15C6
100
AcDbEntity
  8
TABELLA
  6
CONTINUOUS
 62
     8
100
AcDbLine
 10
209.859233
 20
34.902207
 30
0.0
 11
159.859233
 21
34.902207
 31
0.0
  0
TEXT
  5
15C7
100
AcDbEntity
  8
TABELLA
  6
CONTINUOUS
 62
     8
100
AcDbText
 10
163.847984
 20
6.194433
 30
0.0
 40
2.0
  1
Vigolzone ( Piacenza ) - ITALIA
100
AcDbText
  0
LINE
  5
15C8
100
AcDbEntity
  8
TABELLA
  6
CONTINUOUS
 62
     8
100
AcDbLine
 10
165.432223
 20
9.971704
 30
0.0
 11
198.432223
 21
9.971704
 31
0.0
1001
ACAD
1000
ASC_BOUNDS
1002
{
1070
    19
1002
}
  0
LINE
  5
15C9
100
AcDbEntity
  8
TABELLA
  6
CONTINUOUS
 62
     8
100
AcDbLine
 10
200.484344
 20
23.127401
 30
0.0
 11
167.484344
 21
23.127401
 31
0.0
1001
ACAD
1000
ASC_BOUNDS
1002
{
1070
    19
1002
}
  0
LINE
  5
15CA
100
AcDbEntity
  8
TABELLA
  6
CONTINUOUS
 62
     8
100
AcDbLine
 10
166.132431
 20
10.971704
 30
0.0
 11
197.732016
 21
10.971704
 31
0.0
1001
ACAD
1000
ASC_BOUNDS
1002
{
1070
    19
1002
}
  0
LINE
  5
15CB
100
AcDbEntity
  8
TABELLA
  6
CONTINUOUS
 62
     8
100
AcDbLine
 10
199.784137
 20
22.127401
 30
0.0
 11
168.184552
 21
22.127401
 31
0.0
1001
ACAD
1000
ASC_BOUNDS
1002
{
1070
    19
1002
}
  0
TEXT
  5
15CC
100
AcDbEntity
  8
TABELLA
  6
CONTINUOUS
 62
     8
100
AcDbText
 10
167.968395
 20
13.638723
 30
0.0
 40
6.0
  1
ROLLERI
100
AcDbText
  0
LINE
  5
15CD
100
AcDbEntity
  8
TABELLA
  6
CONTINUOUS
 62
     8
100
AcDbLine
 10
89.859233
 20
4.902207
 30
0.0
 11
89.859233
 21
44.910488
 31
0.0
  0
LINE
  5
15CE
100
AcDbEntity
  8
TABELLA
  6
CONTINUOUS
 62
     8
100
AcDbLine
 10
275.858396
 20
164.902381
 30
0.0
 11
279.859233
 21
164.902381
 31
0.0
  0
LINE
  5
15CF
100
AcDbEntity
  8
TABELLA
  6
CONTINUOUS
 62
     8
100
AcDbLine
 10
275.858396
 20
154.902381
 30
0.0
 11
279.859233
 21
154.902381
 31
0.0
  0
LINE
  5
15D0
100
AcDbEntity
  8
TABELLA
  6
CONTINUOUS
 62
     8
100
AcDbLine
 10
275.858396
 20
144.902381
 30
0.0
 11
279.859233
 21
144.902381
 31
0.0
  0
TEXT
  5
15D1
100
AcDbEntity
  8
TABELLA
  6
CONTINUOUS
 62
     8
100
AcDbText
 10
279.287063
 20
145.543642
 30
0.0
 40
2.0
  1
Firma
 50
90.0
100
AcDbText
  0
TEXT
  5
15D2
100
AcDbEntity
  8
TABELLA
  6
CONTINUOUS
 62
     8
100
AcDbText
 10
279.287063
 20
155.31074
 30
0.0
 40
2.0
  1
Control.
 50
90.0
100
AcDbText
  0
LINE
  5
15D3
100
AcDbEntity
  8
TABELLA
  6
CONTINUOUS
 62
     8
100
AcDbLine
 10
275.858396
 20
129.902381
 30
0.0
 11
279.859233
 21
129.902381
 31
0.0
  0
LINE
  5
15D4
100
AcDbEntity
  8
TABELLA
  6
CONTINUOUS
 62
     8
100
AcDbLine
 10
275.858396
 20
54.902381
 30
0.0
 11
279.859233
 21
54.902381
 31
0.0
  0
TEXT
  5
15D5
100
AcDbEntity
  8
TABELLA
  6
CONTINUOUS
 62
     8
100
AcDbText
 10
279.287063
 20
55.793626
 30
0.0
 40
2.0
  1
Nota di revisione
 50
90.0
100
AcDbText
  0
TEXT
  5
15D6
100
AcDbEntity
  8
TABELLA
  6
CONTINUOUS
 62
     8
100
AcDbText
 10
279.287063
 20
130.499657
 30
0.0
 40
2.0
  1
Data
 50
90.0
100
AcDbText
  0
TEXT
  5
15D7
100
AcDbEntity
  8
TABELLA
  6
CONTINUOUS
 62
     8
100
AcDbText
 10
279.078985
 20
45.818718
 30
0.0
 40
2.0
  1
N° rev.
 50
90.0
100
AcDbText
  0
LINE
  5
15D8
100
AcDbEntity
  8
TABELLA
  6
CONTINUOUS
 62
     8
100
AcDbLine
 10
275.858396
 20
164.902381
 30
0.0
 11
275.858396
 21
44.902381
 31
0.0
  0
LINE
  5
15D9
100
AcDbEntity
  8
TABELLA
 62
     8
100
AcDbLine
 10
142.859233
 20
4.902207
 30
0.0
 11
145.168634
 21
0.902207
 31
0.0
  0
LINE
  5
15DA
100
AcDbEntity
  8
TABELLA
 62
     8
100
AcDbLine
 10
142.859233
 20
4.902207
 30
0.0
 11
140.549831
 21
0.902207
 31
0.0
  0
LINE
  5
15DB
100
AcDbEntity
  8
TABELLA
 62
     8
100
AcDbLine
 10
140.549831
 20
0.902207
 30
0.0
 11
145.168634
 21
0.902207
 31
0.0
  0
LINE
  5
15DC
100
AcDbEntity
  8
TABELLA
 62
     8
100
AcDbLine
 10
142.859233
 20
401.902207
 30
0.0
 11
145.168634
 21
405.902207
 31
0.0
  0
LINE
  5
15DD
100
AcDbEntity
  8
TABELLA
 62
     8
100
AcDbLine
 10
142.859233
 20
401.902207
 30
0.0
 11
140.549831
 21
405.902207
 31
0.0
  0
LINE
  5
15DE
100
AcDbEntity
  8
TABELLA
 62
     8
100
AcDbLine
 10
140.549831
 20
405.902207
 30
0.0
 11
145.168634
 21
405.902207
 31
0.0
  0
ENDBLK
  5
15E0
100
AcDbEntity
  8
TABELLA
100
AcDbBlockEnd
  0
BLOCK
  5
15EB
100
AcDbEntity
  8
TABELLA
100
AcDbBlockBegin
  2
A$CD363
 70
     0
 10
0.0
 20
0.0
 30
0.0
  3
A$CD363
  1

  0
TOLERANCE
  5
15E2
100
AcDbEntity
  8
QUOTE
  6
CONTINUOUS
100
AcDbFcf
  3
ISO-25
 10
4.163855
 20
4.418039
 30
0.0
  1
{\Fgdt;b}%%v0.02%%v%%v%%v%%v
1001
ACAD
1000
DSTYLE
1002
{
1070
   140
1040
2.6
1070
    47
1040
0.02
1070
    73
1070
     0
1070
   272
1070
     2
1070
   147
1040
0.53
1070
    42
1040
0.5261
1070
    44
1040
1.0522
1070
    43
1040
3.1566
1070
   271
1070
     2
1070
   141
1040
2.1044
1070
    41
1040
2.6
1002
}
  0
TEXT
  5
15E3
100
AcDbEntity
  8
QUOTE
100
AcDbText
 10
0.9593
 20
8.353971
 30
0.0
 40
2.5
  1
TOLLERANZE AL METRO
 41
1.1
100
AcDbText
  0
TOLERANCE
  5
15E4
100
AcDbEntity
  8
QUOTE
  6
CONTINUOUS
100
AcDbFcf
  3
ISO-25
 10
19.721812
 20
4.418039
 30
0.0
  1
{\Fgdt;u}%%v0.02%%v%%v%%v%%v
1001
ACAD
1000
DSTYLE
1002
{
1070
   140
1040
2.6
1070
    47
1040
0.02
1070
    73
1070
     0
1070
   272
1070
     2
1070
   147
1040
0.53
1070
    42
1040
0.5261
1070
    44
1040
1.0522
1070
    43
1040
3.1566
1070
   271
1070
     2
1070
   141
1040
2.1044
1070
    41
1040
2.6
1002
}
  0
POLYLINE
  5
15E5
100
AcDbEntity
  8
QUOTE
100
AcDb2dPolyline
 66
     1
 10
0.0
 20
0.0
 30
0.0
 70
     1
  0
VERTEX
  5
15E6
100
AcDbEntity
  8
QUOTE
100
AcDbVertex
100
AcDb2dVertex
 10
0.365715
 20
12.817932
 30
0.0
  0
VERTEX
  5
15E7
100
AcDbEntity
  8
QUOTE
100
AcDbVertex
100
AcDb2dVertex
 10
0.365715
 20
0.103323
 30
0.0
  0
VERTEX
  5
15E8
100
AcDbEntity
  8
QUOTE
100
AcDbVertex
100
AcDb2dVertex
 10
41.484755
 20
0.103323
 30
0.0
  0
VERTEX
  5
15E9
100
AcDbEntity
  8
QUOTE
100
AcDbVertex
100
AcDb2dVertex
 10
41.484755
 20
12.817932
 30
0.0
  0
SEQEND
  5
15EA
100
AcDbEntity
  8
QUOTE
  0
ENDBLK
  5
15EC
100
AcDbEntity
  8
TABELLA
100
AcDbBlockEnd
  0
BLOCK
  5
15F0
100
AcDbEntity
  8
QUOTE
100
AcDbBlockBegin
  2
A$CB2C1
 70
     0
 10
0.0
 20
0.0
 30
0.0
  3
A$CB2C1
  1

  0
INSERT
  5
15EE
100
AcDbEntity
  8
TABELLA
100
AcDbBlockReference
  2
A$CD363
 10
37.629215
 20
13.306303
 30
0.0
  0
INSERT
  5
15EF
100
AcDbEntity
  8
TABELLA
100
AcDbBlockReference
  2
A$CD226
 10
-1.682705
 20
1.014754
 30
0.0
  0
ENDBLK
  5
15F1
100
AcDbEntity
  8
QUOTE
100
AcDbBlockEnd
  0
BLOCK
  5
15F4
100
AcDbEntity
  8
QUOTE
100
AcDbBlockBegin
  2
A$C65
 70
     0
 10
0.0
 20
0.0
 30
0.0
  3
A$C65
  1

  0
INSERT
  5
15F3
100
AcDbEntity
  8
QUOTE
100
AcDbBlockReference
  2
A$C52B2
 10
-0.092606
 20
0.467513
 30
0.0
  0
ENDBLK
  5
15F5
100
AcDbEntity
  8
QUOTE
100
AcDbBlockEnd
  0
BLOCK
  5
16AC
100
AcDbEntity
  8
0
100
AcDbBlockBegin
  2
*D85
 70
    65
 10
0.0
 20
0.0
 30
0.0
  3
*D85
  1

  0
LINE
  5
16AD
100
AcDbEntity
  8
0
  6
BYBLOCK
 62
     0
100
AcDbLine
 10
-1810.750685
 20
-1404.079163
 30
0.0
 11
-1810.750685
 21
-1396.059316
 31
0.0
  0
LINE
  5
16AE
100
AcDbEntity
  8
0
  6
BYBLOCK
 62
     0
100
AcDbLine
 10
-1828.750685
 20
-1404.079163
 30
0.0
 11
-1828.750685
 21
-1396.059316
 31
0.0
  0
LINE
  5
16AF
100
AcDbEntity
  8
0
  6
BYBLOCK
 62
     0
100
AcDbLine
 10
-1813.250685
 20
-1397.309316
 30
0.0
 11
-1826.250685
 21
-1397.309316
 31
0.0
  0
SOLID
  5
16B0
100
AcDbEntity
  8
0
  6
BYBLOCK
 62
     0
100
AcDbTrace
 10
-1813.250685
 20
-1396.892649
 30
0.0
 11
-1813.250685
 21
-1397.725983
 31
0.0
 12
-1810.750685
 22
-1397.309316
 32
0.0
 13
-1810.750685
 23
-1397.309316
 33
0.0
  0
SOLID
  5
16B1
100
AcDbEntity
  8
0
  6
BYBLOCK
 62
     0
100
AcDbTrace
 10
-1826.250685
 20
-1396.892649
 30
0.0
 11
-1826.250685
 21
-1397.725983
 31
0.0
 12
-1828.750685
 22
-1397.309316
 32
0.0
 13
-1828.750685
 23
-1397.309316
 33
0.0
  0
MTEXT
  5
16B2
100
AcDbEntity
  8
0
  6
BYBLOCK
 62
     0
100
AcDbMText
 10
-1819.750685
 20
-1395.184316
 30
0.0
 40
3.0
 41
0.0
 71
     5
 72
     1
  1
\A1;18
  0
POINT
  5
16B3
100
AcDbEntity
  8
DEFPOINTS
  6
BYBLOCK
 62
     0
100
AcDbPoint
 10
-1810.750685
 20
-1404.704163
 30
0.0
  0
POINT
  5
16B4
100
AcDbEntity
  8
DEFPOINTS
  6
BYBLOCK
 62
     0
100
AcDbPoint
 10
-1828.750685
 20
-1404.704163
 30
0.0
  0
POINT
  5
16B5
100
AcDbEntity
  8
DEFPOINTS
  6
BYBLOCK
 62
     0
100
AcDbPoint
 10
-1828.750685
 20
-1397.309316
 30
0.0
  0
ENDBLK
  5
16B6
100
AcDbEntity
  8
0
100
AcDbBlockEnd
  0
ENDSEC
  0
SECTION
  2
ENTITIES
  0
LINE
  5
573
100
AcDbEntity
  8
ASSI
100
AcDbLine
 10
-1819.750685
 20
-1609.826456
 30
0.0
 11
-1819.750685
 21
-1588.248859
 31
0.0
1001
ACAD
1000
ASC_BOUNDS
1002
{
1070
    19
1002
}
  0
ARC
  5
574
100
AcDbEntity
  8
DISEGNO
100
AcDbCircle
 10
-1819.750685
 20
-1597.904163
 30
0.0
 40
0.8
100
AcDbArc
 50
193.0
 51
347.0
1001
ACAD
1000
ASC_BOUNDS
1002
{
1070
    19
1002
}
  0
LINE
  5
575
100
AcDbEntity
  8
DISEGNO
100
AcDbLine
 10
-1818.971189
 20
-1598.084124
 30
0.0
 11
-1815.651314
 21
-1583.704163
 31
0.0
1001
ACAD
1000
ASC_BOUNDS
1002
{
1070
    19
1002
}
  0
LINE
  5
576
100
AcDbEntity
  8
DISEGNO
100
AcDbLine
 10
-1820.530182
 20
-1598.084124
 30
0.0
 11
-1823.850057
 21
-1583.704163
 31
0.0
1001
ACAD
1000
ASC_BOUNDS
1002
{
1070
    19
1002
}
  0
LINE
  5
577
100
AcDbEntity
  8
DISEGNO
100
AcDbLine
 10
-1811.750685
 20
-1403.704163
 30
0.0
 11
-1827.750685
 21
-1403.704163
 31
0.0
  0
LINE
  5
578
100
AcDbEntity
  8
DISEGNO
100
AcDbLine
 10
-1810.750685
 20
-1404.704163
 30
0.0
 11
-1810.750685
 21
-1421.904163
 31
0.0
  0
LINE
  5
579
100
AcDbEntity
  8
DISEGNO
100
AcDbLine
 10
-1828.750685
 20
-1404.704163
 30
0.0
 11
-1828.750685
 21
-1421.904163
 31
0.0
  0
LINE
  5
57A
100
AcDbEntity
  8
DISEGNO
100
AcDbLine
 10
-1828.150685
 20
-1441.704163
 30
0.0
 11
-1834.750685
 21
-1441.704163
 31
0.0
  0
LINE
  5
57B
100
AcDbEntity
  8
DISEGNO
100
AcDbLine
 10
-1835.750685
 20
-1442.704163
 30
0.0
 11
-1835.750685
 21
-1529.934172
 31
0.0
  0
LINE
  5
57C
100
AcDbEntity
  8
DISEGNO
100
AcDbLine
 10
-1810.750685
 20
-1463.704163
 30
0.0
 11
-1818.41094
 21
-1476.972112
 31
0.0
  0
LINE
  5
57E
100
AcDbEntity
  8
DISEGNO
100
AcDbLine
 10
-1815.651314
 20
-1583.704163
 30
0.0
 11
-1819.653366
 21
-1555.228081
 31
0.0
  0
LINE
  5
57F
100
AcDbEntity
  8
DISEGNO
100
AcDbLine
 10
-1819.750685
 20
-1553.83635
 30
0.0
 11
-1819.750685
 21
-1481.972112
 31
0.0
  0
ARC
  5
580
100
AcDbEntity
  8
DISEGNO
100
AcDbCircle
 10
-1809.750685
 20
-1553.83635
 30
0.0
 40
10.0
100
AcDbArc
 50
180.0
 51
188.0
  0
ARC
  5
581
100
AcDbEntity
  8
DISEGNO
100
AcDbCircle
 10
-1809.750685
 20
-1481.972112
 30
0.0
 40
10.0
100
AcDbArc
 50
150.0
 51
180.0
  0
LINE
  5
584
100
AcDbEntity
  8
DISEGNO
100
AcDbLine
 10
-1823.939762
 20
-1581.092903
 30
0.0
 11
-1835.750685
 21
-1529.934172
 31
0.0
  0
LINE
  5
586
100
AcDbEntity
  8
DISEGNO
100
AcDbLine
 10
-1823.850057
 20
-1583.704163
 30
0.0
 11
-1823.850057
 21
-1581.880232
 31
0.0
  0
ARC
  5
588
100
AcDbEntity
  8
DISEGNO
100
AcDbCircle
 10
-1827.350057
 20
-1581.880232
 30
0.0
 40
3.5
100
AcDbArc
 50
0.0
 51
13.0
  0
LINE
  5
589
100
AcDbEntity
  8
DISEGNO
100
AcDbLine
 10
-1810.750685
 20
-1421.904163
 30
0.0
 11
-1813.550685
 21
-1420.287582
 31
0.0
  0
LINE
  5
58A
100
AcDbEntity
  8
DISEGNO
100
AcDbLine
 10
-1810.750685
 20
-1433.451168
 30
0.0
 11
-1813.550685
 21
-1431.834587
 31
0.0
  0
LINE
  5
58B
100
AcDbEntity
  8
DISEGNO
100
AcDbLine
 10
-1813.550685
 20
-1420.287582
 30
0.0
 11
-1813.550685
 21
-1431.834587
 31
0.0
  0
LINE
  5
58C
100
AcDbEntity
  8
DISEGNO
100
AcDbLine
 10
-1810.750685
 20
-1433.451168
 30
0.0
 11
-1810.750685
 21
-1463.704163
 31
0.0
  0
LINE
  5
58D
100
AcDbEntity
  8
DISEGNO
100
AcDbLine
 10
-1825.950685
 20
-1420.287582
 30
0.0
 11
-1825.950685
 21
-1431.834587
 31
0.0
  0
LINE
  5
58E
100
AcDbEntity
  8
DISEGNO
100
AcDbLine
 10
-1828.750685
 20
-1433.451168
 30
0.0
 11
-1825.950685
 21
-1431.834587
 31
0.0
  0
LINE
  5
58F
100
AcDbEntity
  8
DISEGNO
100
AcDbLine
 10
-1828.750685
 20
-1421.904163
 30
0.0
 11
-1825.950685
 21
-1420.287582
 31
0.0
  0
LINE
  5
590
100
AcDbEntity
  8
DISEGNO
100
AcDbLine
 10
-1828.750685
 20
-1433.451168
 30
0.0
 11
-1828.750685
 21
-1439.704163
 31
0.0
  0
LINE
  5
591
100
AcDbEntity
  8
DISEGNO
100
AcDbLine
 10
-1828.750685
 20
-1439.704163
 30
0.0
 11
-1828.150685
 21
-1439.704163
 31
0.0
  0
LINE
  5
592
100
AcDbEntity
  8
DISEGNO
100
AcDbLine
 10
-1828.150685
 20
-1439.704163
 30
0.0
 11
-1828.150685
 21
-1441.704163
 31
0.0
  0
LINE
  5
68C
100
AcDbEntity
  8
ASSI
100
AcDbLine
 10
-1819.750685
 20
-1414.570783
 30
0.0
 11
-1819.750685
 21
-1390.305372
 31
0.0
  0
LINE
  5
7A4
100
AcDbEntity
  8
DISEGNO
100
AcDbLine
 10
-1828.750685
 20
-1404.704163
 30
0.0
 11
-1827.750685
 21
-1403.704163
 31
0.0
  0
LINE
  5
7A5
100
AcDbEntity
  8
DISEGNO
100
AcDbLine
 10
-1811.750685
 20
-1403.704163
 30
0.0
 11
-1810.750685
 21
-1404.704163
 31
0.0
  0
LINE
  5
7A6
100
AcDbEntity
  8
DISEGNO
100
AcDbLine
 10
-1835.750685
 20
-1442.704163
 30
0.0
 11
-1834.750685
 21
-1441.704163
 31
0.0
  0
LINE
  5
7D0
100
AcDbEntity
  8
ASSI
100
AcDbLine
 10
-1819.750685
 20
-1432.438074
 30
0.0
 11
-1819.750685
 21
-1420.067478
 31
0.0
  0
LINE
  5
82F
100
AcDbEntity
  8
ASSI
100
AcDbLine
 10
-1819.750685
 20
-1580.488818
 30
0.0
 11
-1819.750685
 21
-1436.479763
 31
0.0
  0
LINE
  5
C96
100
AcDbEntity
  8
ASSI
100
AcDbLine
 10
-1298.059443
 20
-1609.826456
 30
0.0
 11
-1298.059443
 21
-1588.248859
 31
0.0
1001
ACAD
1000
ASC_BOUNDS
1002
{
1070
    19
1002
}
  0
LINE
  5
CA1
100
AcDbEntity
  8
ASSI
100
AcDbLine
 10
-1298.059443
 20
-1580.488818
 30
0.0
 11
-1298.059443
 21
-1436.479763
 31
0.0
  0
LINE
  5
CE0
100
AcDbEntity
  8
ASSI
100
AcDbLine
 10
-1298.059443
 20
-1414.570783
 30
0.0
 11
-1298.059443
 21
-1390.305372
 31
0.0
  0
LINE
  5
CED
100
AcDbEntity
  8
ASSI
100
AcDbLine
 10
-1298.059443
 20
-1432.188997
 30
0.0
 11
-1298.059443
 21
-1420.067478
 31
0.0
  0
LINE
  5
14BC
100
AcDbEntity
  8
ASSI
100
AcDbLine
 10
-2580.309431
 20
-1580.488818
 30
0.0
 11
-2580.309431
 21
-1436.479763
 31
0.0
  0
LINE
  5
14C1
100
AcDbEntity
  8
ASSI
100
AcDbLine
 10
-2580.309431
 20
-1414.570783
 30
0.0
 11
-2580.309431
 21
-1390.305372
 31
0.0
  0
VIEWPORT
  5
940
100
AcDbEntity
 67
     1
  8
0
100
AcDbViewport
 10
7.223971
 20
4.5
 30
0.0
 40
231.16707
 41
144.0
 68
    -1
 69
     1
1001
ACAD
1000
MVIEW
1002
{
1070
    16
1010
0.0
1020
0.0
1030
0.0
1010
0.0
1020
0.0
1030
1.0
1040
0.0
1040
144.0
1040
7.223971
1040
4.5
1040
50.0
1040
0.0
1040
0.0
1070
     0
1070
   100
1070
     1
1070
     0
1070
     0
1070
     0
1070
     0
1070
     0
1040
0.0
1040
0.0
1040
0.0
1040
10.0
1040
10.0
1040
10.0
1040
10.0
1070
     0
1002
{
1002
}
1002
}
  0
ENDSEC
  0
SECTION
  2
OBJECTS
  0
DICTIONARY
  5
C
100
AcDbDictionary
  3
ACAD_GROUP
350
D
  3
ACAD_MLINESTYLE
350
E
  0
DICTIONARY
  5
D
102
{ACAD_REACTORS
330
C
102
}
100
AcDbDictionary
  0
DICTIONARY
  5
E
102
{ACAD_REACTORS
330
C
102
}
100
AcDbDictionary
  3
STANDARD
350
1C
  0
MLINESTYLE
  5
1C
102
{ACAD_REACTORS
330
E
102
}
100
AcDbMlineStyle
  2
STANDARD
 70
     0
  3

 62
     0
 51
90.0
 52
90.0
 71
     2
 49
0.5
 62
   256
  6
BYLAYER
 49
-0.5
 62
   256
  6
BYLAYER
  0
ENDSEC
  0
EOF
