  0
SECTION
  2
HEADER
  9
$ACADVER
  1
AC1012
  9
$DWGCODEPAGE
  3
iso8859-1
  9
$INSBASE
 10
0.0
 20
0.0
 30
0.0
  9
$EXTMIN
 10
6.84992
 20
5.0
 30
0.0
  9
$EXTMAX
 10
202.0
 20
288.0
 30
0.0
  9
$LIMMIN
 10
0.0
 20
0.0
  9
$LIMMAX
 10
210.0
 20
297.0
  9
$ORTHOMODE
 70
     0
  9
$REGENMODE
 70
     1
  9
$FILLMODE
 70
     1
  9
$QTEXTMODE
 70
     0
  9
$MIRRTEXT
 70
     1
  9
$DRAGMODE
 70
     2
  9
$LTSCALE
 40
1.0
  9
$OSMODE
 70
     0
  9
$ATTMODE
 70
     1
  9
$TEXTSIZE
 40
3.0
  9
$TRACEWID
 40
0.05
  9
$TEXTSTYLE
  7
STANDARD
  9
$CLAYER
  8
QUOTE
  9
$CELTYPE
  6
BYLAYER
  9
$CECOLOR
 62
   256
  9
$CELTSCALE
 40
1.0
  9
$DELOBJ
 70
     1
  9
$DISPSILH
 70
     0
  9
$DIMSCALE
 40
1.0
  9
$DIMASZ
 40
2.5
  9
$DIMEXO
 40
0.625
  9
$DIMDLI
 40
3.75
  9
$DIMRND
 40
0.0
  9
$DIMDLE
 40
0.0
  9
$DIMEXE
 40
1.25
  9
$DIMTP
 40
0.0
  9
$DIMTM
 40
0.0
  9
$DIMTXT
 40
3.0
  9
$DIMCEN
 40
2.5
  9
$DIMTSZ
 40
0.0
  9
$DIMTOL
 70
     0
  9
$DIMLIM
 70
     0
  9
$DIMTIH
 70
     0
  9
$DIMTOH
 70
     0
  9
$DIMSE1
 70
     0
  9
$DIMSE2
 70
     0
  9
$DIMTAD
 70
     1
  9
$DIMZIN
 70
     8
  9
$DIMBLK
  1

  9
$DIMASO
 70
     1
  9
$DIMSHO
 70
     1
  9
$DIMPOST
  1

  9
$DIMAPOST
  1

  9
$DIMALT
 70
     0
  9
$DIMALTD
 70
     2
  9
$DIMALTF
 40
0.03937
  9
$DIMLFAC
 40
1.0
  9
$DIMTOFL
 70
     0
  9
$DIMTVP
 40
0.0
  9
$DIMTIX
 70
     0
  9
$DIMSOXD
 70
     0
  9
$DIMSAH
 70
     0
  9
$DIMBLK1
  1

  9
$DIMBLK2
  1

  9
$DIMSTYLE
  2
STANDARD
  9
$DIMCLRD
 70
     0
  9
$DIMCLRE
 70
     0
  9
$DIMCLRT
 70
     0
  9
$DIMTFAC
 40
1.0
  9
$DIMGAP
 40
0.625
  9
$DIMJUST
 70
     0
  9
$DIMSD1
 70
     0
  9
$DIMSD2
 70
     0
  9
$DIMTOLJ
 70
     1
  9
$DIMTZIN
 70
     8
  9
$DIMALTZ
 70
     0
  9
$DIMALTTZ
 70
     0
  9
$DIMFIT
 70
     3
  9
$DIMUPT
 70
     0
  9
$DIMUNIT
 70
     2
  9
$DIMDEC
 70
     2
  9
$DIMTDEC
 70
     2
  9
$DIMALTU
 70
     2
  9
$DIMALTTD
 70
     2
  9
$DIMTXSTY
  7
STANDARD
  9
$DIMAUNIT
 70
     0
  9
$LUNITS
 70
     2
  9
$LUPREC
 70
     4
  9
$SKETCHINC
 40
0.1
  9
$FILLETRAD
 40
0.6
  9
$AUNITS
 70
     0
  9
$AUPREC
 70
     0
  9
$MENU
  1
acad
  9
$ELEVATION
 40
0.0
  9
$PELEVATION
 40
0.0
  9
$THICKNESS
 40
0.0
  9
$LIMCHECK
 70
     0
  9
$BLIPMODE
 70
     1
  9
$CHAMFERA
 40
0.5
  9
$CHAMFERB
 40
0.5
  9
$CHAMFERC
 40
20.0
  9
$CHAMFERD
 40
0.0
  9
$SKPOLY
 70
     0
  9
$TDCREATE
 40
2451760.691588773
  9
$TDUPDATE
 40
2452158.673174769
  9
$TDINDWG
 40
0.0533725694
  9
$TDUSRTIMER
 40
0.0533725694
  9
$USRTIMER
 70
     1
  9
$ANGBASE
 50
0.0
  9
$ANGDIR
 70
     0
  9
$PDMODE
 70
     0
  9
$PDSIZE
 40
0.0
  9
$PLINEWID
 40
0.0
  9
$COORDS
 70
     1
  9
$SPLFRAME
 70
     0
  9
$SPLINETYPE
 70
     6
  9
$SPLINESEGS
 70
     8
  9
$ATTDIA
 70
     0
  9
$ATTREQ
 70
     1
  9
$HANDLING
 70
     1
  9
$HANDSEED
  5
713
  9
$SURFTAB1
 70
     6
  9
$SURFTAB2
 70
     6
  9
$SURFTYPE
 70
     6
  9
$SURFU
 70
     6
  9
$SURFV
 70
     6
  9
$UCSNAME
  2

  9
$UCSORG
 10
0.0
 20
0.0
 30
0.0
  9
$UCSXDIR
 10
1.0
 20
0.0
 30
0.0
  9
$UCSYDIR
 10
0.0
 20
1.0
 30
0.0
  9
$PUCSNAME
  2

  9
$PUCSORG
 10
0.0
 20
0.0
 30
0.0
  9
$PUCSXDIR
 10
1.0
 20
0.0
 30
0.0
  9
$PUCSYDIR
 10
0.0
 20
1.0
 30
0.0
  9
$USERI1
 70
     0
  9
$USERI2
 70
     0
  9
$USERI3
 70
     0
  9
$USERI4
 70
     0
  9
$USERI5
 70
     0
  9
$USERR1
 40
0.0
  9
$USERR2
 40
0.0
  9
$USERR3
 40
0.0
  9
$USERR4
 40
0.0
  9
$USERR5
 40
0.0
  9
$WORLDVIEW
 70
     1
  9
$SHADEDGE
 70
     3
  9
$SHADEDIF
 70
    70
  9
$TILEMODE
 70
     1
  9
$MAXACTVP
 70
    16
  9
$PINSBASE
 10
0.0
 20
0.0
 30
0.0
  9
$PLIMCHECK
 70
     0
  9
$PEXTMIN
 10
1.000000E+20
 20
1.000000E+20
 30
1.000000E+20
  9
$PEXTMAX
 10
-1.000000E+20
 20
-1.000000E+20
 30
-1.000000E+20
  9
$PLIMMIN
 10
0.0
 20
0.0
  9
$PLIMMAX
 10
12.0
 20
9.0
  9
$UNITMODE
 70
     0
  9
$VISRETAIN
 70
     0
  9
$PLINEGEN
 70
     0
  9
$PSLTSCALE
 70
     1
  9
$TREEDEPTH
 70
  3020
  9
$PICKSTYLE
 70
     1
  9
$CMLSTYLE
  2
STANDARD
  9
$CMLJUST
 70
     0
  9
$CMLSCALE
 40
20.0
  9
$SAVEIMAGES
 70
     0
  0
ENDSEC
  0
SECTION
  2
CLASSES
  0
ENDSEC
  0
SECTION
  2
TABLES
  0
TABLE
  2
VPORT
  5
8
100
AcDbSymbolTable
 70
     2
  0
VPORT
  5
712
100
AcDbSymbolTableRecord
100
AcDbViewportTableRecord
  2
*ACTIVE
 70
     0
 10
0.0
 20
0.0
 11
1.0
 21
1.0
 12
65.503993
 22
148.082545
 13
0.0
 23
0.0
 14
10.0
 24
10.0
 15
10.0
 25
10.0
 16
0.0
 26
0.0
 36
1.0
 17
0.0
 27
0.0
 37
0.0
 40
501.36588
 41
1.650113
 42
50.0
 43
0.0
 44
0.0
 50
0.0
 51
0.0
 71
     0
 72
   100
 73
     1
 74
     0
 75
     0
 76
     0
 77
     0
 78
     0
  0
ENDTAB
  0
TABLE
  2
LTYPE
  5
5
100
AcDbSymbolTable
 70
     4
  0
LTYPE
  5
13
100
AcDbSymbolTableRecord
100
AcDbLinetypeTableRecord
  2
BYBLOCK
 70
     0
  3

 72
    65
 73
     0
 40
0.0
  0
LTYPE
  5
14
100
AcDbSymbolTableRecord
100
AcDbLinetypeTableRecord
  2
BYLAYER
 70
     0
  3

 72
    65
 73
     0
 40
0.0
  0
LTYPE
  5
15
100
AcDbSymbolTableRecord
100
AcDbLinetypeTableRecord
  2
CONTINUOUS
 70
    64
  3
Solid line
 72
    65
 73
     0
 40
0.0
  0
LTYPE
  5
94
100
AcDbSymbolTableRecord
100
AcDbLinetypeTableRecord
  2
ACAD_ISO04W100
 70
    64
  3
____ . ____ . ____ . ____ . ____ . ____ . ____ 
 72
    65
 73
     4
 40
30.5
 49
24.0
 74
     0
 49
-3.0
 74
     0
 49
0.5
 74
     0
 49
-3.0
 74
     0
  0
LTYPE
  5
225
100
AcDbSymbolTableRecord
100
AcDbLinetypeTableRecord
  2
TRATTEGGIATAX2
 70
    64
  3
____  ____  ____  ____  ____  ____  ____  ____ 
 72
    65
 73
     2
 40
1.5
 49
1.0
 74
     0
 49
-0.5
 74
     0
  0
LTYPE
  5
226
100
AcDbSymbolTableRecord
100
AcDbLinetypeTableRecord
  2
NASCOSTA
 70
    64
  3
__ __ __ __ __ __ __ __ __ __ __ __ __ __ __ __
 72
    65
 73
     2
 40
0.375
 49
0.25
 74
     0
 49
-0.125
 74
     0
  0
ENDTAB
  0
TABLE
  2
LAYER
  5
2
100
AcDbSymbolTable
 70
     9
  0
LAYER
  5
F
100
AcDbSymbolTableRecord
100
AcDbLayerTableRecord
  2
0
 70
     0
 62
     7
  6
CONTINUOUS
  0
LAYER
  5
95
100
AcDbSymbolTableRecord
100
AcDbLayerTableRecord
  2
DISEGNO
 70
    64
 62
     7
  6
CONTINUOUS
  0
LAYER
  5
96
100
AcDbSymbolTableRecord
100
AcDbLayerTableRecord
  2
ASSI
 70
    64
 62
     1
  6
ACAD_ISO04W100
  0
LAYER
  5
97
100
AcDbSymbolTableRecord
100
AcDbLayerTableRecord
  2
SEZIONE
 70
    64
 62
     3
  6
CONTINUOUS
  0
LAYER
  5
98
100
AcDbSymbolTableRecord
100
AcDbLayerTableRecord
  2
TEMPRA
 70
    64
 62
     2
  6
CONTINUOUS
  0
LAYER
  5
99
100
AcDbSymbolTableRecord
100
AcDbLayerTableRecord
  2
QUOTE
 70
    64
 62
     5
  6
CONTINUOUS
  0
LAYER
  5
9A
100
AcDbSymbolTableRecord
100
AcDbLayerTableRecord
  2
FOGLIO
 70
    64
 62
     8
  6
CONTINUOUS
  0
LAYER
  5
1A3
100
AcDbSymbolTableRecord
100
AcDbLayerTableRecord
  2
TRATTO
 70
    64
 62
     6
  6
NASCOSTA
  0
LAYER
  5
285
100
AcDbSymbolTableRecord
100
AcDbLayerTableRecord
  2
DEFPOINTS
 70
    64
 62
     7
  6
CONTINUOUS
  0
ENDTAB
  0
TABLE
  2
STYLE
  5
3
100
AcDbSymbolTable
 70
     2
  0
STYLE
  5
10
100
AcDbSymbolTableRecord
100
AcDbTextStyleTableRecord
  2
STANDARD
 70
    64
 40
0.0
 41
1.1
 50
0.0
 71
     0
 42
3.0
  3
D:\Programmi\AutoCAD LT\isocp.shx
  4

  0
STYLE
  5
B0
100
AcDbSymbolTableRecord
100
AcDbTextStyleTableRecord
  2
STYLE3
 70
    64
 40
0.0
 41
1.5
 50
0.0
 71
     0
 42
4.0
  3
C:\Programmi\AutoCAD LT\isocp3.shx
  4

  0
ENDTAB
  0
TABLE
  2
VIEW
  5
6
100
AcDbSymbolTable
 70
     0
  0
ENDTAB
  0
TABLE
  2
UCS
  5
7
100
AcDbSymbolTable
 70
     0
  0
ENDTAB
  0
TABLE
  2
APPID
  5
9
100
AcDbSymbolTable
 70
     1
  0
APPID
  5
11
100
AcDbSymbolTableRecord
100
AcDbRegAppTableRecord
  2
ACAD
 70
     0
  0
ENDTAB
  0
TABLE
  2
DIMSTYLE
  5
A
100
AcDbSymbolTable
 70
    12
  0
DIMSTYLE
105
1D
100
AcDbSymbolTableRecord
100
AcDbDimStyleTableRecord
  2
STANDARD
 70
     0
  3

  4

  5

  6

  7

 40
1.0
 41
2.5
 42
0.625
 43
3.75
 44
1.25
 45
0.0
 46
0.0
 47
0.0
 48
0.0
140
3.0
141
2.5
142
0.0
143
0.03937
144
1.0
145
0.0
146
1.0
147
0.625
 71
     0
 72
     0
 73
     0
 74
     0
 75
     0
 76
     0
 77
     1
 78
     8
170
     0
171
     2
172
     0
173
     0
174
     0
175
     0
176
     0
177
     0
178
     0
270
     2
271
     2
272
     2
273
     2
274
     2
340
10
275
     0
280
     0
281
     0
282
     0
283
     1
284
     8
285
     0
286
     0
287
     3
288
     0
  0
DIMSTYLE
105
198
100
AcDbSymbolTableRecord
100
AcDbDimStyleTableRecord
  2
TOLL-06
 70
     0
  3

  4

  5

  6

  7

 40
1.0
 41
2.5
 42
0.625
 43
3.75
 44
1.25
 45
0.0
 46
0.0
 47
-0.05
 48
0.0
140
3.0
141
2.5
142
0.0
143
0.03937
144
1.0
145
0.0
146
0.8
147
0.625
 71
     1
 72
     0
 73
     0
 74
     0
 75
     0
 76
     0
 77
     1
 78
     8
170
     0
171
     2
172
     0
173
     0
174
     0
175
     0
176
     0
177
     0
178
     0
270
     2
271
     2
272
     2
273
     2
274
     2
340
10
275
     0
280
     0
281
     0
282
     0
283
     2
284
     8
285
     0
286
     0
287
     3
288
     0
  0
DIMSTYLE
105
20B
100
AcDbSymbolTableRecord
100
AcDbDimStyleTableRecord
  2
TOLL-01
 70
     0
  3

  4

  5

  6

  7

 40
1.0
 41
2.5
 42
0.625
 43
3.75
 44
1.25
 45
0.0
 46
0.0
 47
0.02
 48
0.0
140
3.0
141
2.5
142
0.0
143
0.03937
144
1.0
145
0.0
146
0.8
147
0.625
 71
     1
 72
     0
 73
     0
 74
     0
 75
     0
 76
     0
 77
     1
 78
     8
170
     0
171
     2
172
     0
173
     0
174
     0
175
     0
176
     0
177
     0
178
     0
270
     2
271
     2
272
     2
273
     2
274
     2
340
10
275
     0
280
     0
281
     0
282
     0
283
     2
284
     8
285
     0
286
     0
287
     3
288
     0
  0
DIMSTYLE
105
232
100
AcDbSymbolTableRecord
100
AcDbDimStyleTableRecord
  2
TOLL-02
 70
     0
  3

  4

  5

  6

  7

 40
1.0
 41
2.5
 42
0.625
 43
3.75
 44
1.25
 45
0.0
 46
0.0
 47
-0.02
 48
0.0
140
3.0
141
2.5
142
0.0
143
0.03937
144
1.0
145
0.0
146
0.8
147
0.625
 71
     1
 72
     0
 73
     0
 74
     0
 75
     0
 76
     0
 77
     1
 78
     8
170
     0
171
     2
172
     0
173
     0
174
     0
175
     0
176
     0
177
     0
178
     0
270
     2
271
     2
272
     2
273
     2
274
     2
340
10
275
     0
280
     0
281
     0
282
     0
283
     2
284
     8
285
     0
286
     0
287
     3
288
     0
  0
DIMSTYLE
105
233
100
AcDbSymbolTableRecord
100
AcDbDimStyleTableRecord
  2
TOLL-03
 70
     0
  3

  4

  5

  6

  7

 40
1.0
 41
2.5
 42
0.625
 43
3.75
 44
1.25
 45
0.0
 46
0.0
 47
0.01
 48
0.01
140
3.0
141
2.5
142
0.0
143
0.03937
144
1.0
145
0.0
146
0.8
147
0.625
 71
     1
 72
     0
 73
     0
 74
     0
 75
     0
 76
     0
 77
     1
 78
     8
170
     0
171
     2
172
     0
173
     0
174
     0
175
     0
176
     0
177
     0
178
     0
270
     2
271
     2
272
     2
273
     2
274
     2
340
10
275
     0
280
     0
281
     0
282
     0
283
     2
284
     8
285
     0
286
     0
287
     3
288
     0
  0
DIMSTYLE
105
234
100
AcDbSymbolTableRecord
100
AcDbDimStyleTableRecord
  2
TOLL-04
 70
     0
  3

  4

  5

  6

  7

 40
1.0
 41
2.5
 42
0.625
 43
3.75
 44
1.25
 45
0.0
 46
0.0
 47
0.05
 48
0.05
140
3.0
141
2.5
142
0.0
143
0.03937
144
1.0
145
0.0
146
0.8
147
0.625
 71
     1
 72
     0
 73
     0
 74
     0
 75
     0
 76
     0
 77
     1
 78
     8
170
     0
171
     2
172
     0
173
     0
174
     0
175
     0
176
     0
177
     0
178
     0
270
     2
271
     2
272
     2
273
     2
274
     2
340
10
275
     0
280
     0
281
     0
282
     0
283
     2
284
     8
285
     0
286
     0
287
     3
288
     0
  0
DIMSTYLE
105
235
100
AcDbSymbolTableRecord
100
AcDbDimStyleTableRecord
  2
TOLL-05
 70
     0
  3

  4

  5

  6

  7

 40
1.0
 41
2.5
 42
0.625
 43
3.75
 44
1.25
 45
0.0
 46
0.0
 47
0.05
 48
0.0
140
3.0
141
2.5
142
0.0
143
0.03937
144
1.0
145
0.0
146
0.8
147
0.625
 71
     1
 72
     0
 73
     0
 74
     0
 75
     0
 76
     0
 77
     1
 78
     8
170
     0
171
     2
172
     0
173
     0
174
     0
175
     0
176
     0
177
     0
178
     0
270
     2
271
     2
272
     2
273
     2
274
     2
340
10
275
     0
280
     0
281
     0
282
     0
283
     2
284
     8
285
     0
286
     0
287
     3
288
     0
  0
DIMSTYLE
105
247
100
AcDbSymbolTableRecord
100
AcDbDimStyleTableRecord
  2
TOLL-07
 70
     0
  3

  4

  5

  6

  7

 40
1.0
 41
2.5
 42
0.625
 43
3.75
 44
1.25
 45
0.0
 46
0.0
 47
0.1
 48
0.1
140
3.0
141
2.5
142
0.0
143
0.03937
144
1.0
145
0.0
146
1.0
147
0.625
 71
     1
 72
     0
 73
     0
 74
     0
 75
     0
 76
     0
 77
     1
 78
     8
170
     0
171
     2
172
     0
173
     0
174
     0
175
     0
176
     0
177
     0
178
     0
270
     2
271
     2
272
     2
273
     2
274
     2
340
10
275
     0
280
     0
281
     0
282
     0
283
     1
284
     8
285
     0
286
     0
287
     3
288
     0
  0
DIMSTYLE
105
251
100
AcDbSymbolTableRecord
100
AcDbDimStyleTableRecord
  2
TOLL-08
 70
     0
  3

  4

  5

  6

  7

 40
1.0
 41
2.5
 42
0.625
 43
3.75
 44
1.25
 45
0.0
 46
0.0
 47
0.1
 48
0.0
140
3.0
141
2.5
142
0.0
143
0.03937
144
1.0
145
0.0
146
1.0
147
0.625
 71
     1
 72
     0
 73
     0
 74
     0
 75
     0
 76
     0
 77
     1
 78
     8
170
     0
171
     2
172
     0
173
     0
174
     0
175
     0
176
     0
177
     0
178
     0
270
     2
271
     2
272
     2
273
     2
274
     2
340
10
275
     0
280
     0
281
     0
282
     0
283
     1
284
     8
285
     0
286
     0
287
     3
288
     0
  0
DIMSTYLE
105
257
100
AcDbSymbolTableRecord
100
AcDbDimStyleTableRecord
  2
TOLL-09
 70
     0
  3

  4

  5

  6

  7

 40
1.0
 41
2.5
 42
0.625
 43
3.75
 44
1.25
 45
0.0
 46
0.0
 47
-0.1
 48
0.0
140
3.0
141
2.5
142
0.0
143
0.03937
144
1.0
145
0.0
146
1.0
147
0.625
 71
     1
 72
     0
 73
     0
 74
     0
 75
     0
 76
     0
 77
     1
 78
     8
170
     0
171
     2
172
     0
173
     0
174
     0
175
     0
176
     0
177
     0
178
     0
270
     2
271
     2
272
     2
273
     2
274
     2
340
10
275
     0
280
     0
281
     0
282
     0
283
     1
284
     8
285
     0
286
     0
287
     3
288
     0
  0
DIMSTYLE
105
258
100
AcDbSymbolTableRecord
100
AcDbDimStyleTableRecord
  2
TOLL-10
 70
     0
  3

  4

  5

  6

  7

 40
1.0
 41
2.5
 42
0.625
 43
3.75
 44
1.25
 45
0.0
 46
0.0
 47
0.2
 48
0.2
140
3.0
141
2.5
142
0.0
143
0.03937
144
1.0
145
0.0
146
1.0
147
0.625
 71
     1
 72
     0
 73
     0
 74
     0
 75
     0
 76
     0
 77
     1
 78
     8
170
     0
171
     2
172
     0
173
     0
174
     0
175
     0
176
     0
177
     0
178
     0
270
     2
271
     2
272
     2
273
     2
274
     2
340
10
275
     0
280
     0
281
     0
282
     0
283
     1
284
     8
285
     0
286
     0
287
     3
288
     0
  0
DIMSTYLE
105
259
100
AcDbSymbolTableRecord
100
AcDbDimStyleTableRecord
  2
TOLL-11
 70
     0
  3

  4

  5

  6

  7

 40
1.0
 41
2.5
 42
0.625
 43
3.75
 44
1.25
 45
0.0
 46
0.0
 47
0.2
 48
0.0
140
3.0
141
2.5
142
0.0
143
0.03937
144
1.0
145
0.0
146
1.0
147
0.625
 71
     1
 72
     0
 73
     0
 74
     0
 75
     0
 76
     0
 77
     1
 78
     8
170
     0
171
     2
172
     0
173
     0
174
     0
175
     0
176
     0
177
     0
178
     0
270
     2
271
     2
272
     2
273
     2
274
     2
340
10
275
     0
280
     0
281
     0
282
     0
283
     1
284
     8
285
     0
286
     0
287
     3
288
     0
  0
ENDTAB
  0
TABLE
  2
BLOCK_RECORD
  5
1
100
AcDbSymbolTable
 70
    24
  0
BLOCK_RECORD
  5
19
100
AcDbSymbolTableRecord
100
AcDbBlockTableRecord
  2
*MODEL_SPACE
  0
BLOCK_RECORD
  5
16
100
AcDbSymbolTableRecord
100
AcDbBlockTableRecord
  2
*PAPER_SPACE
  0
BLOCK_RECORD
  5
27D
100
AcDbSymbolTableRecord
100
AcDbBlockTableRecord
  2
*D0
  0
BLOCK_RECORD
  5
28B
100
AcDbSymbolTableRecord
100
AcDbBlockTableRecord
  2
*D1
  0
BLOCK_RECORD
  5
2B4
100
AcDbSymbolTableRecord
100
AcDbBlockTableRecord
  2
*D2
  0
BLOCK_RECORD
  5
2C2
100
AcDbSymbolTableRecord
100
AcDbBlockTableRecord
  2
*D3
  0
BLOCK_RECORD
  5
2D3
100
AcDbSymbolTableRecord
100
AcDbBlockTableRecord
  2
*D4
  0
BLOCK_RECORD
  5
2EA
100
AcDbSymbolTableRecord
100
AcDbBlockTableRecord
  2
*D5
  0
BLOCK_RECORD
  5
300
100
AcDbSymbolTableRecord
100
AcDbBlockTableRecord
  2
*D6
  0
BLOCK_RECORD
  5
31E
100
AcDbSymbolTableRecord
100
AcDbBlockTableRecord
  2
*D7
  0
BLOCK_RECORD
  5
379
100
AcDbSymbolTableRecord
100
AcDbBlockTableRecord
  2
*X8
  0
BLOCK_RECORD
  5
4BC
100
AcDbSymbolTableRecord
100
AcDbBlockTableRecord
  2
*D9
  0
BLOCK_RECORD
  5
4C9
100
AcDbSymbolTableRecord
100
AcDbBlockTableRecord
  2
*D10
  0
BLOCK_RECORD
  5
534
100
AcDbSymbolTableRecord
100
AcDbBlockTableRecord
  2
*D11
  0
BLOCK_RECORD
  5
541
100
AcDbSymbolTableRecord
100
AcDbBlockTableRecord
  2
*D12
  0
BLOCK_RECORD
  5
54E
100
AcDbSymbolTableRecord
100
AcDbBlockTableRecord
  2
*D13
  0
BLOCK_RECORD
  5
559
100
AcDbSymbolTableRecord
100
AcDbBlockTableRecord
  2
*D14
  0
BLOCK_RECORD
  5
5A9
100
AcDbSymbolTableRecord
100
AcDbBlockTableRecord
  2
*D15
  0
BLOCK_RECORD
  5
5B7
100
AcDbSymbolTableRecord
100
AcDbBlockTableRecord
  2
*D16
  0
BLOCK_RECORD
  5
5C4
100
AcDbSymbolTableRecord
100
AcDbBlockTableRecord
  2
*D17
  0
BLOCK_RECORD
  5
634
100
AcDbSymbolTableRecord
100
AcDbBlockTableRecord
  2
*D18
  0
BLOCK_RECORD
  5
677
100
AcDbSymbolTableRecord
100
AcDbBlockTableRecord
  2
*D19
  0
BLOCK_RECORD
  5
683
100
AcDbSymbolTableRecord
100
AcDbBlockTableRecord
  2
*D20
  0
BLOCK_RECORD
  5
68F
100
AcDbSymbolTableRecord
100
AcDbBlockTableRecord
  2
*D21
  0
BLOCK_RECORD
  5
69B
100
AcDbSymbolTableRecord
100
AcDbBlockTableRecord
  2
*D22
  0
BLOCK_RECORD
  5
6BF
100
AcDbSymbolTableRecord
100
AcDbBlockTableRecord
  2
RUGOSITA
  0
ENDTAB
  0
ENDSEC
  0
SECTION
  2
BLOCKS
  0
BLOCK
  5
1A
100
AcDbEntity
  8
0
100
AcDbBlockBegin
  2
*MODEL_SPACE
 70
     0
 10
0.0
 20
0.0
 30
0.0
  3
*MODEL_SPACE
  1

  0
ENDBLK
  5
1B
100
AcDbEntity
  8
0
100
AcDbBlockEnd
  0
BLOCK
  5
17
100
AcDbEntity
 67
     1
  8
0
100
AcDbBlockBegin
  2
*PAPER_SPACE
 70
     0
 10
0.0
 20
0.0
 30
0.0
  3
*PAPER_SPACE
  1

  0
ENDBLK
  5
18
100
AcDbEntity
 67
     1
  8
0
100
AcDbBlockEnd
  0
BLOCK
  5
2A3
100
AcDbEntity
  8
0
100
AcDbBlockBegin
  2
*D0
 70
    65
 10
0.0
 20
0.0
 30
0.0
  3
*D0
  1

  0
LINE
  5
2A4
100
AcDbEntity
  8
0
  6
BYBLOCK
 62
     0
100
AcDbLine
 10
70.17286
 20
112.028743
 30
0.0
 11
70.17286
 21
92.837663
 31
0.0
  0
LINE
  5
2A5
100
AcDbEntity
  8
0
  6
BYBLOCK
 62
     0
100
AcDbLine
 10
130.17286
 20
112.028743
 30
0.0
 11
130.17286
 21
92.837663
 31
0.0
  0
LINE
  5
2A6
100
AcDbEntity
  8
0
  6
BYBLOCK
 62
     0
100
AcDbLine
 10
72.67286
 20
94.087663
 30
0.0
 11
127.67286
 21
94.087663
 31
0.0
  0
SOLID
  5
2A7
100
AcDbEntity
  8
0
  6
BYBLOCK
 62
     0
100
AcDbTrace
 10
72.67286
 20
94.50433
 30
0.0
 11
72.67286
 21
93.670996
 31
0.0
 12
70.17286
 22
94.087663
 32
0.0
 13
70.17286
 23
94.087663
 33
0.0
  0
SOLID
  5
2A8
100
AcDbEntity
  8
0
  6
BYBLOCK
 62
     0
100
AcDbTrace
 10
127.67286
 20
94.50433
 30
0.0
 11
127.67286
 21
93.670996
 31
0.0
 12
130.17286
 22
94.087663
 32
0.0
 13
130.17286
 23
94.087663
 33
0.0
  0
MTEXT
  5
2A9
100
AcDbEntity
  8
0
  6
BYBLOCK
 62
     0
100
AcDbMText
 10
100.17286
 20
97.453372
 30
0.0
 40
3.0
 41
0.0
 71
     5
 72
     1
  1
\A2;60{\H2.400000;\S+0.02^  0;}
  0
POINT
  5
2AA
100
AcDbEntity
  8
DEFPOINTS
  6
BYBLOCK
 62
     0
100
AcDbPoint
 10
70.17286
 20
112.653743
 30
0.0
  0
POINT
  5
2AB
100
AcDbEntity
  8
DEFPOINTS
  6
BYBLOCK
 62
     0
100
AcDbPoint
 10
130.17286
 20
112.653743
 30
0.0
  0
POINT
  5
2AC
100
AcDbEntity
  8
DEFPOINTS
  6
BYBLOCK
 62
     0
100
AcDbPoint
 10
130.17286
 20
94.087663
 30
0.0
  0
ENDBLK
  5
2AD
100
AcDbEntity
  8
0
100
AcDbBlockEnd
  0
BLOCK
  5
298
100
AcDbEntity
  8
0
100
AcDbBlockBegin
  2
*D1
 70
    65
 10
0.0
 20
0.0
 30
0.0
  3
*D1
  1

  0
LINE
  5
299
100
AcDbEntity
  8
0
  6
BYBLOCK
 62
     0
100
AcDbLine
 10
70.54786
 20
171.653743
 30
0.0
 11
48.858357
 21
171.653743
 31
0.0
  0
LINE
  5
29A
100
AcDbEntity
  8
0
  6
BYBLOCK
 62
     0
100
AcDbLine
 10
70.54786
 20
111.653743
 30
0.0
 11
48.858357
 21
111.653743
 31
0.0
  0
LINE
  5
29B
100
AcDbEntity
  8
0
  6
BYBLOCK
 62
     0
100
AcDbLine
 10
50.108357
 20
169.153743
 30
0.0
 11
50.108357
 21
114.153743
 31
0.0
  0
SOLID
  5
29C
100
AcDbEntity
  8
0
  6
BYBLOCK
 62
     0
100
AcDbTrace
 10
49.69169
 20
169.153743
 30
0.0
 11
50.525024
 21
169.153743
 31
0.0
 12
50.108357
 22
171.653743
 32
0.0
 13
50.108357
 23
171.653743
 33
0.0
  0
SOLID
  5
29D
100
AcDbEntity
  8
0
  6
BYBLOCK
 62
     0
100
AcDbTrace
 10
49.69169
 20
114.153743
 30
0.0
 11
50.525024
 21
114.153743
 31
0.0
 12
50.108357
 22
111.653743
 32
0.0
 13
50.108357
 23
111.653743
 33
0.0
  0
MTEXT
  5
29E
100
AcDbEntity
  8
0
  6
BYBLOCK
 62
     0
100
AcDbMText
 10
46.742648
 20
141.653743
 30
0.0
 40
3.0
 41
0.0
 71
     5
 72
     1
  1
\A2;60{\H2.400000;\S+0.02^  0;}
 11
0.0
 21
1.0
 31
0.0
  0
POINT
  5
29F
100
AcDbEntity
  8
DEFPOINTS
  6
BYBLOCK
 62
     0
100
AcDbPoint
 10
71.17286
 20
171.653743
 30
0.0
  0
POINT
  5
2A0
100
AcDbEntity
  8
DEFPOINTS
  6
BYBLOCK
 62
     0
100
AcDbPoint
 10
71.17286
 20
111.653743
 30
0.0
  0
POINT
  5
2A1
100
AcDbEntity
  8
DEFPOINTS
  6
BYBLOCK
 62
     0
100
AcDbPoint
 10
50.108357
 20
111.653743
 30
0.0
  0
ENDBLK
  5
2A2
100
AcDbEntity
  8
0
100
AcDbBlockEnd
  0
BLOCK
  5
2B5
100
AcDbEntity
  8
0
100
AcDbBlockBegin
  2
*D2
 70
    65
 10
0.0
 20
0.0
 30
0.0
  3
*D2
  1

  0
LINE
  5
2B6
100
AcDbEntity
  8
0
  6
BYBLOCK
 62
     0
100
AcDbLine
 10
97.17286
 20
172.278743
 30
0.0
 11
97.17286
 21
185.414137
 31
0.0
  0
LINE
  5
2B7
100
AcDbEntity
  8
0
  6
BYBLOCK
 62
     0
100
AcDbLine
 10
103.17286
 20
172.278743
 30
0.0
 11
103.17286
 21
185.414137
 31
0.0
  0
LINE
  5
2B8
100
AcDbEntity
  8
0
  6
BYBLOCK
 62
     0
100
AcDbLine
 10
94.67286
 20
184.164137
 30
0.0
 11
92.17286
 21
184.164137
 31
0.0
  0
LINE
  5
2B9
100
AcDbEntity
  8
0
  6
BYBLOCK
 62
     0
100
AcDbLine
 10
105.67286
 20
184.164137
 30
0.0
 11
108.17286
 21
184.164137
 31
0.0
  0
SOLID
  5
2BA
100
AcDbEntity
  8
0
  6
BYBLOCK
 62
     0
100
AcDbTrace
 10
94.67286
 20
184.580804
 30
0.0
 11
94.67286
 21
183.747471
 31
0.0
 12
97.17286
 22
184.164137
 32
0.0
 13
97.17286
 23
184.164137
 33
0.0
  0
SOLID
  5
2BB
100
AcDbEntity
  8
0
  6
BYBLOCK
 62
     0
100
AcDbTrace
 10
105.67286
 20
184.580804
 30
0.0
 11
105.67286
 21
183.747471
 31
0.0
 12
103.17286
 22
184.164137
 32
0.0
 13
103.17286
 23
184.164137
 33
0.0
  0
MTEXT
  5
2BC
100
AcDbEntity
  8
0
  6
BYBLOCK
 62
     0
100
AcDbMText
 10
100.17286
 20
186.289137
 30
0.0
 40
3.0
 41
0.0
 71
     5
 72
     1
  1
\A1;6
  0
POINT
  5
2BD
100
AcDbEntity
  8
DEFPOINTS
  6
BYBLOCK
 62
     0
100
AcDbPoint
 10
97.17286
 20
171.653743
 30
0.0
  0
POINT
  5
2BE
100
AcDbEntity
  8
DEFPOINTS
  6
BYBLOCK
 62
     0
100
AcDbPoint
 10
103.17286
 20
171.653743
 30
0.0
  0
POINT
  5
2BF
100
AcDbEntity
  8
DEFPOINTS
  6
BYBLOCK
 62
     0
100
AcDbPoint
 10
103.17286
 20
184.164137
 30
0.0
  0
ENDBLK
  5
2C0
100
AcDbEntity
  8
0
100
AcDbBlockEnd
  0
BLOCK
  5
2DE
100
AcDbEntity
  8
0
100
AcDbBlockBegin
  2
*D3
 70
    65
 10
0.0
 20
0.0
 30
0.0
  3
*D3
  1

  0
LINE
  5
2DF
100
AcDbEntity
  8
0
  6
BYBLOCK
 62
     0
100
AcDbLine
 10
130.79786
 20
146.653743
 30
0.0
 11
151.079717
 21
146.653743
 31
0.0
  0
LINE
  5
2E0
100
AcDbEntity
  8
0
  6
BYBLOCK
 62
     0
100
AcDbLine
 10
130.79786
 20
136.653743
 30
0.0
 11
151.079717
 21
136.653743
 31
0.0
  0
LINE
  5
2E1
100
AcDbEntity
  8
0
  6
BYBLOCK
 62
     0
100
AcDbLine
 10
149.829717
 20
144.153743
 30
0.0
 11
149.829717
 21
139.153743
 31
0.0
  0
SOLID
  5
2E2
100
AcDbEntity
  8
0
  6
BYBLOCK
 62
     0
100
AcDbTrace
 10
149.41305
 20
144.153743
 30
0.0
 11
150.246384
 21
144.153743
 31
0.0
 12
149.829717
 22
146.653743
 32
0.0
 13
149.829717
 23
146.653743
 33
0.0
  0
SOLID
  5
2E3
100
AcDbEntity
  8
0
  6
BYBLOCK
 62
     0
100
AcDbTrace
 10
149.41305
 20
139.153743
 30
0.0
 11
150.246384
 21
139.153743
 31
0.0
 12
149.829717
 22
136.653743
 32
0.0
 13
149.829717
 23
136.653743
 33
0.0
  0
MTEXT
  5
2E4
100
AcDbEntity
  8
0
  6
BYBLOCK
 62
     0
100
AcDbMText
 10
147.704717
 20
141.653743
 30
0.0
 40
3.0
 41
0.0
 71
     5
 72
     1
  1
\A1;10
 11
0.0
 21
1.0
 31
0.0
  0
POINT
  5
2E5
100
AcDbEntity
  8
DEFPOINTS
  6
BYBLOCK
 62
     0
100
AcDbPoint
 10
130.17286
 20
146.653743
 30
0.0
  0
POINT
  5
2E6
100
AcDbEntity
  8
DEFPOINTS
  6
BYBLOCK
 62
     0
100
AcDbPoint
 10
130.17286
 20
136.653743
 30
0.0
  0
POINT
  5
2E7
100
AcDbEntity
  8
DEFPOINTS
  6
BYBLOCK
 62
     0
100
AcDbPoint
 10
149.829717
 20
136.653743
 30
0.0
  0
ENDBLK
  5
2E8
100
AcDbEntity
  8
0
100
AcDbBlockEnd
  0
BLOCK
  5
2D4
100
AcDbEntity
  8
0
100
AcDbBlockBegin
  2
*D4
 70
    65
 10
0.0
 20
0.0
 30
0.0
  3
*D4
  1

  0
LINE
  5
2D5
100
AcDbEntity
  8
0
  6
BYBLOCK
 62
     0
100
AcDbLine
 10
131.876213
 20
144.827526
 30
0.0
 11
140.325196
 21
137.217109
 31
0.0
  0
SOLID
  5
2D6
100
AcDbEntity
  8
0
  6
BYBLOCK
 62
     0
100
AcDbTrace
 10
132.155077
 20
145.137117
 30
0.0
 11
131.59735
 21
144.517936
 31
0.0
 12
130.018671
 22
146.500707
 32
0.0
 13
130.018671
 23
146.500707
 33
0.0
  0
MTEXT
  5
2D7
100
AcDbEntity
  8
0
  6
BYBLOCK
 62
     0
100
AcDbMText
 10
138.45168
 20
141.764639
 30
0.0
 40
3.0
 41
0.0
 71
     5
 72
     1
  1
\A1;R0.6
 11
0.743017
 21
-0.669272
 31
0.0
  0
LINE
  5
2D8
100
AcDbEntity
  8
0
  6
BYBLOCK
 62
     0
100
AcDbLine
 10
127.07286
 20
146.902271
 30
0.0
 11
132.07286
 21
146.902271
 31
0.0
  0
LINE
  5
2D9
100
AcDbEntity
  8
0
  6
BYBLOCK
 62
     0
100
AcDbLine
 10
129.57286
 20
144.402271
 30
0.0
 11
129.57286
 21
149.402271
 31
0.0
  0
POINT
  5
2DA
100
AcDbEntity
  8
DEFPOINTS
  6
BYBLOCK
 62
     0
100
AcDbPoint
 10
130.018671
 20
146.500707
 30
0.0
  0
POINT
  5
2DB
100
AcDbEntity
  8
DEFPOINTS
  6
BYBLOCK
 62
     0
100
AcDbPoint
 10
129.57286
 20
146.902271
 30
0.0
  0
ENDBLK
  5
2DC
100
AcDbEntity
  8
0
100
AcDbBlockEnd
  0
BLOCK
  5
2F5
100
AcDbEntity
  8
0
100
AcDbBlockBegin
  2
*D5
 70
    65
 10
0.0
 20
0.0
 30
0.0
  3
*D5
  1

  0
LINE
  5
2F6
100
AcDbEntity
  8
0
  6
BYBLOCK
 62
     0
100
AcDbLine
 10
94.998272
 20
173.345227
 30
0.0
 11
88.441627
 21
180.1714
 31
0.0
  0
SOLID
  5
2F7
100
AcDbEntity
  8
0
  6
BYBLOCK
 62
     0
100
AcDbTrace
 10
95.298772
 20
173.633863
 30
0.0
 11
94.697771
 21
173.056592
 31
0.0
 12
96.730085
 22
171.542223
 32
0.0
 13
96.730085
 23
171.542223
 33
0.0
  0
MTEXT
  5
2F8
100
AcDbEntity
  8
0
  6
BYBLOCK
 62
     0
100
AcDbMText
 10
93.036026
 20
178.45573
 30
0.0
 40
3.0
 41
0.0
 71
     5
 72
     1
  1
\A1;R0.4
 11
0.692725
 21
-0.721202
 31
0.0
  0
LINE
  5
2F9
100
AcDbEntity
  8
0
  6
BYBLOCK
 62
     0
100
AcDbLine
 10
94.507175
 20
171.253743
 30
0.0
 11
99.507175
 21
171.253743
 31
0.0
  0
LINE
  5
2FA
100
AcDbEntity
  8
0
  6
BYBLOCK
 62
     0
100
AcDbLine
 10
97.007175
 20
168.753743
 30
0.0
 11
97.007175
 21
173.753743
 31
0.0
  0
POINT
  5
2FB
100
AcDbEntity
  8
DEFPOINTS
  6
BYBLOCK
 62
     0
100
AcDbPoint
 10
96.730085
 20
171.542223
 30
0.0
  0
POINT
  5
2FC
100
AcDbEntity
  8
DEFPOINTS
  6
BYBLOCK
 62
     0
100
AcDbPoint
 10
97.007175
 20
171.253743
 30
0.0
  0
ENDBLK
  5
2FD
100
AcDbEntity
  8
0
100
AcDbBlockEnd
  0
BLOCK
  5
310
100
AcDbEntity
  8
0
100
AcDbBlockBegin
  2
*D6
 70
    65
 10
0.0
 20
0.0
 30
0.0
  3
*D6
  1

  0
LINE
  5
311
100
AcDbEntity
  8
0
  6
BYBLOCK
 62
     0
100
AcDbLine
 10
99.730918
 20
168.211801
 30
0.0
 11
94.216835
 21
162.697717
 31
0.0
  0
LINE
  5
312
100
AcDbEntity
  8
0
  6
BYBLOCK
 62
     0
100
AcDbLine
 10
100.614802
 20
168.211801
 30
0.0
 11
106.128886
 21
162.697717
 31
0.0
  0
ARC
  5
313
100
AcDbEntity
  8
0
  6
BYBLOCK
 62
     0
100
AcDbCircle
 10
100.17286
 20
168.653743
 30
0.0
 40
7.173092
100
AcDbArc
 50
245.07147
 51
294.92853
  0
SOLID
  5
314
100
AcDbEntity
  8
0
  6
BYBLOCK
 62
     0
100
AcDbTrace
 10
96.910715
 20
161.807474
 30
0.0
 11
97.388269
 21
162.490399
 31
0.0
 12
95.100718
 22
163.5816
 32
0.0
 13
95.100718
 23
163.5816
 33
0.0
  0
SOLID
  5
315
100
AcDbEntity
  8
0
  6
BYBLOCK
 62
     0
100
AcDbTrace
 10
102.957451
 20
162.490399
 30
0.0
 11
103.435006
 21
161.807474
 31
0.0
 12
105.245002
 22
163.5816
 32
0.0
 13
105.245002
 23
163.5816
 33
0.0
  0
MTEXT
  5
316
100
AcDbEntity
  8
0
  6
BYBLOCK
 62
     0
100
AcDbMText
 10
100.438135
 20
163.612625
 30
0.0
 40
3.0
 41
0.0
 71
     5
 72
     1
  1
\A1;90°
 11
0.998618
 21
0.05255
 31
0.0
  0
POINT
  5
317
100
AcDbEntity
  8
DEFPOINTS
  6
BYBLOCK
 62
     0
100
AcDbPoint
 10
98.316327
 20
161.725067
 30
0.0
  0
POINT
  5
318
100
AcDbEntity
  8
DEFPOINTS
  6
BYBLOCK
 62
     0
100
AcDbPoint
 10
97.290018
 20
171.536585
 30
0.0
  0
POINT
  5
319
100
AcDbEntity
  8
DEFPOINTS
  6
BYBLOCK
 62
     0
100
AcDbPoint
 10
103.055703
 20
171.536585
 30
0.0
  0
POINT
  5
31A
100
AcDbEntity
  8
DEFPOINTS
  6
BYBLOCK
 62
     0
100
AcDbPoint
 10
100.17286
 20
168.653743
 30
0.0
  0
POINT
  5
31B
100
AcDbEntity
  8
DEFPOINTS
  6
BYBLOCK
 62
     0
100
AcDbPoint
 10
100.17286
 20
168.653743
 30
0.0
  0
ENDBLK
  5
31C
100
AcDbEntity
  8
0
100
AcDbBlockEnd
  0
BLOCK
  5
31F
100
AcDbEntity
  8
0
100
AcDbBlockBegin
  2
*D7
 70
    65
 10
0.0
 20
0.0
 30
0.0
  3
*D7
  1

  0
LINE
  5
320
100
AcDbEntity
  8
0
  6
BYBLOCK
 62
     0
100
AcDbLine
 10
124.730918
 20
142.095684
 30
0.0
 11
118.771855
 21
148.054748
 31
0.0
  0
LINE
  5
321
100
AcDbEntity
  8
0
  6
BYBLOCK
 62
     0
100
AcDbLine
 10
124.730918
 20
141.211801
 30
0.0
 11
118.771855
 21
135.252738
 31
0.0
  0
ARC
  5
322
100
AcDbEntity
  8
0
  6
BYBLOCK
 62
     0
100
AcDbCircle
 10
125.17286
 20
141.653743
 30
0.0
 40
7.802388
100
AcDbArc
 50
153.437865
 51
206.562135
  0
SOLID
  5
323
100
AcDbEntity
  8
0
  6
BYBLOCK
 62
     0
100
AcDbTrace
 10
117.855991
 20
145.386342
 30
0.0
 11
118.532038
 21
144.899101
 31
0.0
 12
119.655739
 22
147.170864
 32
0.0
 13
119.655739
 23
147.170864
 33
0.0
  0
SOLID
  5
324
100
AcDbEntity
  8
0
  6
BYBLOCK
 62
     0
100
AcDbTrace
 10
118.532038
 20
138.408384
 30
0.0
 11
117.855991
 21
137.921143
 31
0.0
 12
119.655739
 22
136.136621
 32
0.0
 13
119.655739
 23
136.136621
 33
0.0
  0
MTEXT
  5
325
100
AcDbEntity
  8
0
  6
BYBLOCK
 62
     0
100
AcDbMText
 10
115.245472
 20
141.653743
 30
0.0
 40
3.0
 41
0.0
 71
     5
 72
     1
  1
\A1;90°
 11
0.0
 21
1.0
 31
0.0
  0
POINT
  5
326
100
AcDbEntity
  8
DEFPOINTS
  6
BYBLOCK
 62
     0
100
AcDbPoint
 10
117.636332
 20
143.673149
 30
0.0
  0
POINT
  5
327
100
AcDbEntity
  8
DEFPOINTS
  6
BYBLOCK
 62
     0
100
AcDbPoint
 10
129.997124
 20
146.478007
 30
0.0
  0
POINT
  5
328
100
AcDbEntity
  8
DEFPOINTS
  6
BYBLOCK
 62
     0
100
AcDbPoint
 10
129.997124
 20
136.829478
 30
0.0
  0
POINT
  5
329
100
AcDbEntity
  8
DEFPOINTS
  6
BYBLOCK
 62
     0
100
AcDbPoint
 10
125.17286
 20
141.653743
 30
0.0
  0
POINT
  5
32A
100
AcDbEntity
  8
DEFPOINTS
  6
BYBLOCK
 62
     0
100
AcDbPoint
 10
125.17286
 20
141.653743
 30
0.0
  0
ENDBLK
  5
32B
100
AcDbEntity
  8
0
100
AcDbBlockEnd
  0
BLOCK
  5
37A
100
AcDbEntity
  8
0
100
AcDbBlockBegin
  2
*X8
 70
    65
 10
0.0
 20
0.0
 30
0.0
  3
*X8
  1

  0
LINE
  5
37C
100
AcDbEntity
  8
0
 62
     0
100
AcDbLine
 10
106.022538
 20
170.455876
 30
0.0
 11
106.17286
 21
170.606198
 31
0.0
  0
LINE
  5
37D
100
AcDbEntity
  8
0
 62
     0
100
AcDbLine
 10
105.798032
 20
170.455876
 30
0.0
 11
106.17286
 21
170.830704
 31
0.0
  0
LINE
  5
37E
100
AcDbEntity
  8
0
 62
     0
100
AcDbLine
 10
105.573526
 20
170.455876
 30
0.0
 11
106.17286
 21
171.055211
 31
0.0
  0
LINE
  5
37F
100
AcDbEntity
  8
0
 62
     0
100
AcDbLine
 10
105.349019
 20
170.455876
 30
0.0
 11
106.109873
 21
171.21673
 31
0.0
  0
LINE
  5
380
100
AcDbEntity
  8
0
 62
     0
100
AcDbLine
 10
105.124513
 20
170.455876
 30
0.0
 11
105.99762
 21
171.328983
 31
0.0
  0
LINE
  5
381
100
AcDbEntity
  8
0
 62
     0
100
AcDbLine
 10
104.900006
 20
170.455876
 30
0.0
 11
105.885367
 21
171.441236
 31
0.0
  0
LINE
  5
382
100
AcDbEntity
  8
0
 62
     0
100
AcDbLine
 10
104.6755
 20
170.455876
 30
0.0
 11
105.773113
 21
171.553489
 31
0.0
  0
LINE
  5
383
100
AcDbEntity
  8
0
 62
     0
100
AcDbLine
 10
104.450994
 20
170.455876
 30
0.0
 11
105.64886
 21
171.653743
 31
0.0
  0
LINE
  5
384
100
AcDbEntity
  8
0
 62
     0
100
AcDbLine
 10
104.226487
 20
170.455876
 30
0.0
 11
105.424354
 21
171.653743
 31
0.0
  0
LINE
  5
385
100
AcDbEntity
  8
0
 62
     0
100
AcDbLine
 10
104.001981
 20
170.455876
 30
0.0
 11
105.199847
 21
171.653743
 31
0.0
  0
LINE
  5
386
100
AcDbEntity
  8
0
 62
     0
100
AcDbLine
 10
103.777474
 20
170.455876
 30
0.0
 11
104.975341
 21
171.653743
 31
0.0
  0
LINE
  5
387
100
AcDbEntity
  8
0
 62
     0
100
AcDbLine
 10
103.552968
 20
170.455876
 30
0.0
 11
104.750834
 21
171.653743
 31
0.0
  0
LINE
  5
388
100
AcDbEntity
  8
0
 62
     0
100
AcDbLine
 10
103.328461
 20
170.455876
 30
0.0
 11
104.526328
 21
171.653743
 31
0.0
  0
LINE
  5
389
100
AcDbEntity
  8
0
 62
     0
100
AcDbLine
 10
103.007943
 20
170.359864
 30
0.0
 11
104.301822
 21
171.653743
 31
0.0
  0
LINE
  5
38A
100
AcDbEntity
  8
0
 62
     0
100
AcDbLine
 10
102.658
 20
170.234427
 30
0.0
 11
104.077315
 21
171.653743
 31
0.0
  0
LINE
  5
38B
100
AcDbEntity
  8
0
 62
     0
100
AcDbLine
 10
102.308056
 20
170.10899
 30
0.0
 11
103.852809
 21
171.653743
 31
0.0
  0
LINE
  5
38C
100
AcDbEntity
  8
0
 62
     0
100
AcDbLine
 10
101.958113
 20
169.983553
 30
0.0
 11
103.628302
 21
171.653743
 31
0.0
  0
LINE
  5
38D
100
AcDbEntity
  8
0
 62
     0
100
AcDbLine
 10
101.608169
 20
169.858116
 30
0.0
 11
103.403796
 21
171.653743
 31
0.0
  0
LINE
  5
38E
100
AcDbEntity
  8
0
 62
     0
100
AcDbLine
 10
101.258226
 20
169.732679
 30
0.0
 11
103.10144
 21
171.575893
 31
0.0
  0
LINE
  5
38F
100
AcDbEntity
  8
0
 62
     0
100
AcDbLine
 10
99.017962
 20
169.737479
 30
0.0
 11
99.053543
 21
169.77306
 31
0.0
  0
LINE
  5
390
100
AcDbEntity
  8
0
 62
     0
100
AcDbLine
 10
98.840856
 20
169.78488
 30
0.0
 11
98.94129
 21
169.885313
 31
0.0
  0
LINE
  5
391
100
AcDbEntity
  8
0
 62
     0
100
AcDbLine
 10
98.66375
 20
169.83228
 30
0.0
 11
98.829037
 21
169.997566
 31
0.0
  0
LINE
  5
392
100
AcDbEntity
  8
0
 62
     0
100
AcDbLine
 10
98.486644
 20
169.879681
 30
0.0
 11
98.716783
 21
170.109819
 31
0.0
  0
LINE
  5
393
100
AcDbEntity
  8
0
 62
     0
100
AcDbLine
 10
98.309539
 20
169.927081
 30
0.0
 11
98.60453
 21
170.222073
 31
0.0
  0
LINE
  5
394
100
AcDbEntity
  8
0
 62
     0
100
AcDbLine
 10
98.132433
 20
169.974482
 30
0.0
 11
98.492277
 21
170.334326
 31
0.0
  0
LINE
  5
395
100
AcDbEntity
  8
0
 62
     0
100
AcDbLine
 10
97.955327
 20
170.021882
 30
0.0
 11
98.380024
 21
170.446579
 31
0.0
  0
LINE
  5
396
100
AcDbEntity
  8
0
 62
     0
100
AcDbLine
 10
97.778221
 20
170.069283
 30
0.0
 11
98.267771
 21
170.558832
 31
0.0
  0
LINE
  5
397
100
AcDbEntity
  8
0
 62
     0
100
AcDbLine
 10
97.601115
 20
170.116683
 30
0.0
 11
98.155517
 21
170.671085
 31
0.0
  0
LINE
  5
398
100
AcDbEntity
  8
0
 62
     0
100
AcDbLine
 10
97.424009
 20
170.164084
 30
0.0
 11
98.043264
 21
170.783339
 31
0.0
  0
LINE
  5
399
100
AcDbEntity
  8
0
 62
     0
100
AcDbLine
 10
97.246903
 20
170.211484
 30
0.0
 11
97.931011
 21
170.895592
 31
0.0
  0
LINE
  5
39A
100
AcDbEntity
  8
0
 62
     0
100
AcDbLine
 10
97.069797
 20
170.258885
 30
0.0
 11
97.818758
 21
171.007845
 31
0.0
  0
LINE
  5
39B
100
AcDbEntity
  8
0
 62
     0
100
AcDbLine
 10
96.892691
 20
170.306285
 30
0.0
 11
97.706504
 21
171.120098
 31
0.0
  0
LINE
  5
39C
100
AcDbEntity
  8
0
 62
     0
100
AcDbLine
 10
96.715586
 20
170.353686
 30
0.0
 11
97.594251
 21
171.232351
 31
0.0
  0
LINE
  5
39D
100
AcDbEntity
  8
0
 62
     0
100
AcDbLine
 10
96.53848
 20
170.401086
 30
0.0
 11
97.481998
 21
171.344605
 31
0.0
  0
LINE
  5
39E
100
AcDbEntity
  8
0
 62
     0
100
AcDbLine
 10
96.361374
 20
170.448487
 30
0.0
 11
97.369745
 21
171.456858
 31
0.0
  0
LINE
  5
39F
100
AcDbEntity
  8
0
 62
     0
100
AcDbLine
 10
96.144257
 20
170.455876
 30
0.0
 11
97.255615
 21
171.567235
 31
0.0
  0
LINE
  5
3A0
100
AcDbEntity
  8
0
 62
     0
100
AcDbLine
 10
95.91975
 20
170.455876
 30
0.0
 11
97.105375
 21
171.641501
 31
0.0
  0
LINE
  5
3A1
100
AcDbEntity
  8
0
 62
     0
100
AcDbLine
 10
95.695244
 20
170.455876
 30
0.0
 11
96.89311
 21
171.653743
 31
0.0
  0
LINE
  5
3A2
100
AcDbEntity
  8
0
 62
     0
100
AcDbLine
 10
95.470737
 20
170.455876
 30
0.0
 11
96.668604
 21
171.653743
 31
0.0
  0
LINE
  5
3A3
100
AcDbEntity
  8
0
 62
     0
100
AcDbLine
 10
95.246231
 20
170.455876
 30
0.0
 11
96.444098
 21
171.653743
 31
0.0
  0
LINE
  5
3A4
100
AcDbEntity
  8
0
 62
     0
100
AcDbLine
 10
95.021725
 20
170.455876
 30
0.0
 11
96.219591
 21
171.653743
 31
0.0
  0
LINE
  5
3A5
100
AcDbEntity
  8
0
 62
     0
100
AcDbLine
 10
94.797218
 20
170.455876
 30
0.0
 11
95.995085
 21
171.653743
 31
0.0
  0
LINE
  5
3A6
100
AcDbEntity
  8
0
 62
     0
100
AcDbLine
 10
94.572712
 20
170.455876
 30
0.0
 11
95.770578
 21
171.653743
 31
0.0
  0
LINE
  5
3A7
100
AcDbEntity
  8
0
 62
     0
100
AcDbLine
 10
94.348205
 20
170.455876
 30
0.0
 11
95.546072
 21
171.653743
 31
0.0
  0
LINE
  5
3A8
100
AcDbEntity
  8
0
 62
     0
100
AcDbLine
 10
94.123699
 20
170.455876
 30
0.0
 11
95.321566
 21
171.653743
 31
0.0
  0
LINE
  5
3A9
100
AcDbEntity
  8
0
 62
     0
100
AcDbLine
 10
93.899193
 20
170.455876
 30
0.0
 11
95.097059
 21
171.653743
 31
0.0
  0
LINE
  5
3AA
100
AcDbEntity
  8
0
 62
     0
100
AcDbLine
 10
93.674686
 20
170.455876
 30
0.0
 11
94.872553
 21
171.653743
 31
0.0
  0
LINE
  5
3AB
100
AcDbEntity
  8
0
 62
     0
100
AcDbLine
 10
93.45018
 20
170.455876
 30
0.0
 11
94.648046
 21
171.653743
 31
0.0
  0
LINE
  5
3AC
100
AcDbEntity
  8
0
 62
     0
100
AcDbLine
 10
93.225673
 20
170.455876
 30
0.0
 11
94.42354
 21
171.653743
 31
0.0
  0
LINE
  5
3AD
100
AcDbEntity
  8
0
 62
     0
100
AcDbLine
 10
93.001167
 20
170.455876
 30
0.0
 11
94.199034
 21
171.653743
 31
0.0
  0
LINE
  5
3AE
100
AcDbEntity
  8
0
 62
     0
100
AcDbLine
 10
92.776661
 20
170.455876
 30
0.0
 11
93.974527
 21
171.653743
 31
0.0
  0
LINE
  5
3AF
100
AcDbEntity
  8
0
 62
     0
100
AcDbLine
 10
92.552154
 20
170.455876
 30
0.0
 11
93.750021
 21
171.653743
 31
0.0
  0
LINE
  5
3B0
100
AcDbEntity
  8
0
 62
     0
100
AcDbLine
 10
92.327648
 20
170.455876
 30
0.0
 11
93.525514
 21
171.653743
 31
0.0
  0
LINE
  5
3B1
100
AcDbEntity
  8
0
 62
     0
100
AcDbLine
 10
92.103141
 20
170.455876
 30
0.0
 11
93.301008
 21
171.653743
 31
0.0
  0
LINE
  5
3B2
100
AcDbEntity
  8
0
 62
     0
100
AcDbLine
 10
91.878635
 20
170.455876
 30
0.0
 11
93.076502
 21
171.653743
 31
0.0
  0
LINE
  5
3B3
100
AcDbEntity
  8
0
 62
     0
100
AcDbLine
 10
91.654129
 20
170.455876
 30
0.0
 11
92.851995
 21
171.653743
 31
0.0
  0
LINE
  5
3B4
100
AcDbEntity
  8
0
 62
     0
100
AcDbLine
 10
91.429622
 20
170.455876
 30
0.0
 11
92.627489
 21
171.653743
 31
0.0
  0
LINE
  5
3B5
100
AcDbEntity
  8
0
 62
     0
100
AcDbLine
 10
91.205116
 20
170.455876
 30
0.0
 11
92.402982
 21
171.653743
 31
0.0
  0
LINE
  5
3B6
100
AcDbEntity
  8
0
 62
     0
100
AcDbLine
 10
90.980609
 20
170.455876
 30
0.0
 11
92.178476
 21
171.653743
 31
0.0
  0
LINE
  5
3B7
100
AcDbEntity
  8
0
 62
     0
100
AcDbLine
 10
90.756103
 20
170.455876
 30
0.0
 11
91.953969
 21
171.653743
 31
0.0
  0
LINE
  5
3B8
100
AcDbEntity
  8
0
 62
     0
100
AcDbLine
 10
90.531597
 20
170.455876
 30
0.0
 11
91.729463
 21
171.653743
 31
0.0
  0
LINE
  5
3B9
100
AcDbEntity
  8
0
 62
     0
100
AcDbLine
 10
90.30709
 20
170.455876
 30
0.0
 11
91.504957
 21
171.653743
 31
0.0
  0
LINE
  5
3BA
100
AcDbEntity
  8
0
 62
     0
100
AcDbLine
 10
90.082584
 20
170.455876
 30
0.0
 11
91.28045
 21
171.653743
 31
0.0
  0
LINE
  5
3BB
100
AcDbEntity
  8
0
 62
     0
100
AcDbLine
 10
89.858077
 20
170.455876
 30
0.0
 11
91.055944
 21
171.653743
 31
0.0
  0
LINE
  5
3BC
100
AcDbEntity
  8
0
 62
     0
100
AcDbLine
 10
89.633571
 20
170.455876
 30
0.0
 11
90.831437
 21
171.653743
 31
0.0
  0
LINE
  5
3BD
100
AcDbEntity
  8
0
 62
     0
100
AcDbLine
 10
89.409065
 20
170.455876
 30
0.0
 11
90.606931
 21
171.653743
 31
0.0
  0
LINE
  5
3BE
100
AcDbEntity
  8
0
 62
     0
100
AcDbLine
 10
89.184558
 20
170.455876
 30
0.0
 11
90.382425
 21
171.653743
 31
0.0
  0
LINE
  5
3BF
100
AcDbEntity
  8
0
 62
     0
100
AcDbLine
 10
88.960052
 20
170.455876
 30
0.0
 11
90.157918
 21
171.653743
 31
0.0
  0
LINE
  5
3C0
100
AcDbEntity
  8
0
 62
     0
100
AcDbLine
 10
88.735545
 20
170.455876
 30
0.0
 11
89.933412
 21
171.653743
 31
0.0
  0
LINE
  5
3C1
100
AcDbEntity
  8
0
 62
     0
100
AcDbLine
 10
88.511039
 20
170.455876
 30
0.0
 11
89.708905
 21
171.653743
 31
0.0
  0
LINE
  5
3C2
100
AcDbEntity
  8
0
 62
     0
100
AcDbLine
 10
88.286532
 20
170.455876
 30
0.0
 11
89.484399
 21
171.653743
 31
0.0
  0
LINE
  5
3C3
100
AcDbEntity
  8
0
 62
     0
100
AcDbLine
 10
88.062026
 20
170.455876
 30
0.0
 11
89.259893
 21
171.653743
 31
0.0
  0
LINE
  5
3C4
100
AcDbEntity
  8
0
 62
     0
100
AcDbLine
 10
87.83752
 20
170.455876
 30
0.0
 11
89.035386
 21
171.653743
 31
0.0
  0
LINE
  5
3C5
100
AcDbEntity
  8
0
 62
     0
100
AcDbLine
 10
87.613013
 20
170.455876
 30
0.0
 11
88.81088
 21
171.653743
 31
0.0
  0
LINE
  5
3C6
100
AcDbEntity
  8
0
 62
     0
100
AcDbLine
 10
87.388507
 20
170.455876
 30
0.0
 11
88.586373
 21
171.653743
 31
0.0
  0
LINE
  5
3C7
100
AcDbEntity
  8
0
 62
     0
100
AcDbLine
 10
87.164
 20
170.455876
 30
0.0
 11
88.361867
 21
171.653743
 31
0.0
  0
LINE
  5
3C8
100
AcDbEntity
  8
0
 62
     0
100
AcDbLine
 10
86.939494
 20
170.455876
 30
0.0
 11
88.137361
 21
171.653743
 31
0.0
  0
LINE
  5
3C9
100
AcDbEntity
  8
0
 62
     0
100
AcDbLine
 10
86.714988
 20
170.455876
 30
0.0
 11
87.912854
 21
171.653743
 31
0.0
  0
LINE
  5
3CA
100
AcDbEntity
  8
0
 62
     0
100
AcDbLine
 10
86.490481
 20
170.455876
 30
0.0
 11
87.688348
 21
171.653743
 31
0.0
  0
LINE
  5
3CB
100
AcDbEntity
  8
0
 62
     0
100
AcDbLine
 10
86.265975
 20
170.455876
 30
0.0
 11
87.463841
 21
171.653743
 31
0.0
  0
LINE
  5
3CC
100
AcDbEntity
  8
0
 62
     0
100
AcDbLine
 10
86.041468
 20
170.455876
 30
0.0
 11
87.239335
 21
171.653743
 31
0.0
  0
LINE
  5
3CD
100
AcDbEntity
  8
0
 62
     0
100
AcDbLine
 10
85.816962
 20
170.455876
 30
0.0
 11
87.014829
 21
171.653743
 31
0.0
  0
LINE
  5
3CE
100
AcDbEntity
  8
0
 62
     0
100
AcDbLine
 10
85.592456
 20
170.455876
 30
0.0
 11
86.790322
 21
171.653743
 31
0.0
  0
LINE
  5
3CF
100
AcDbEntity
  8
0
 62
     0
100
AcDbLine
 10
85.367949
 20
170.455876
 30
0.0
 11
86.565816
 21
171.653743
 31
0.0
  0
LINE
  5
3D0
100
AcDbEntity
  8
0
 62
     0
100
AcDbLine
 10
85.143443
 20
170.455876
 30
0.0
 11
86.341309
 21
171.653743
 31
0.0
  0
LINE
  5
3D1
100
AcDbEntity
  8
0
 62
     0
100
AcDbLine
 10
84.918936
 20
170.455876
 30
0.0
 11
86.116803
 21
171.653743
 31
0.0
  0
LINE
  5
3D2
100
AcDbEntity
  8
0
 62
     0
100
AcDbLine
 10
84.69443
 20
170.455876
 30
0.0
 11
85.892297
 21
171.653743
 31
0.0
  0
LINE
  5
3D3
100
AcDbEntity
  8
0
 62
     0
100
AcDbLine
 10
84.469924
 20
170.455876
 30
0.0
 11
85.66779
 21
171.653743
 31
0.0
  0
LINE
  5
3D4
100
AcDbEntity
  8
0
 62
     0
100
AcDbLine
 10
84.245417
 20
170.455876
 30
0.0
 11
85.443284
 21
171.653743
 31
0.0
  0
LINE
  5
3D5
100
AcDbEntity
  8
0
 62
     0
100
AcDbLine
 10
84.020911
 20
170.455876
 30
0.0
 11
85.218777
 21
171.653743
 31
0.0
  0
LINE
  5
3D6
100
AcDbEntity
  8
0
 62
     0
100
AcDbLine
 10
83.796404
 20
170.455876
 30
0.0
 11
84.994271
 21
171.653743
 31
0.0
  0
LINE
  5
3D7
100
AcDbEntity
  8
0
 62
     0
100
AcDbLine
 10
83.571898
 20
170.455876
 30
0.0
 11
84.769765
 21
171.653743
 31
0.0
  0
LINE
  5
3D8
100
AcDbEntity
  8
0
 62
     0
100
AcDbLine
 10
83.347392
 20
170.455876
 30
0.0
 11
84.545258
 21
171.653743
 31
0.0
  0
LINE
  5
3D9
100
AcDbEntity
  8
0
 62
     0
100
AcDbLine
 10
83.122885
 20
170.455876
 30
0.0
 11
84.320752
 21
171.653743
 31
0.0
  0
LINE
  5
3DA
100
AcDbEntity
  8
0
 62
     0
100
AcDbLine
 10
82.898379
 20
170.455876
 30
0.0
 11
84.096245
 21
171.653743
 31
0.0
  0
LINE
  5
3DB
100
AcDbEntity
  8
0
 62
     0
100
AcDbLine
 10
82.673872
 20
170.455876
 30
0.0
 11
83.871739
 21
171.653743
 31
0.0
  0
LINE
  5
3DC
100
AcDbEntity
  8
0
 62
     0
100
AcDbLine
 10
82.449366
 20
170.455876
 30
0.0
 11
83.647233
 21
171.653743
 31
0.0
  0
LINE
  5
3DD
100
AcDbEntity
  8
0
 62
     0
100
AcDbLine
 10
82.22486
 20
170.455876
 30
0.0
 11
83.422726
 21
171.653743
 31
0.0
  0
LINE
  5
3DE
100
AcDbEntity
  8
0
 62
     0
100
AcDbLine
 10
82.000353
 20
170.455876
 30
0.0
 11
83.19822
 21
171.653743
 31
0.0
  0
LINE
  5
3DF
100
AcDbEntity
  8
0
 62
     0
100
AcDbLine
 10
81.775847
 20
170.455876
 30
0.0
 11
82.973713
 21
171.653743
 31
0.0
  0
LINE
  5
3E0
100
AcDbEntity
  8
0
 62
     0
100
AcDbLine
 10
81.55134
 20
170.455876
 30
0.0
 11
82.749207
 21
171.653743
 31
0.0
  0
LINE
  5
3E1
100
AcDbEntity
  8
0
 62
     0
100
AcDbLine
 10
81.326834
 20
170.455876
 30
0.0
 11
82.524701
 21
171.653743
 31
0.0
  0
LINE
  5
3E2
100
AcDbEntity
  8
0
 62
     0
100
AcDbLine
 10
81.102328
 20
170.455876
 30
0.0
 11
82.300194
 21
171.653743
 31
0.0
  0
LINE
  5
3E3
100
AcDbEntity
  8
0
 62
     0
100
AcDbLine
 10
80.877821
 20
170.455876
 30
0.0
 11
82.075688
 21
171.653743
 31
0.0
  0
LINE
  5
3E4
100
AcDbEntity
  8
0
 62
     0
100
AcDbLine
 10
80.653315
 20
170.455876
 30
0.0
 11
81.851181
 21
171.653743
 31
0.0
  0
LINE
  5
3E5
100
AcDbEntity
  8
0
 62
     0
100
AcDbLine
 10
80.428808
 20
170.455876
 30
0.0
 11
81.626675
 21
171.653743
 31
0.0
  0
LINE
  5
3E6
100
AcDbEntity
  8
0
 62
     0
100
AcDbLine
 10
80.204302
 20
170.455876
 30
0.0
 11
81.402169
 21
171.653743
 31
0.0
  0
LINE
  5
3E7
100
AcDbEntity
  8
0
 62
     0
100
AcDbLine
 10
79.979796
 20
170.455876
 30
0.0
 11
81.177662
 21
171.653743
 31
0.0
  0
LINE
  5
3E8
100
AcDbEntity
  8
0
 62
     0
100
AcDbLine
 10
79.755289
 20
170.455876
 30
0.0
 11
80.953156
 21
171.653743
 31
0.0
  0
LINE
  5
3E9
100
AcDbEntity
  8
0
 62
     0
100
AcDbLine
 10
79.530783
 20
170.455876
 30
0.0
 11
80.728649
 21
171.653743
 31
0.0
  0
LINE
  5
3EA
100
AcDbEntity
  8
0
 62
     0
100
AcDbLine
 10
79.306276
 20
170.455876
 30
0.0
 11
80.504143
 21
171.653743
 31
0.0
  0
LINE
  5
3EB
100
AcDbEntity
  8
0
 62
     0
100
AcDbLine
 10
79.08177
 20
170.455876
 30
0.0
 11
80.279637
 21
171.653743
 31
0.0
  0
LINE
  5
3EC
100
AcDbEntity
  8
0
 62
     0
100
AcDbLine
 10
78.857264
 20
170.455876
 30
0.0
 11
80.05513
 21
171.653743
 31
0.0
  0
LINE
  5
3ED
100
AcDbEntity
  8
0
 62
     0
100
AcDbLine
 10
78.632757
 20
170.455876
 30
0.0
 11
79.830624
 21
171.653743
 31
0.0
  0
LINE
  5
3EE
100
AcDbEntity
  8
0
 62
     0
100
AcDbLine
 10
78.408251
 20
170.455876
 30
0.0
 11
79.606117
 21
171.653743
 31
0.0
  0
LINE
  5
3EF
100
AcDbEntity
  8
0
 62
     0
100
AcDbLine
 10
78.183744
 20
170.455876
 30
0.0
 11
79.381611
 21
171.653743
 31
0.0
  0
LINE
  5
3F0
100
AcDbEntity
  8
0
 62
     0
100
AcDbLine
 10
77.959238
 20
170.455876
 30
0.0
 11
79.157105
 21
171.653743
 31
0.0
  0
LINE
  5
3F1
100
AcDbEntity
  8
0
 62
     0
100
AcDbLine
 10
77.734732
 20
170.455876
 30
0.0
 11
78.932598
 21
171.653743
 31
0.0
  0
LINE
  5
3F2
100
AcDbEntity
  8
0
 62
     0
100
AcDbLine
 10
77.510225
 20
170.455876
 30
0.0
 11
78.708092
 21
171.653743
 31
0.0
  0
LINE
  5
3F3
100
AcDbEntity
  8
0
 62
     0
100
AcDbLine
 10
77.285719
 20
170.455876
 30
0.0
 11
78.483585
 21
171.653743
 31
0.0
  0
LINE
  5
3F4
100
AcDbEntity
  8
0
 62
     0
100
AcDbLine
 10
77.061212
 20
170.455876
 30
0.0
 11
78.259079
 21
171.653743
 31
0.0
  0
LINE
  5
3F5
100
AcDbEntity
  8
0
 62
     0
100
AcDbLine
 10
76.836706
 20
170.455876
 30
0.0
 11
78.034572
 21
171.653743
 31
0.0
  0
LINE
  5
3F6
100
AcDbEntity
  8
0
 62
     0
100
AcDbLine
 10
76.6122
 20
170.455876
 30
0.0
 11
77.810066
 21
171.653743
 31
0.0
  0
LINE
  5
3F7
100
AcDbEntity
  8
0
 62
     0
100
AcDbLine
 10
76.387693
 20
170.455876
 30
0.0
 11
77.58556
 21
171.653743
 31
0.0
  0
LINE
  5
3F8
100
AcDbEntity
  8
0
 62
     0
100
AcDbLine
 10
76.163187
 20
170.455876
 30
0.0
 11
77.361053
 21
171.653743
 31
0.0
  0
LINE
  5
3F9
100
AcDbEntity
  8
0
 62
     0
100
AcDbLine
 10
75.93868
 20
170.455876
 30
0.0
 11
77.136547
 21
171.653743
 31
0.0
  0
LINE
  5
3FA
100
AcDbEntity
  8
0
 62
     0
100
AcDbLine
 10
75.714174
 20
170.455876
 30
0.0
 11
76.91204
 21
171.653743
 31
0.0
  0
LINE
  5
3FB
100
AcDbEntity
  8
0
 62
     0
100
AcDbLine
 10
75.489668
 20
170.455876
 30
0.0
 11
76.687534
 21
171.653743
 31
0.0
  0
LINE
  5
3FC
100
AcDbEntity
  8
0
 62
     0
100
AcDbLine
 10
75.265161
 20
170.455876
 30
0.0
 11
76.463028
 21
171.653743
 31
0.0
  0
LINE
  5
3FD
100
AcDbEntity
  8
0
 62
     0
100
AcDbLine
 10
75.040655
 20
170.455876
 30
0.0
 11
76.238521
 21
171.653743
 31
0.0
  0
LINE
  5
3FE
100
AcDbEntity
  8
0
 62
     0
100
AcDbLine
 10
74.816148
 20
170.455876
 30
0.0
 11
76.014015
 21
171.653743
 31
0.0
  0
LINE
  5
3FF
100
AcDbEntity
  8
0
 62
     0
100
AcDbLine
 10
74.591642
 20
170.455876
 30
0.0
 11
75.789508
 21
171.653743
 31
0.0
  0
LINE
  5
400
100
AcDbEntity
  8
0
 62
     0
100
AcDbLine
 10
74.367135
 20
170.455876
 30
0.0
 11
75.565002
 21
171.653743
 31
0.0
  0
LINE
  5
401
100
AcDbEntity
  8
0
 62
     0
100
AcDbLine
 10
74.142629
 20
170.455876
 30
0.0
 11
75.340496
 21
171.653743
 31
0.0
  0
LINE
  5
402
100
AcDbEntity
  8
0
 62
     0
100
AcDbLine
 10
73.918123
 20
170.455876
 30
0.0
 11
75.115989
 21
171.653743
 31
0.0
  0
LINE
  5
403
100
AcDbEntity
  8
0
 62
     0
100
AcDbLine
 10
73.693616
 20
170.455876
 30
0.0
 11
74.891483
 21
171.653743
 31
0.0
  0
LINE
  5
404
100
AcDbEntity
  8
0
 62
     0
100
AcDbLine
 10
73.46911
 20
170.455876
 30
0.0
 11
74.666976
 21
171.653743
 31
0.0
  0
LINE
  5
405
100
AcDbEntity
  8
0
 62
     0
100
AcDbLine
 10
73.244603
 20
170.455876
 30
0.0
 11
74.44247
 21
171.653743
 31
0.0
  0
LINE
  5
406
100
AcDbEntity
  8
0
 62
     0
100
AcDbLine
 10
73.020097
 20
170.455876
 30
0.0
 11
74.217964
 21
171.653743
 31
0.0
  0
LINE
  5
407
100
AcDbEntity
  8
0
 62
     0
100
AcDbLine
 10
72.795591
 20
170.455876
 30
0.0
 11
73.993457
 21
171.653743
 31
0.0
  0
LINE
  5
408
100
AcDbEntity
  8
0
 62
     0
100
AcDbLine
 10
72.571084
 20
170.455876
 30
0.0
 11
73.768951
 21
171.653743
 31
0.0
  0
LINE
  5
409
100
AcDbEntity
  8
0
 62
     0
100
AcDbLine
 10
72.346578
 20
170.455876
 30
0.0
 11
73.544444
 21
171.653743
 31
0.0
  0
LINE
  5
40A
100
AcDbEntity
  8
0
 62
     0
100
AcDbLine
 10
72.122071
 20
170.455876
 30
0.0
 11
73.319938
 21
171.653743
 31
0.0
  0
LINE
  5
40B
100
AcDbEntity
  8
0
 62
     0
100
AcDbLine
 10
71.897565
 20
170.455876
 30
0.0
 11
73.095432
 21
171.653743
 31
0.0
  0
LINE
  5
40C
100
AcDbEntity
  8
0
 62
     0
100
AcDbLine
 10
71.673059
 20
170.455876
 30
0.0
 11
72.870925
 21
171.653743
 31
0.0
  0
LINE
  5
40D
100
AcDbEntity
  8
0
 62
     0
100
AcDbLine
 10
71.448552
 20
170.455876
 30
0.0
 11
72.646419
 21
171.653743
 31
0.0
  0
LINE
  5
40E
100
AcDbEntity
  8
0
 62
     0
100
AcDbLine
 10
71.224046
 20
170.455876
 30
0.0
 11
72.421912
 21
171.653743
 31
0.0
  0
LINE
  5
40F
100
AcDbEntity
  8
0
 62
     0
100
AcDbLine
 10
70.999539
 20
170.455876
 30
0.0
 11
72.197406
 21
171.653743
 31
0.0
  0
LINE
  5
410
100
AcDbEntity
  8
0
 62
     0
100
AcDbLine
 10
70.775033
 20
170.455876
 30
0.0
 11
71.9729
 21
171.653743
 31
0.0
  0
LINE
  5
411
100
AcDbEntity
  8
0
 62
     0
100
AcDbLine
 10
70.550527
 20
170.455876
 30
0.0
 11
71.748393
 21
171.653743
 31
0.0
  0
LINE
  5
412
100
AcDbEntity
  8
0
 62
     0
100
AcDbLine
 10
70.32602
 20
170.455876
 30
0.0
 11
71.523887
 21
171.653743
 31
0.0
  0
LINE
  5
413
100
AcDbEntity
  8
0
 62
     0
100
AcDbLine
 10
70.17286
 20
170.527222
 30
0.0
 11
71.29938
 21
171.653743
 31
0.0
  0
LINE
  5
414
100
AcDbEntity
  8
0
 62
     0
100
AcDbLine
 10
128.863995
 20
151.539142
 30
0.0
 11
128.978596
 21
151.653743
 31
0.0
  0
LINE
  5
415
100
AcDbEntity
  8
0
 62
     0
100
AcDbLine
 10
128.863995
 20
151.314636
 30
0.0
 11
129.203102
 21
151.653743
 31
0.0
  0
LINE
  5
416
100
AcDbEntity
  8
0
 62
     0
100
AcDbLine
 10
128.863995
 20
151.090129
 30
0.0
 11
129.427609
 21
151.653743
 31
0.0
  0
LINE
  5
417
100
AcDbEntity
  8
0
 62
     0
100
AcDbLine
 10
128.863995
 20
150.865623
 30
0.0
 11
129.652115
 21
151.653743
 31
0.0
  0
LINE
  5
418
100
AcDbEntity
  8
0
 62
     0
100
AcDbLine
 10
128.863995
 20
150.641117
 30
0.0
 11
129.774741
 21
151.551862
 31
0.0
  0
LINE
  5
419
100
AcDbEntity
  8
0
 62
     0
100
AcDbLine
 10
128.863995
 20
150.41661
 30
0.0
 11
129.886994
 21
151.439609
 31
0.0
  0
LINE
  5
41A
100
AcDbEntity
  8
0
 62
     0
100
AcDbLine
 10
128.863995
 20
150.192104
 30
0.0
 11
129.999247
 21
151.327356
 31
0.0
  0
LINE
  5
41B
100
AcDbEntity
  8
0
 62
     0
100
AcDbLine
 10
128.863995
 20
149.967597
 30
0.0
 11
130.1115
 21
151.215102
 31
0.0
  0
LINE
  5
41C
100
AcDbEntity
  8
0
 62
     0
100
AcDbLine
 10
128.863995
 20
149.743091
 30
0.0
 11
130.17286
 21
151.051956
 31
0.0
  0
LINE
  5
41D
100
AcDbEntity
  8
0
 62
     0
100
AcDbLine
 10
128.863995
 20
149.518585
 30
0.0
 11
130.17286
 21
150.827449
 31
0.0
  0
LINE
  5
41E
100
AcDbEntity
  8
0
 62
     0
100
AcDbLine
 10
128.863995
 20
149.294078
 30
0.0
 11
130.17286
 21
150.602943
 31
0.0
  0
LINE
  5
41F
100
AcDbEntity
  8
0
 62
     0
100
AcDbLine
 10
128.863995
 20
149.069572
 30
0.0
 11
130.17286
 21
150.378436
 31
0.0
  0
LINE
  5
420
100
AcDbEntity
  8
0
 62
     0
100
AcDbLine
 10
128.863995
 20
148.845065
 30
0.0
 11
130.17286
 21
150.15393
 31
0.0
  0
LINE
  5
421
100
AcDbEntity
  8
0
 62
     0
100
AcDbLine
 10
128.863995
 20
148.620559
 30
0.0
 11
130.17286
 21
149.929424
 31
0.0
  0
LINE
  5
422
100
AcDbEntity
  8
0
 62
     0
100
AcDbLine
 10
128.863995
 20
148.396053
 30
0.0
 11
130.17286
 21
149.704917
 31
0.0
  0
LINE
  5
423
100
AcDbEntity
  8
0
 62
     0
100
AcDbLine
 10
128.863995
 20
148.171546
 30
0.0
 11
130.17286
 21
149.480411
 31
0.0
  0
LINE
  5
424
100
AcDbEntity
  8
0
 62
     0
100
AcDbLine
 10
128.863995
 20
147.94704
 30
0.0
 11
130.17286
 21
149.255904
 31
0.0
  0
LINE
  5
425
100
AcDbEntity
  8
0
 62
     0
100
AcDbLine
 10
128.863995
 20
147.722533
 30
0.0
 11
130.17286
 21
149.031398
 31
0.0
  0
LINE
  5
426
100
AcDbEntity
  8
0
 62
     0
100
AcDbLine
 10
128.863995
 20
147.498027
 30
0.0
 11
130.17286
 21
148.806892
 31
0.0
  0
LINE
  5
427
100
AcDbEntity
  8
0
 62
     0
100
AcDbLine
 10
128.735836
 20
147.145362
 30
0.0
 11
130.17286
 21
148.582385
 31
0.0
  0
LINE
  5
428
100
AcDbEntity
  8
0
 62
     0
100
AcDbLine
 10
128.452159
 20
146.637178
 30
0.0
 11
130.17286
 21
148.357879
 31
0.0
  0
LINE
  5
429
100
AcDbEntity
  8
0
 62
     0
100
AcDbLine
 10
128.168482
 20
146.128994
 30
0.0
 11
130.17286
 21
148.133372
 31
0.0
  0
LINE
  5
42A
100
AcDbEntity
  8
0
 62
     0
100
AcDbLine
 10
127.884804
 20
145.62081
 30
0.0
 11
130.17286
 21
147.908866
 31
0.0
  0
LINE
  5
42B
100
AcDbEntity
  8
0
 62
     0
100
AcDbLine
 10
127.601127
 20
145.112626
 30
0.0
 11
130.17286
 21
147.68436
 31
0.0
  0
LINE
  5
42C
100
AcDbEntity
  8
0
 62
     0
100
AcDbLine
 10
127.31745
 20
144.604443
 30
0.0
 11
130.17286
 21
147.459853
 31
0.0
  0
LINE
  5
42D
100
AcDbEntity
  8
0
 62
     0
100
AcDbLine
 10
127.033772
 20
144.096259
 30
0.0
 11
130.17286
 21
147.235347
 31
0.0
  0
LINE
  5
42E
100
AcDbEntity
  8
0
 62
     0
100
AcDbLine
 10
126.750095
 20
143.588075
 30
0.0
 11
130.17286
 21
147.01084
 31
0.0
  0
LINE
  5
42F
100
AcDbEntity
  8
0
 62
     0
100
AcDbLine
 10
126.466417
 20
143.079891
 30
0.0
 11
130.158554
 21
146.772027
 31
0.0
  0
LINE
  5
430
100
AcDbEntity
  8
0
 62
     0
100
AcDbLine
 10
127.076689
 20
139.649047
 30
0.0
 11
127.127122
 21
139.699481
 31
0.0
  0
LINE
  5
431
100
AcDbEntity
  8
0
 62
     0
100
AcDbLine
 10
127.135546
 20
139.483398
 30
0.0
 11
127.239375
 21
139.587227
 31
0.0
  0
LINE
  5
432
100
AcDbEntity
  8
0
 62
     0
100
AcDbLine
 10
127.194403
 20
139.317749
 30
0.0
 11
127.351629
 21
139.474974
 31
0.0
  0
LINE
  5
433
100
AcDbEntity
  8
0
 62
     0
100
AcDbLine
 10
127.25326
 20
139.152099
 30
0.0
 11
127.463882
 21
139.362721
 31
0.0
  0
LINE
  5
434
100
AcDbEntity
  8
0
 62
     0
100
AcDbLine
 10
127.312117
 20
138.98645
 30
0.0
 11
127.576135
 21
139.250468
 31
0.0
  0
LINE
  5
435
100
AcDbEntity
  8
0
 62
     0
100
AcDbLine
 10
127.370974
 20
138.820801
 30
0.0
 11
127.688388
 21
139.138215
 31
0.0
  0
LINE
  5
436
100
AcDbEntity
  8
0
 62
     0
100
AcDbLine
 10
127.429831
 20
138.655151
 30
0.0
 11
127.800641
 21
139.025961
 31
0.0
  0
LINE
  5
437
100
AcDbEntity
  8
0
 62
     0
100
AcDbLine
 10
127.488688
 20
138.489502
 30
0.0
 11
127.912895
 21
138.913708
 31
0.0
  0
LINE
  5
438
100
AcDbEntity
  8
0
 62
     0
100
AcDbLine
 10
127.547545
 20
138.323853
 30
0.0
 11
128.025148
 21
138.801455
 31
0.0
  0
LINE
  5
439
100
AcDbEntity
  8
0
 62
     0
100
AcDbLine
 10
127.606402
 20
138.158203
 30
0.0
 11
128.137401
 21
138.689202
 31
0.0
  0
LINE
  5
43A
100
AcDbEntity
  8
0
 62
     0
100
AcDbLine
 10
127.665259
 20
137.992554
 30
0.0
 11
128.249654
 21
138.576949
 31
0.0
  0
LINE
  5
43B
100
AcDbEntity
  8
0
 62
     0
100
AcDbLine
 10
127.724117
 20
137.826905
 30
0.0
 11
128.361907
 21
138.464695
 31
0.0
  0
LINE
  5
43C
100
AcDbEntity
  8
0
 62
     0
100
AcDbLine
 10
127.782974
 20
137.661255
 30
0.0
 11
128.474161
 21
138.352442
 31
0.0
  0
LINE
  5
43D
100
AcDbEntity
  8
0
 62
     0
100
AcDbLine
 10
127.841831
 20
137.495606
 30
0.0
 11
128.586414
 21
138.240189
 31
0.0
  0
LINE
  5
43E
100
AcDbEntity
  8
0
 62
     0
100
AcDbLine
 10
127.900688
 20
137.329957
 30
0.0
 11
128.698667
 21
138.127936
 31
0.0
  0
LINE
  5
43F
100
AcDbEntity
  8
0
 62
     0
100
AcDbLine
 10
127.959545
 20
137.164307
 30
0.0
 11
128.81092
 21
138.015683
 31
0.0
  0
LINE
  5
440
100
AcDbEntity
  8
0
 62
     0
100
AcDbLine
 10
128.018402
 20
136.998658
 30
0.0
 11
128.923173
 21
137.903429
 31
0.0
  0
LINE
  5
441
100
AcDbEntity
  8
0
 62
     0
100
AcDbLine
 10
128.077259
 20
136.833009
 30
0.0
 11
129.035427
 21
137.791176
 31
0.0
  0
LINE
  5
442
100
AcDbEntity
  8
0
 62
     0
100
AcDbLine
 10
128.136116
 20
136.66736
 30
0.0
 11
129.14768
 21
137.678923
 31
0.0
  0
LINE
  5
443
100
AcDbEntity
  8
0
 62
     0
100
AcDbLine
 10
128.194973
 20
136.50171
 30
0.0
 11
129.259933
 21
137.56667
 31
0.0
  0
LINE
  5
444
100
AcDbEntity
  8
0
 62
     0
100
AcDbLine
 10
128.25383
 20
136.336061
 30
0.0
 11
129.372186
 21
137.454417
 31
0.0
  0
LINE
  5
445
100
AcDbEntity
  8
0
 62
     0
100
AcDbLine
 10
128.312687
 20
136.170412
 30
0.0
 11
129.484439
 21
137.342163
 31
0.0
  0
LINE
  5
446
100
AcDbEntity
  8
0
 62
     0
100
AcDbLine
 10
128.371545
 20
136.004762
 30
0.0
 11
129.596693
 21
137.22991
 31
0.0
  0
LINE
  5
447
100
AcDbEntity
  8
0
 62
     0
100
AcDbLine
 10
128.430402
 20
135.839113
 30
0.0
 11
129.708946
 21
137.117657
 31
0.0
  0
LINE
  5
448
100
AcDbEntity
  8
0
 62
     0
100
AcDbLine
 10
128.489259
 20
135.673464
 30
0.0
 11
129.821199
 21
137.005404
 31
0.0
  0
LINE
  5
449
100
AcDbEntity
  8
0
 62
     0
100
AcDbLine
 10
128.548116
 20
135.507814
 30
0.0
 11
129.933452
 21
136.893151
 31
0.0
  0
LINE
  5
44A
100
AcDbEntity
  8
0
 62
     0
100
AcDbLine
 10
128.606973
 20
135.342165
 30
0.0
 11
130.042915
 21
136.778107
 31
0.0
  0
LINE
  5
44B
100
AcDbEntity
  8
0
 62
     0
100
AcDbLine
 10
128.66583
 20
135.176516
 30
0.0
 11
130.126291
 21
136.636977
 31
0.0
  0
LINE
  5
44C
100
AcDbEntity
  8
0
 62
     0
100
AcDbLine
 10
128.724687
 20
135.010866
 30
0.0
 11
130.170637
 21
136.456816
 31
0.0
  0
LINE
  5
44D
100
AcDbEntity
  8
0
 62
     0
100
AcDbLine
 10
128.753805
 20
134.815478
 30
0.0
 11
130.17286
 21
136.234533
 31
0.0
  0
LINE
  5
44E
100
AcDbEntity
  8
0
 62
     0
100
AcDbLine
 10
128.753805
 20
134.590972
 30
0.0
 11
130.17286
 21
136.010027
 31
0.0
  0
LINE
  5
44F
100
AcDbEntity
  8
0
 62
     0
100
AcDbLine
 10
128.753805
 20
134.366465
 30
0.0
 11
130.17286
 21
135.78552
 31
0.0
  0
LINE
  5
450
100
AcDbEntity
  8
0
 62
     0
100
AcDbLine
 10
128.753805
 20
134.141959
 30
0.0
 11
130.17286
 21
135.561014
 31
0.0
  0
LINE
  5
451
100
AcDbEntity
  8
0
 62
     0
100
AcDbLine
 10
128.753805
 20
133.917453
 30
0.0
 11
130.17286
 21
135.336507
 31
0.0
  0
LINE
  5
452
100
AcDbEntity
  8
0
 62
     0
100
AcDbLine
 10
128.753805
 20
133.692946
 30
0.0
 11
130.17286
 21
135.112001
 31
0.0
  0
LINE
  5
453
100
AcDbEntity
  8
0
 62
     0
100
AcDbLine
 10
128.753805
 20
133.46844
 30
0.0
 11
130.17286
 21
134.887495
 31
0.0
  0
LINE
  5
454
100
AcDbEntity
  8
0
 62
     0
100
AcDbLine
 10
128.753805
 20
133.243933
 30
0.0
 11
130.17286
 21
134.662988
 31
0.0
  0
LINE
  5
455
100
AcDbEntity
  8
0
 62
     0
100
AcDbLine
 10
128.753805
 20
133.019427
 30
0.0
 11
130.17286
 21
134.438482
 31
0.0
  0
LINE
  5
456
100
AcDbEntity
  8
0
 62
     0
100
AcDbLine
 10
128.753805
 20
132.79492
 30
0.0
 11
130.17286
 21
134.213975
 31
0.0
  0
LINE
  5
457
100
AcDbEntity
  8
0
 62
     0
100
AcDbLine
 10
128.753805
 20
132.570414
 30
0.0
 11
130.17286
 21
133.989469
 31
0.0
  0
LINE
  5
458
100
AcDbEntity
  8
0
 62
     0
100
AcDbLine
 10
128.753805
 20
132.345908
 30
0.0
 11
130.17286
 21
133.764963
 31
0.0
  0
LINE
  5
459
100
AcDbEntity
  8
0
 62
     0
100
AcDbLine
 10
128.753805
 20
132.121401
 30
0.0
 11
130.17286
 21
133.540456
 31
0.0
  0
LINE
  5
45A
100
AcDbEntity
  8
0
 62
     0
100
AcDbLine
 10
128.753805
 20
131.896895
 30
0.0
 11
130.17286
 21
133.31595
 31
0.0
  0
LINE
  5
45B
100
AcDbEntity
  8
0
 62
     0
100
AcDbLine
 10
128.753805
 20
131.672388
 30
0.0
 11
130.17286
 21
133.091443
 31
0.0
  0
LINE
  5
45C
100
AcDbEntity
  8
0
 62
     0
100
AcDbLine
 10
128.753805
 20
131.447882
 30
0.0
 11
130.17286
 21
132.866937
 31
0.0
  0
LINE
  5
45D
100
AcDbEntity
  8
0
 62
     0
100
AcDbLine
 10
128.753805
 20
131.223376
 30
0.0
 11
130.17286
 21
132.642431
 31
0.0
  0
LINE
  5
45E
100
AcDbEntity
  8
0
 62
     0
100
AcDbLine
 10
128.753805
 20
130.998869
 30
0.0
 11
130.17286
 21
132.417924
 31
0.0
  0
LINE
  5
45F
100
AcDbEntity
  8
0
 62
     0
100
AcDbLine
 10
128.753805
 20
130.774363
 30
0.0
 11
130.17286
 21
132.193418
 31
0.0
  0
LINE
  5
460
100
AcDbEntity
  8
0
 62
     0
100
AcDbLine
 10
128.753805
 20
130.549856
 30
0.0
 11
130.17286
 21
131.968911
 31
0.0
  0
LINE
  5
461
100
AcDbEntity
  8
0
 62
     0
100
AcDbLine
 10
128.753805
 20
130.32535
 30
0.0
 11
130.17286
 21
131.744405
 31
0.0
  0
LINE
  5
462
100
AcDbEntity
  8
0
 62
     0
100
AcDbLine
 10
128.753805
 20
130.100844
 30
0.0
 11
130.17286
 21
131.519899
 31
0.0
  0
LINE
  5
463
100
AcDbEntity
  8
0
 62
     0
100
AcDbLine
 10
128.753805
 20
129.876337
 30
0.0
 11
130.17286
 21
131.295392
 31
0.0
  0
LINE
  5
464
100
AcDbEntity
  8
0
 62
     0
100
AcDbLine
 10
128.753805
 20
129.651831
 30
0.0
 11
130.17286
 21
131.070886
 31
0.0
  0
LINE
  5
465
100
AcDbEntity
  8
0
 62
     0
100
AcDbLine
 10
128.753805
 20
129.427324
 30
0.0
 11
130.17286
 21
130.846379
 31
0.0
  0
LINE
  5
466
100
AcDbEntity
  8
0
 62
     0
100
AcDbLine
 10
128.753805
 20
129.202818
 30
0.0
 11
130.17286
 21
130.621873
 31
0.0
  0
LINE
  5
467
100
AcDbEntity
  8
0
 62
     0
100
AcDbLine
 10
128.753805
 20
128.978312
 30
0.0
 11
130.17286
 21
130.397367
 31
0.0
  0
LINE
  5
468
100
AcDbEntity
  8
0
 62
     0
100
AcDbLine
 10
128.753805
 20
128.753805
 30
0.0
 11
130.17286
 21
130.17286
 31
0.0
  0
LINE
  5
469
100
AcDbEntity
  8
0
 62
     0
100
AcDbLine
 10
128.753805
 20
128.529299
 30
0.0
 11
130.17286
 21
129.948354
 31
0.0
  0
LINE
  5
46A
100
AcDbEntity
  8
0
 62
     0
100
AcDbLine
 10
128.753805
 20
128.304792
 30
0.0
 11
130.17286
 21
129.723847
 31
0.0
  0
LINE
  5
46B
100
AcDbEntity
  8
0
 62
     0
100
AcDbLine
 10
128.753805
 20
128.080286
 30
0.0
 11
130.17286
 21
129.499341
 31
0.0
  0
LINE
  5
46C
100
AcDbEntity
  8
0
 62
     0
100
AcDbLine
 10
128.753805
 20
127.85578
 30
0.0
 11
130.17286
 21
129.274835
 31
0.0
  0
LINE
  5
46D
100
AcDbEntity
  8
0
 62
     0
100
AcDbLine
 10
128.753805
 20
127.631273
 30
0.0
 11
130.17286
 21
129.050328
 31
0.0
  0
LINE
  5
46E
100
AcDbEntity
  8
0
 62
     0
100
AcDbLine
 10
128.753805
 20
127.406767
 30
0.0
 11
130.17286
 21
128.825822
 31
0.0
  0
LINE
  5
46F
100
AcDbEntity
  8
0
 62
     0
100
AcDbLine
 10
128.753805
 20
127.18226
 30
0.0
 11
130.17286
 21
128.601315
 31
0.0
  0
LINE
  5
470
100
AcDbEntity
  8
0
 62
     0
100
AcDbLine
 10
128.753805
 20
126.957754
 30
0.0
 11
130.17286
 21
128.376809
 31
0.0
  0
LINE
  5
471
100
AcDbEntity
  8
0
 62
     0
100
AcDbLine
 10
128.753805
 20
126.733248
 30
0.0
 11
130.17286
 21
128.152303
 31
0.0
  0
LINE
  5
472
100
AcDbEntity
  8
0
 62
     0
100
AcDbLine
 10
128.753805
 20
126.508741
 30
0.0
 11
130.17286
 21
127.927796
 31
0.0
  0
LINE
  5
473
100
AcDbEntity
  8
0
 62
     0
100
AcDbLine
 10
128.753805
 20
126.284235
 30
0.0
 11
130.17286
 21
127.70329
 31
0.0
  0
LINE
  5
474
100
AcDbEntity
  8
0
 62
     0
100
AcDbLine
 10
128.753805
 20
126.059728
 30
0.0
 11
130.17286
 21
127.478783
 31
0.0
  0
LINE
  5
475
100
AcDbEntity
  8
0
 62
     0
100
AcDbLine
 10
128.753805
 20
125.835222
 30
0.0
 11
130.17286
 21
127.254277
 31
0.0
  0
LINE
  5
476
100
AcDbEntity
  8
0
 62
     0
100
AcDbLine
 10
128.753805
 20
125.610716
 30
0.0
 11
130.17286
 21
127.029771
 31
0.0
  0
LINE
  5
477
100
AcDbEntity
  8
0
 62
     0
100
AcDbLine
 10
128.753805
 20
125.386209
 30
0.0
 11
130.17286
 21
126.805264
 31
0.0
  0
LINE
  5
478
100
AcDbEntity
  8
0
 62
     0
100
AcDbLine
 10
128.753805
 20
125.161703
 30
0.0
 11
130.17286
 21
126.580758
 31
0.0
  0
LINE
  5
479
100
AcDbEntity
  8
0
 62
     0
100
AcDbLine
 10
128.753805
 20
124.937196
 30
0.0
 11
130.17286
 21
126.356251
 31
0.0
  0
LINE
  5
47A
100
AcDbEntity
  8
0
 62
     0
100
AcDbLine
 10
128.753805
 20
124.71269
 30
0.0
 11
130.17286
 21
126.131745
 31
0.0
  0
LINE
  5
47B
100
AcDbEntity
  8
0
 62
     0
100
AcDbLine
 10
128.753805
 20
124.488184
 30
0.0
 11
130.17286
 21
125.907239
 31
0.0
  0
LINE
  5
47C
100
AcDbEntity
  8
0
 62
     0
100
AcDbLine
 10
128.753805
 20
124.263677
 30
0.0
 11
130.17286
 21
125.682732
 31
0.0
  0
LINE
  5
47D
100
AcDbEntity
  8
0
 62
     0
100
AcDbLine
 10
128.753805
 20
124.039171
 30
0.0
 11
130.17286
 21
125.458226
 31
0.0
  0
LINE
  5
47E
100
AcDbEntity
  8
0
 62
     0
100
AcDbLine
 10
128.753805
 20
123.814664
 30
0.0
 11
130.17286
 21
125.233719
 31
0.0
  0
LINE
  5
47F
100
AcDbEntity
  8
0
 62
     0
100
AcDbLine
 10
128.753805
 20
123.590158
 30
0.0
 11
130.17286
 21
125.009213
 31
0.0
  0
LINE
  5
480
100
AcDbEntity
  8
0
 62
     0
100
AcDbLine
 10
128.753805
 20
123.365652
 30
0.0
 11
130.17286
 21
124.784707
 31
0.0
  0
LINE
  5
481
100
AcDbEntity
  8
0
 62
     0
100
AcDbLine
 10
128.753805
 20
123.141145
 30
0.0
 11
130.17286
 21
124.5602
 31
0.0
  0
LINE
  5
482
100
AcDbEntity
  8
0
 62
     0
100
AcDbLine
 10
128.753805
 20
122.916639
 30
0.0
 11
130.17286
 21
124.335694
 31
0.0
  0
LINE
  5
483
100
AcDbEntity
  8
0
 62
     0
100
AcDbLine
 10
128.753805
 20
122.692132
 30
0.0
 11
130.17286
 21
124.111187
 31
0.0
  0
LINE
  5
484
100
AcDbEntity
  8
0
 62
     0
100
AcDbLine
 10
128.753805
 20
122.467626
 30
0.0
 11
130.17286
 21
123.886681
 31
0.0
  0
LINE
  5
485
100
AcDbEntity
  8
0
 62
     0
100
AcDbLine
 10
128.753805
 20
122.24312
 30
0.0
 11
130.17286
 21
123.662175
 31
0.0
  0
LINE
  5
486
100
AcDbEntity
  8
0
 62
     0
100
AcDbLine
 10
128.753805
 20
122.018613
 30
0.0
 11
130.17286
 21
123.437668
 31
0.0
  0
LINE
  5
487
100
AcDbEntity
  8
0
 62
     0
100
AcDbLine
 10
128.753805
 20
121.794107
 30
0.0
 11
130.17286
 21
123.213162
 31
0.0
  0
LINE
  5
488
100
AcDbEntity
  8
0
 62
     0
100
AcDbLine
 10
128.753805
 20
121.5696
 30
0.0
 11
130.17286
 21
122.988655
 31
0.0
  0
LINE
  5
489
100
AcDbEntity
  8
0
 62
     0
100
AcDbLine
 10
128.753805
 20
121.345094
 30
0.0
 11
130.17286
 21
122.764149
 31
0.0
  0
LINE
  5
48A
100
AcDbEntity
  8
0
 62
     0
100
AcDbLine
 10
128.753805
 20
121.120588
 30
0.0
 11
130.17286
 21
122.539643
 31
0.0
  0
LINE
  5
48B
100
AcDbEntity
  8
0
 62
     0
100
AcDbLine
 10
128.753805
 20
120.896081
 30
0.0
 11
130.17286
 21
122.315136
 31
0.0
  0
LINE
  5
48C
100
AcDbEntity
  8
0
 62
     0
100
AcDbLine
 10
128.753805
 20
120.671575
 30
0.0
 11
130.17286
 21
122.09063
 31
0.0
  0
LINE
  5
48D
100
AcDbEntity
  8
0
 62
     0
100
AcDbLine
 10
128.753805
 20
120.447068
 30
0.0
 11
130.17286
 21
121.866123
 31
0.0
  0
LINE
  5
48E
100
AcDbEntity
  8
0
 62
     0
100
AcDbLine
 10
128.753805
 20
120.222562
 30
0.0
 11
130.17286
 21
121.641617
 31
0.0
  0
LINE
  5
48F
100
AcDbEntity
  8
0
 62
     0
100
AcDbLine
 10
128.753805
 20
119.998056
 30
0.0
 11
130.17286
 21
121.41711
 31
0.0
  0
LINE
  5
490
100
AcDbEntity
  8
0
 62
     0
100
AcDbLine
 10
128.753805
 20
119.773549
 30
0.0
 11
130.17286
 21
121.192604
 31
0.0
  0
LINE
  5
491
100
AcDbEntity
  8
0
 62
     0
100
AcDbLine
 10
128.753805
 20
119.549043
 30
0.0
 11
130.17286
 21
120.968098
 31
0.0
  0
LINE
  5
492
100
AcDbEntity
  8
0
 62
     0
100
AcDbLine
 10
128.753805
 20
119.324536
 30
0.0
 11
130.17286
 21
120.743591
 31
0.0
  0
LINE
  5
493
100
AcDbEntity
  8
0
 62
     0
100
AcDbLine
 10
128.753805
 20
119.10003
 30
0.0
 11
130.17286
 21
120.519085
 31
0.0
  0
LINE
  5
494
100
AcDbEntity
  8
0
 62
     0
100
AcDbLine
 10
128.753805
 20
118.875523
 30
0.0
 11
130.17286
 21
120.294578
 31
0.0
  0
LINE
  5
495
100
AcDbEntity
  8
0
 62
     0
100
AcDbLine
 10
128.753805
 20
118.651017
 30
0.0
 11
130.17286
 21
120.070072
 31
0.0
  0
LINE
  5
496
100
AcDbEntity
  8
0
 62
     0
100
AcDbLine
 10
128.753805
 20
118.426511
 30
0.0
 11
130.17286
 21
119.845566
 31
0.0
  0
LINE
  5
497
100
AcDbEntity
  8
0
 62
     0
100
AcDbLine
 10
128.753805
 20
118.202004
 30
0.0
 11
130.17286
 21
119.621059
 31
0.0
  0
LINE
  5
498
100
AcDbEntity
  8
0
 62
     0
100
AcDbLine
 10
128.753805
 20
117.977498
 30
0.0
 11
130.17286
 21
119.396553
 31
0.0
  0
LINE
  5
499
100
AcDbEntity
  8
0
 62
     0
100
AcDbLine
 10
128.753805
 20
117.752991
 30
0.0
 11
130.17286
 21
119.172046
 31
0.0
  0
LINE
  5
49A
100
AcDbEntity
  8
0
 62
     0
100
AcDbLine
 10
128.753805
 20
117.528485
 30
0.0
 11
130.17286
 21
118.94754
 31
0.0
  0
LINE
  5
49B
100
AcDbEntity
  8
0
 62
     0
100
AcDbLine
 10
128.753805
 20
117.303979
 30
0.0
 11
130.17286
 21
118.723034
 31
0.0
  0
LINE
  5
49C
100
AcDbEntity
  8
0
 62
     0
100
AcDbLine
 10
128.753805
 20
117.079472
 30
0.0
 11
130.17286
 21
118.498527
 31
0.0
  0
LINE
  5
49D
100
AcDbEntity
  8
0
 62
     0
100
AcDbLine
 10
128.753805
 20
116.854966
 30
0.0
 11
130.17286
 21
118.274021
 31
0.0
  0
LINE
  5
49E
100
AcDbEntity
  8
0
 62
     0
100
AcDbLine
 10
128.753805
 20
116.630459
 30
0.0
 11
130.17286
 21
118.049514
 31
0.0
  0
LINE
  5
49F
100
AcDbEntity
  8
0
 62
     0
100
AcDbLine
 10
128.753805
 20
116.405953
 30
0.0
 11
130.17286
 21
117.825008
 31
0.0
  0
LINE
  5
4A0
100
AcDbEntity
  8
0
 62
     0
100
AcDbLine
 10
128.753805
 20
116.181447
 30
0.0
 11
130.17286
 21
117.600502
 31
0.0
  0
LINE
  5
4A1
100
AcDbEntity
  8
0
 62
     0
100
AcDbLine
 10
128.753805
 20
115.95694
 30
0.0
 11
130.17286
 21
117.375995
 31
0.0
  0
LINE
  5
4A2
100
AcDbEntity
  8
0
 62
     0
100
AcDbLine
 10
128.753805
 20
115.732434
 30
0.0
 11
130.17286
 21
117.151489
 31
0.0
  0
LINE
  5
4A3
100
AcDbEntity
  8
0
 62
     0
100
AcDbLine
 10
128.753805
 20
115.507927
 30
0.0
 11
130.17286
 21
116.926982
 31
0.0
  0
LINE
  5
4A4
100
AcDbEntity
  8
0
 62
     0
100
AcDbLine
 10
128.753805
 20
115.283421
 30
0.0
 11
130.17286
 21
116.702476
 31
0.0
  0
LINE
  5
4A5
100
AcDbEntity
  8
0
 62
     0
100
AcDbLine
 10
128.753805
 20
115.058915
 30
0.0
 11
130.17286
 21
116.47797
 31
0.0
  0
LINE
  5
4A6
100
AcDbEntity
  8
0
 62
     0
100
AcDbLine
 10
128.753805
 20
114.834408
 30
0.0
 11
130.17286
 21
116.253463
 31
0.0
  0
LINE
  5
4A7
100
AcDbEntity
  8
0
 62
     0
100
AcDbLine
 10
128.753805
 20
114.609902
 30
0.0
 11
130.17286
 21
116.028957
 31
0.0
  0
LINE
  5
4A8
100
AcDbEntity
  8
0
 62
     0
100
AcDbLine
 10
128.753805
 20
114.385395
 30
0.0
 11
130.17286
 21
115.80445
 31
0.0
  0
LINE
  5
4A9
100
AcDbEntity
  8
0
 62
     0
100
AcDbLine
 10
128.753805
 20
114.160889
 30
0.0
 11
130.17286
 21
115.579944
 31
0.0
  0
LINE
  5
4AA
100
AcDbEntity
  8
0
 62
     0
100
AcDbLine
 10
128.753805
 20
113.936383
 30
0.0
 11
130.17286
 21
115.355438
 31
0.0
  0
LINE
  5
4AB
100
AcDbEntity
  8
0
 62
     0
100
AcDbLine
 10
128.753805
 20
113.711876
 30
0.0
 11
130.17286
 21
115.130931
 31
0.0
  0
LINE
  5
4AC
100
AcDbEntity
  8
0
 62
     0
100
AcDbLine
 10
128.753805
 20
113.48737
 30
0.0
 11
130.17286
 21
114.906425
 31
0.0
  0
LINE
  5
4AD
100
AcDbEntity
  8
0
 62
     0
100
AcDbLine
 10
128.753805
 20
113.262863
 30
0.0
 11
130.17286
 21
114.681918
 31
0.0
  0
LINE
  5
4AE
100
AcDbEntity
  8
0
 62
     0
100
AcDbLine
 10
128.753805
 20
113.038357
 30
0.0
 11
130.17286
 21
114.457412
 31
0.0
  0
LINE
  5
4AF
100
AcDbEntity
  8
0
 62
     0
100
AcDbLine
 10
128.753805
 20
112.813851
 30
0.0
 11
130.17286
 21
114.232906
 31
0.0
  0
LINE
  5
4B0
100
AcDbEntity
  8
0
 62
     0
100
AcDbLine
 10
128.753805
 20
112.589344
 30
0.0
 11
130.17286
 21
114.008399
 31
0.0
  0
LINE
  5
4B1
100
AcDbEntity
  8
0
 62
     0
100
AcDbLine
 10
128.753805
 20
112.364838
 30
0.0
 11
130.17286
 21
113.783893
 31
0.0
  0
LINE
  5
4B2
100
AcDbEntity
  8
0
 62
     0
100
AcDbLine
 10
128.753805
 20
112.140331
 30
0.0
 11
130.17286
 21
113.559386
 31
0.0
  0
LINE
  5
4B3
100
AcDbEntity
  8
0
 62
     0
100
AcDbLine
 10
128.753805
 20
111.915825
 30
0.0
 11
130.17286
 21
113.33488
 31
0.0
  0
LINE
  5
4B4
100
AcDbEntity
  8
0
 62
     0
100
AcDbLine
 10
128.753805
 20
111.691319
 30
0.0
 11
130.17286
 21
113.110374
 31
0.0
  0
LINE
  5
4B5
100
AcDbEntity
  8
0
 62
     0
100
AcDbLine
 10
128.940736
 20
111.653743
 30
0.0
 11
130.17286
 21
112.885867
 31
0.0
  0
LINE
  5
4B6
100
AcDbEntity
  8
0
 62
     0
100
AcDbLine
 10
129.165242
 20
111.653743
 30
0.0
 11
130.17286
 21
112.661361
 31
0.0
  0
ENDBLK
  5
4B7
100
AcDbEntity
  8
0
100
AcDbBlockEnd
  0
BLOCK
  5
4D6
100
AcDbEntity
  8
0
100
AcDbBlockBegin
  2
*D9
 70
    65
 10
0.0
 20
0.0
 30
0.0
  3
*D9
  1

  0
LINE
  5
4D7
100
AcDbEntity
  8
0
  6
BYBLOCK
 62
     0
100
AcDbLine
 10
106.29786
 20
171.653743
 30
0.0
 11
151.552804
 21
171.653743
 31
0.0
  0
LINE
  5
4D8
100
AcDbEntity
  8
0
  6
BYBLOCK
 62
     0
100
AcDbLine
 10
130.29786
 20
151.653743
 30
0.0
 11
151.552804
 21
151.653743
 31
0.0
  0
LINE
  5
4D9
100
AcDbEntity
  8
0
  6
BYBLOCK
 62
     0
100
AcDbLine
 10
150.302804
 20
169.153743
 30
0.0
 11
150.302804
 21
154.153743
 31
0.0
  0
SOLID
  5
4DA
100
AcDbEntity
  8
0
  6
BYBLOCK
 62
     0
100
AcDbTrace
 10
149.886137
 20
169.153743
 30
0.0
 11
150.71947
 21
169.153743
 31
0.0
 12
150.302804
 22
171.653743
 32
0.0
 13
150.302804
 23
171.653743
 33
0.0
  0
SOLID
  5
4DB
100
AcDbEntity
  8
0
  6
BYBLOCK
 62
     0
100
AcDbTrace
 10
149.886137
 20
154.153743
 30
0.0
 11
150.71947
 21
154.153743
 31
0.0
 12
150.302804
 22
151.653743
 32
0.0
 13
150.302804
 23
151.653743
 33
0.0
  0
MTEXT
  5
4DC
100
AcDbEntity
  8
0
  6
BYBLOCK
 62
     0
100
AcDbMText
 10
148.177804
 20
161.653743
 30
0.0
 40
3.0
 41
0.0
 71
     5
 72
     1
  1
\A1;20±0.1
 11
0.0
 21
1.0
 31
0.0
  0
POINT
  5
4DD
100
AcDbEntity
  8
DEFPOINTS
  6
BYBLOCK
 62
     0
100
AcDbPoint
 10
105.67286
 20
171.653743
 30
0.0
  0
POINT
  5
4DE
100
AcDbEntity
  8
DEFPOINTS
  6
BYBLOCK
 62
     0
100
AcDbPoint
 10
129.67286
 20
151.653743
 30
0.0
  0
POINT
  5
4DF
100
AcDbEntity
  8
DEFPOINTS
  6
BYBLOCK
 62
     0
100
AcDbPoint
 10
150.302804
 20
151.653743
 30
0.0
  0
ENDBLK
  5
4E0
100
AcDbEntity
  8
0
100
AcDbBlockEnd
  0
BLOCK
  5
4E1
100
AcDbEntity
  8
0
100
AcDbBlockBegin
  2
*D10
 70
    65
 10
0.0
 20
0.0
 30
0.0
  3
*D10
  1

  0
LINE
  5
4E2
100
AcDbEntity
  8
0
  6
BYBLOCK
 62
     0
100
AcDbLine
 10
106.17286
 20
170.528743
 30
0.0
 11
106.17286
 21
155.871726
 31
0.0
  0
LINE
  5
4E3
100
AcDbEntity
  8
0
  6
BYBLOCK
 62
     0
100
AcDbLine
 10
130.17286
 20
151.778743
 30
0.0
 11
130.17286
 21
158.371726
 31
0.0
  0
LINE
  5
4E4
100
AcDbEntity
  8
0
  6
BYBLOCK
 62
     0
100
AcDbLine
 10
108.67286
 20
157.121726
 30
0.0
 11
127.67286
 21
157.121726
 31
0.0
  0
SOLID
  5
4E5
100
AcDbEntity
  8
0
  6
BYBLOCK
 62
     0
100
AcDbTrace
 10
108.67286
 20
157.538393
 30
0.0
 11
108.67286
 21
156.70506
 31
0.0
 12
106.17286
 22
157.121726
 32
0.0
 13
106.17286
 23
157.121726
 33
0.0
  0
SOLID
  5
4E6
100
AcDbEntity
  8
0
  6
BYBLOCK
 62
     0
100
AcDbTrace
 10
127.67286
 20
157.538393
 30
0.0
 11
127.67286
 21
156.70506
 31
0.0
 12
130.17286
 22
157.121726
 32
0.0
 13
130.17286
 23
157.121726
 33
0.0
  0
MTEXT
  5
4E7
100
AcDbEntity
  8
0
  6
BYBLOCK
 62
     0
100
AcDbMText
 10
118.17286
 20
159.246726
 30
0.0
 40
3.0
 41
0.0
 71
     5
 72
     1
  1
\A1;24±0.1
  0
POINT
  5
4E8
100
AcDbEntity
  8
DEFPOINTS
  6
BYBLOCK
 62
     0
100
AcDbPoint
 10
106.17286
 20
171.153743
 30
0.0
  0
POINT
  5
4E9
100
AcDbEntity
  8
DEFPOINTS
  6
BYBLOCK
 62
     0
100
AcDbPoint
 10
130.17286
 20
151.153743
 30
0.0
  0
POINT
  5
4EA
100
AcDbEntity
  8
DEFPOINTS
  6
BYBLOCK
 62
     0
100
AcDbPoint
 10
130.17286
 20
157.121726
 30
0.0
  0
ENDBLK
  5
4EB
100
AcDbEntity
  8
0
100
AcDbBlockEnd
  0
BLOCK
  5
6F2
100
AcDbEntity
  8
0
100
AcDbBlockBegin
  2
*D11
 70
    65
 10
0.0
 20
0.0
 30
0.0
  3
*D11
  1

  0
LINE
  5
6F3
100
AcDbEntity
  8
0
  6
BYBLOCK
 62
     0
100
AcDbLine
 10
43.337038
 20
169.803017
 30
0.0
 11
19.440576
 21
169.803017
 31
0.0
  0
LINE
  5
6F4
100
AcDbEntity
  8
0
  6
BYBLOCK
 62
     0
100
AcDbLine
 10
28.837038
 20
137.681696
 30
0.0
 11
19.440576
 21
137.681696
 31
0.0
  0
LINE
  5
6F5
100
AcDbEntity
  8
0
  6
BYBLOCK
 62
     0
100
AcDbLine
 10
20.690576
 20
167.303017
 30
0.0
 11
20.690576
 21
140.181696
 31
0.0
  0
SOLID
  5
6F6
100
AcDbEntity
  8
0
  6
BYBLOCK
 62
     0
100
AcDbTrace
 10
20.27391
 20
167.303017
 30
0.0
 11
21.107243
 21
167.303017
 31
0.0
 12
20.690576
 22
169.803017
 32
0.0
 13
20.690576
 23
169.803017
 33
0.0
  0
SOLID
  5
6F7
100
AcDbEntity
  8
0
  6
BYBLOCK
 62
     0
100
AcDbTrace
 10
20.27391
 20
140.181696
 30
0.0
 11
21.107243
 21
140.181696
 31
0.0
 12
20.690576
 22
137.681696
 32
0.0
 13
20.690576
 23
137.681696
 33
0.0
  0
MTEXT
  5
6F8
100
AcDbEntity
  8
0
  6
BYBLOCK
 62
     0
100
AcDbMText
 10
18.565576
 20
153.742357
 30
0.0
 40
3.0
 41
0.0
 71
     5
 72
     1
  1
\A1;{64.30}
 11
0.0
 21
1.0
 31
0.0
  0
POINT
  5
6F9
100
AcDbEntity
  8
DEFPOINTS
  6
BYBLOCK
 62
     0
100
AcDbPoint
 10
43.962038
 20
169.803017
 30
0.0
  0
POINT
  5
6FA
100
AcDbEntity
  8
DEFPOINTS
  6
BYBLOCK
 62
     0
100
AcDbPoint
 10
29.462038
 20
137.681696
 30
0.0
  0
POINT
  5
6FB
100
AcDbEntity
  8
DEFPOINTS
  6
BYBLOCK
 62
     0
100
AcDbPoint
 10
20.690576
 20
137.681696
 30
0.0
  0
ENDBLK
  5
6FC
100
AcDbEntity
  8
0
100
AcDbBlockEnd
  0
BLOCK
  5
594
100
AcDbEntity
  8
0
100
AcDbBlockBegin
  2
*D12
 70
    65
 10
0.0
 20
0.0
 30
0.0
  3
*D12
  1

  0
LINE
  5
595
100
AcDbEntity
  8
0
  6
BYBLOCK
 62
     0
100
AcDbLine
 10
60.734516
 20
139.720806
 30
0.0
 11
60.734516
 21
113.957081
 31
0.0
  0
LINE
  5
596
100
AcDbEntity
  8
0
  6
BYBLOCK
 62
     0
100
AcDbLine
 10
27.198982
 20
125.220806
 30
0.0
 11
27.198982
 21
113.957081
 31
0.0
  0
LINE
  5
597
100
AcDbEntity
  8
0
  6
BYBLOCK
 62
     0
100
AcDbLine
 10
58.234516
 20
115.207081
 30
0.0
 11
29.698982
 21
115.207081
 31
0.0
  0
SOLID
  5
598
100
AcDbEntity
  8
0
  6
BYBLOCK
 62
     0
100
AcDbTrace
 10
58.234516
 20
115.623747
 30
0.0
 11
58.234516
 21
114.790414
 31
0.0
 12
60.734516
 22
115.207081
 32
0.0
 13
60.734516
 23
115.207081
 33
0.0
  0
SOLID
  5
599
100
AcDbEntity
  8
0
  6
BYBLOCK
 62
     0
100
AcDbTrace
 10
29.698982
 20
115.623747
 30
0.0
 11
29.698982
 21
114.790414
 31
0.0
 12
27.198982
 22
115.207081
 32
0.0
 13
27.198982
 23
115.207081
 33
0.0
  0
MTEXT
  5
59A
100
AcDbEntity
  8
0
  6
BYBLOCK
 62
     0
100
AcDbMText
 10
43.966749
 20
117.332081
 30
0.0
 40
3.0
 41
0.0
 71
     5
 72
     1
  1
\A2;67.07{\H2.400000;±0.01}
  0
POINT
  5
59B
100
AcDbEntity
  8
DEFPOINTS
  6
BYBLOCK
 62
     0
100
AcDbPoint
 10
60.734516
 20
140.345806
 30
0.0
  0
POINT
  5
59C
100
AcDbEntity
  8
DEFPOINTS
  6
BYBLOCK
 62
     0
100
AcDbPoint
 10
27.198982
 20
125.845806
 30
0.0
  0
POINT
  5
59D
100
AcDbEntity
  8
DEFPOINTS
  6
BYBLOCK
 62
     0
100
AcDbPoint
 10
27.198982
 20
115.207081
 30
0.0
  0
ENDBLK
  5
59E
100
AcDbEntity
  8
0
100
AcDbBlockEnd
  0
BLOCK
  5
57F
100
AcDbEntity
  8
0
100
AcDbBlockBegin
  2
*D13
 70
    65
 10
0.0
 20
0.0
 30
0.0
  3
*D13
  1

  0
LINE
  5
580
100
AcDbEntity
  8
0
  6
BYBLOCK
 62
     0
100
AcDbLine
 10
61.997355
 20
143.63838
 30
0.0
 11
75.200405
 21
155.191362
 31
0.0
  0
SOLID
  5
581
100
AcDbEntity
  8
0
  6
BYBLOCK
 62
     0
100
AcDbTrace
 10
61.722974
 20
143.951949
 30
0.0
 11
62.271736
 21
143.32481
 31
0.0
 12
60.115936
 22
141.992093
 32
0.0
 13
60.115936
 23
141.992093
 33
0.0
  0
MTEXT
  5
582
100
AcDbEntity
  8
0
  6
BYBLOCK
 62
     0
100
AcDbMText
 10
68.140246
 20
151.837221
 30
0.0
 40
3.0
 41
0.0
 71
     5
 72
     1
  1
\A2;\U+220510{\H2.400000;±0.01}
 11
0.752568
 21
0.658515
 31
0.0
  0
LINE
  5
583
100
AcDbEntity
  8
0
  6
BYBLOCK
 62
     0
100
AcDbLine
 10
55.734516
 20
140.345806
 30
0.0
 11
60.734516
 21
140.345806
 31
0.0
  0
LINE
  5
584
100
AcDbEntity
  8
0
  6
BYBLOCK
 62
     0
100
AcDbLine
 10
58.234516
 20
137.845806
 30
0.0
 11
58.234516
 21
142.845806
 31
0.0
  0
POINT
  5
585
100
AcDbEntity
  8
DEFPOINTS
  6
BYBLOCK
 62
     0
100
AcDbPoint
 10
60.115936
 20
141.992093
 30
0.0
  0
POINT
  5
586
100
AcDbEntity
  8
DEFPOINTS
  6
BYBLOCK
 62
     0
100
AcDbPoint
 10
56.353097
 20
138.699519
 30
0.0
  0
ENDBLK
  5
587
100
AcDbEntity
  8
0
100
AcDbBlockEnd
  0
BLOCK
  5
56D
100
AcDbEntity
  8
0
100
AcDbBlockBegin
  2
*D14
 70
    65
 10
0.0
 20
0.0
 30
0.0
  3
*D14
  1

  0
LINE
  5
56E
100
AcDbEntity
  8
0
  6
BYBLOCK
 62
     0
100
AcDbLine
 10
45.231834
 20
158.575155
 30
0.0
 11
57.282869
 21
168.938156
 31
0.0
  0
SOLID
  5
56F
100
AcDbEntity
  8
0
  6
BYBLOCK
 62
     0
100
AcDbTrace
 10
44.960164
 20
158.891077
 30
0.0
 11
45.503503
 21
158.259233
 31
0.0
 12
43.336302
 22
156.945137
 32
0.0
 13
43.336302
 23
156.945137
 33
0.0
  0
MTEXT
  5
570
100
AcDbEntity
  8
0
  6
BYBLOCK
 62
     0
100
AcDbMText
 10
50.819602
 20
166.182866
 30
0.0
 40
3.0
 41
0.0
 71
     5
 72
     1
  1
\A2;\U+22056{\H2.400000;±0.01}
 11
0.758213
 21
0.652007
 31
0.0
  0
LINE
  5
571
100
AcDbEntity
  8
0
  6
BYBLOCK
 62
     0
100
AcDbLine
 10
39.698982
 20
155.967126
 30
0.0
 11
44.698982
 21
155.967126
 31
0.0
  0
LINE
  5
572
100
AcDbEntity
  8
0
  6
BYBLOCK
 62
     0
100
AcDbLine
 10
42.198982
 20
153.467126
 30
0.0
 11
42.198982
 21
158.467126
 31
0.0
  0
POINT
  5
573
100
AcDbEntity
  8
DEFPOINTS
  6
BYBLOCK
 62
     0
100
AcDbPoint
 10
43.336302
 20
156.945137
 30
0.0
  0
POINT
  5
574
100
AcDbEntity
  8
DEFPOINTS
  6
BYBLOCK
 62
     0
100
AcDbPoint
 10
41.061663
 20
154.989116
 30
0.0
  0
ENDBLK
  5
575
100
AcDbEntity
  8
0
100
AcDbBlockEnd
  0
BLOCK
  5
5E7
100
AcDbEntity
  8
0
100
AcDbBlockBegin
  2
*D15
 70
    65
 10
0.0
 20
0.0
 30
0.0
  3
*D15
  1

  0
LINE
  5
5E8
100
AcDbEntity
  8
0
  6
BYBLOCK
 62
     0
100
AcDbLine
 10
31.348331
 20
92.285483
 30
0.0
 11
31.348331
 21
99.037018
 31
0.0
  0
LINE
  5
5E9
100
AcDbEntity
  8
0
  6
BYBLOCK
 62
     0
100
AcDbLine
 10
41.348331
 20
80.285483
 30
0.0
 11
41.348331
 21
99.037018
 31
0.0
  0
LINE
  5
5EA
100
AcDbEntity
  8
0
  6
BYBLOCK
 62
     0
100
AcDbLine
 10
33.848331
 20
97.787018
 30
0.0
 11
38.848331
 21
97.787018
 31
0.0
  0
SOLID
  5
5EB
100
AcDbEntity
  8
0
  6
BYBLOCK
 62
     0
100
AcDbTrace
 10
33.848331
 20
98.203685
 30
0.0
 11
33.848331
 21
97.370352
 31
0.0
 12
31.348331
 22
97.787018
 32
0.0
 13
31.348331
 23
97.787018
 33
0.0
  0
SOLID
  5
5EC
100
AcDbEntity
  8
0
  6
BYBLOCK
 62
     0
100
AcDbTrace
 10
38.848331
 20
98.203685
 30
0.0
 11
38.848331
 21
97.370352
 31
0.0
 12
41.348331
 22
97.787018
 32
0.0
 13
41.348331
 23
97.787018
 33
0.0
  0
MTEXT
  5
5ED
100
AcDbEntity
  8
0
  6
BYBLOCK
 62
     0
100
AcDbMText
 10
36.348331
 20
99.912018
 30
0.0
 40
3.0
 41
0.0
 71
     5
 72
     1
  1
\A1;{50}
  0
POINT
  5
5EE
100
AcDbEntity
  8
DEFPOINTS
  6
BYBLOCK
 62
     0
100
AcDbPoint
 10
31.348331
 20
91.660483
 30
0.0
  0
POINT
  5
5EF
100
AcDbEntity
  8
DEFPOINTS
  6
BYBLOCK
 62
     0
100
AcDbPoint
 10
41.348331
 20
79.660483
 30
0.0
  0
POINT
  5
5F0
100
AcDbEntity
  8
DEFPOINTS
  6
BYBLOCK
 62
     0
100
AcDbPoint
 10
41.348331
 20
97.787018
 30
0.0
  0
ENDBLK
  5
5F1
100
AcDbEntity
  8
0
100
AcDbBlockEnd
  0
BLOCK
  5
608
100
AcDbEntity
  8
0
100
AcDbBlockBegin
  2
*D16
 70
    65
 10
0.0
 20
0.0
 30
0.0
  3
*D16
  1

  0
LINE
  5
609
100
AcDbEntity
  8
0
  6
BYBLOCK
 62
     0
100
AcDbLine
 10
51.973331
 20
79.660483
 30
0.0
 11
57.281113
 21
79.660483
 31
0.0
  0
LINE
  5
60A
100
AcDbEntity
  8
0
  6
BYBLOCK
 62
     0
100
AcDbLine
 10
54.893057
 20
91.660483
 30
0.0
 11
57.281113
 21
91.660483
 31
0.0
  0
LINE
  5
60B
100
AcDbEntity
  8
0
  6
BYBLOCK
 62
     0
100
AcDbLine
 10
56.031113
 20
82.160483
 30
0.0
 11
56.031113
 21
89.160483
 31
0.0
  0
SOLID
  5
60C
100
AcDbEntity
  8
0
  6
BYBLOCK
 62
     0
100
AcDbTrace
 10
55.614447
 20
82.160483
 30
0.0
 11
56.44778
 21
82.160483
 31
0.0
 12
56.031113
 22
79.660483
 32
0.0
 13
56.031113
 23
79.660483
 33
0.0
  0
SOLID
  5
60D
100
AcDbEntity
  8
0
  6
BYBLOCK
 62
     0
100
AcDbTrace
 10
55.614447
 20
89.160483
 30
0.0
 11
56.44778
 21
89.160483
 31
0.0
 12
56.031113
 22
91.660483
 32
0.0
 13
56.031113
 23
91.660483
 33
0.0
  0
MTEXT
  5
60E
100
AcDbEntity
  8
0
  6
BYBLOCK
 62
     0
100
AcDbMText
 10
53.906113
 20
85.660483
 30
0.0
 40
3.0
 41
0.0
 71
     5
 72
     1
  1
\A1;{=}
 11
0.0
 21
1.0
 31
0.0
  0
POINT
  5
60F
100
AcDbEntity
  8
DEFPOINTS
  6
BYBLOCK
 62
     0
100
AcDbPoint
 10
51.348331
 20
79.660483
 30
0.0
  0
POINT
  5
610
100
AcDbEntity
  8
DEFPOINTS
  6
BYBLOCK
 62
     0
100
AcDbPoint
 10
54.268057
 20
91.660483
 30
0.0
  0
POINT
  5
611
100
AcDbEntity
  8
DEFPOINTS
  6
BYBLOCK
 62
     0
100
AcDbPoint
 10
56.031113
 20
91.660483
 30
0.0
  0
ENDBLK
  5
612
100
AcDbEntity
  8
0
100
AcDbBlockEnd
  0
BLOCK
  5
629
100
AcDbEntity
  8
0
100
AcDbBlockBegin
  2
*D17
 70
    65
 10
0.0
 20
0.0
 30
0.0
  3
*D17
  1

  0
LINE
  5
62A
100
AcDbEntity
  8
0
  6
BYBLOCK
 62
     0
100
AcDbLine
 10
51.973331
 20
73.660483
 30
0.0
 11
57.281113
 21
73.660483
 31
0.0
  0
LINE
  5
62B
100
AcDbEntity
  8
0
  6
BYBLOCK
 62
     0
100
AcDbLine
 10
55.406113
 20
61.660483
 30
0.0
 11
54.781113
 21
61.660483
 31
0.0
  0
LINE
  5
62C
100
AcDbEntity
  8
0
  6
BYBLOCK
 62
     0
100
AcDbLine
 10
56.031113
 20
71.160483
 30
0.0
 11
56.031113
 21
64.160483
 31
0.0
  0
SOLID
  5
62D
100
AcDbEntity
  8
0
  6
BYBLOCK
 62
     0
100
AcDbTrace
 10
55.614447
 20
71.160483
 30
0.0
 11
56.44778
 21
71.160483
 31
0.0
 12
56.031113
 22
73.660483
 32
0.0
 13
56.031113
 23
73.660483
 33
0.0
  0
SOLID
  5
62E
100
AcDbEntity
  8
0
  6
BYBLOCK
 62
     0
100
AcDbTrace
 10
55.614447
 20
64.160483
 30
0.0
 11
56.44778
 21
64.160483
 31
0.0
 12
56.031113
 22
61.660483
 32
0.0
 13
56.031113
 23
61.660483
 33
0.0
  0
MTEXT
  5
62F
100
AcDbEntity
  8
0
  6
BYBLOCK
 62
     0
100
AcDbMText
 10
53.906113
 20
67.660483
 30
0.0
 40
3.0
 41
0.0
 71
     5
 72
     1
  1
\A1;{=}
 11
0.0
 21
1.0
 31
0.0
  0
POINT
  5
630
100
AcDbEntity
  8
DEFPOINTS
  6
BYBLOCK
 62
     0
100
AcDbPoint
 10
51.348331
 20
73.660483
 30
0.0
  0
POINT
  5
631
100
AcDbEntity
  8
DEFPOINTS
  6
BYBLOCK
 62
     0
100
AcDbPoint
 10
56.031113
 20
61.660483
 30
0.0
  0
POINT
  5
632
100
AcDbEntity
  8
DEFPOINTS
  6
BYBLOCK
 62
     0
100
AcDbPoint
 10
56.031113
 20
61.660483
 30
0.0
  0
ENDBLK
  5
633
100
AcDbEntity
  8
0
100
AcDbBlockEnd
  0
BLOCK
  5
657
100
AcDbEntity
  8
0
100
AcDbBlockBegin
  2
*D18
 70
    65
 10
0.0
 20
0.0
 30
0.0
  3
*D18
  1

  0
LINE
  5
658
100
AcDbEntity
  8
0
  6
BYBLOCK
 62
     0
100
AcDbLine
 10
31.348331
 20
61.035483
 30
0.0
 11
31.348331
 21
53.361403
 31
0.0
  0
LINE
  5
659
100
AcDbEntity
  8
0
  6
BYBLOCK
 62
     0
100
AcDbLine
 10
76.348331
 20
61.035483
 30
0.0
 11
76.348331
 21
53.361403
 31
0.0
  0
LINE
  5
65A
100
AcDbEntity
  8
0
  6
BYBLOCK
 62
     0
100
AcDbLine
 10
33.848331
 20
54.611403
 30
0.0
 11
73.848331
 21
54.611403
 31
0.0
  0
SOLID
  5
65B
100
AcDbEntity
  8
0
  6
BYBLOCK
 62
     0
100
AcDbTrace
 10
33.848331
 20
55.028069
 30
0.0
 11
33.848331
 21
54.194736
 31
0.0
 12
31.348331
 22
54.611403
 32
0.0
 13
31.348331
 23
54.611403
 33
0.0
  0
SOLID
  5
65C
100
AcDbEntity
  8
0
  6
BYBLOCK
 62
     0
100
AcDbTrace
 10
73.848331
 20
55.028069
 30
0.0
 11
73.848331
 21
54.194736
 31
0.0
 12
76.348331
 22
54.611403
 32
0.0
 13
76.348331
 23
54.611403
 33
0.0
  0
MTEXT
  5
65D
100
AcDbEntity
  8
0
  6
BYBLOCK
 62
     0
100
AcDbMText
 10
53.848331
 20
56.736403
 30
0.0
 40
3.0
 41
0.0
 71
     5
 72
     1
  1
\A1;{835}
  0
POINT
  5
65E
100
AcDbEntity
  8
DEFPOINTS
  6
BYBLOCK
 62
     0
100
AcDbPoint
 10
31.348331
 20
61.660483
 30
0.0
  0
POINT
  5
65F
100
AcDbEntity
  8
DEFPOINTS
  6
BYBLOCK
 62
     0
100
AcDbPoint
 10
76.348331
 20
61.660483
 30
0.0
  0
POINT
  5
660
100
AcDbEntity
  8
DEFPOINTS
  6
BYBLOCK
 62
     0
100
AcDbPoint
 10
76.348331
 20
54.611403
 30
0.0
  0
ENDBLK
  5
661
100
AcDbEntity
  8
0
100
AcDbBlockEnd
  0
BLOCK
  5
678
100
AcDbEntity
  8
0
100
AcDbBlockBegin
  2
*D19
 70
    65
 10
0.0
 20
0.0
 30
0.0
  3
*D19
  1

  0
LINE
  5
679
100
AcDbEntity
  8
0
  6
BYBLOCK
 62
     0
100
AcDbLine
 10
31.348331
 20
95.810022
 30
0.0
 11
31.348331
 21
102.561558
 31
0.0
  0
LINE
  5
67A
100
AcDbEntity
  8
0
  6
BYBLOCK
 62
     0
100
AcDbLine
 10
41.348331
 20
83.810022
 30
0.0
 11
41.348331
 21
102.561558
 31
0.0
  0
LINE
  5
67B
100
AcDbEntity
  8
0
  6
BYBLOCK
 62
     0
100
AcDbLine
 10
33.848331
 20
101.311558
 30
0.0
 11
38.848331
 21
101.311558
 31
0.0
  0
SOLID
  5
67C
100
AcDbEntity
  8
0
  6
BYBLOCK
 62
     0
100
AcDbTrace
 10
33.848331
 20
101.728225
 30
0.0
 11
33.848331
 21
100.894891
 31
0.0
 12
31.348331
 22
101.311558
 32
0.0
 13
31.348331
 23
101.311558
 33
0.0
  0
SOLID
  5
67D
100
AcDbEntity
  8
0
  6
BYBLOCK
 62
     0
100
AcDbTrace
 10
38.848331
 20
101.728225
 30
0.0
 11
38.848331
 21
100.894891
 31
0.0
 12
41.348331
 22
101.311558
 32
0.0
 13
41.348331
 23
101.311558
 33
0.0
  0
MTEXT
  5
67E
100
AcDbEntity
  8
0
  6
BYBLOCK
 62
     0
100
AcDbMText
 10
36.348331
 20
103.436558
 30
0.0
 40
3.0
 41
0.0
 71
     5
 72
     1
  1
\A1;{50}
  0
POINT
  5
67F
100
AcDbEntity
  8
DEFPOINTS
  6
BYBLOCK
 62
     0
100
AcDbPoint
 10
31.348331
 20
95.185022
 30
0.0
  0
POINT
  5
680
100
AcDbEntity
  8
DEFPOINTS
  6
BYBLOCK
 62
     0
100
AcDbPoint
 10
41.348331
 20
83.185022
 30
0.0
  0
POINT
  5
681
100
AcDbEntity
  8
DEFPOINTS
  6
BYBLOCK
 62
     0
100
AcDbPoint
 10
41.348331
 20
101.311558
 30
0.0
  0
ENDBLK
  5
682
100
AcDbEntity
  8
0
100
AcDbBlockEnd
  0
BLOCK
  5
684
100
AcDbEntity
  8
0
100
AcDbBlockBegin
  2
*D20
 70
    65
 10
0.0
 20
0.0
 30
0.0
  3
*D20
  1

  0
LINE
  5
685
100
AcDbEntity
  8
0
  6
BYBLOCK
 62
     0
100
AcDbLine
 10
51.973331
 20
83.185022
 30
0.0
 11
57.281113
 21
83.185022
 31
0.0
  0
LINE
  5
686
100
AcDbEntity
  8
0
  6
BYBLOCK
 62
     0
100
AcDbLine
 10
54.893057
 20
95.185022
 30
0.0
 11
57.281113
 21
95.185022
 31
0.0
  0
LINE
  5
687
100
AcDbEntity
  8
0
  6
BYBLOCK
 62
     0
100
AcDbLine
 10
56.031113
 20
85.685022
 30
0.0
 11
56.031113
 21
92.685022
 31
0.0
  0
SOLID
  5
688
100
AcDbEntity
  8
0
  6
BYBLOCK
 62
     0
100
AcDbTrace
 10
55.614447
 20
85.685022
 30
0.0
 11
56.44778
 21
85.685022
 31
0.0
 12
56.031113
 22
83.185022
 32
0.0
 13
56.031113
 23
83.185022
 33
0.0
  0
SOLID
  5
689
100
AcDbEntity
  8
0
  6
BYBLOCK
 62
     0
100
AcDbTrace
 10
55.614447
 20
92.685022
 30
0.0
 11
56.44778
 21
92.685022
 31
0.0
 12
56.031113
 22
95.185022
 32
0.0
 13
56.031113
 23
95.185022
 33
0.0
  0
MTEXT
  5
68A
100
AcDbEntity
  8
0
  6
BYBLOCK
 62
     0
100
AcDbMText
 10
53.906113
 20
89.185022
 30
0.0
 40
3.0
 41
0.0
 71
     5
 72
     1
  1
\A1;{=}
 11
0.0
 21
1.0
 31
0.0
  0
POINT
  5
68B
100
AcDbEntity
  8
DEFPOINTS
  6
BYBLOCK
 62
     0
100
AcDbPoint
 10
51.348331
 20
83.185022
 30
0.0
  0
POINT
  5
68C
100
AcDbEntity
  8
DEFPOINTS
  6
BYBLOCK
 62
     0
100
AcDbPoint
 10
54.268057
 20
95.185022
 30
0.0
  0
POINT
  5
68D
100
AcDbEntity
  8
DEFPOINTS
  6
BYBLOCK
 62
     0
100
AcDbPoint
 10
56.031113
 20
95.185022
 30
0.0
  0
ENDBLK
  5
68E
100
AcDbEntity
  8
0
100
AcDbBlockEnd
  0
BLOCK
  5
690
100
AcDbEntity
  8
0
100
AcDbBlockBegin
  2
*D21
 70
    65
 10
0.0
 20
0.0
 30
0.0
  3
*D21
  1

  0
LINE
  5
691
100
AcDbEntity
  8
0
  6
BYBLOCK
 62
     0
100
AcDbLine
 10
51.973331
 20
77.185022
 30
0.0
 11
57.281113
 21
77.185022
 31
0.0
  0
LINE
  5
692
100
AcDbEntity
  8
0
  6
BYBLOCK
 62
     0
100
AcDbLine
 10
55.406113
 20
65.185022
 30
0.0
 11
54.781113
 21
65.185022
 31
0.0
  0
LINE
  5
693
100
AcDbEntity
  8
0
  6
BYBLOCK
 62
     0
100
AcDbLine
 10
56.031113
 20
74.685022
 30
0.0
 11
56.031113
 21
67.685022
 31
0.0
  0
SOLID
  5
694
100
AcDbEntity
  8
0
  6
BYBLOCK
 62
     0
100
AcDbTrace
 10
55.614447
 20
74.685022
 30
0.0
 11
56.44778
 21
74.685022
 31
0.0
 12
56.031113
 22
77.185022
 32
0.0
 13
56.031113
 23
77.185022
 33
0.0
  0
SOLID
  5
695
100
AcDbEntity
  8
0
  6
BYBLOCK
 62
     0
100
AcDbTrace
 10
55.614447
 20
67.685022
 30
0.0
 11
56.44778
 21
67.685022
 31
0.0
 12
56.031113
 22
65.185022
 32
0.0
 13
56.031113
 23
65.185022
 33
0.0
  0
MTEXT
  5
696
100
AcDbEntity
  8
0
  6
BYBLOCK
 62
     0
100
AcDbMText
 10
53.906113
 20
71.185022
 30
0.0
 40
3.0
 41
0.0
 71
     5
 72
     1
  1
\A1;{=}
 11
0.0
 21
1.0
 31
0.0
  0
POINT
  5
697
100
AcDbEntity
  8
DEFPOINTS
  6
BYBLOCK
 62
     0
100
AcDbPoint
 10
51.348331
 20
77.185022
 30
0.0
  0
POINT
  5
698
100
AcDbEntity
  8
DEFPOINTS
  6
BYBLOCK
 62
     0
100
AcDbPoint
 10
56.031113
 20
65.185022
 30
0.0
  0
POINT
  5
699
100
AcDbEntity
  8
DEFPOINTS
  6
BYBLOCK
 62
     0
100
AcDbPoint
 10
56.031113
 20
65.185022
 30
0.0
  0
ENDBLK
  5
69A
100
AcDbEntity
  8
0
100
AcDbBlockEnd
  0
BLOCK
  5
69C
100
AcDbEntity
  8
0
100
AcDbBlockBegin
  2
*D22
 70
    65
 10
0.0
 20
0.0
 30
0.0
  3
*D22
  1

  0
LINE
  5
69D
100
AcDbEntity
  8
0
  6
BYBLOCK
 62
     0
100
AcDbLine
 10
31.348331
 20
64.560022
 30
0.0
 11
31.348331
 21
56.885942
 31
0.0
  0
LINE
  5
69E
100
AcDbEntity
  8
0
  6
BYBLOCK
 62
     0
100
AcDbLine
 10
76.348331
 20
64.560022
 30
0.0
 11
76.348331
 21
56.885942
 31
0.0
  0
LINE
  5
69F
100
AcDbEntity
  8
0
  6
BYBLOCK
 62
     0
100
AcDbLine
 10
33.848331
 20
58.135942
 30
0.0
 11
73.848331
 21
58.135942
 31
0.0
  0
SOLID
  5
6A0
100
AcDbEntity
  8
0
  6
BYBLOCK
 62
     0
100
AcDbTrace
 10
33.848331
 20
58.552609
 30
0.0
 11
33.848331
 21
57.719276
 31
0.0
 12
31.348331
 22
58.135942
 32
0.0
 13
31.348331
 23
58.135942
 33
0.0
  0
SOLID
  5
6A1
100
AcDbEntity
  8
0
  6
BYBLOCK
 62
     0
100
AcDbTrace
 10
73.848331
 20
58.552609
 30
0.0
 11
73.848331
 21
57.719276
 31
0.0
 12
76.348331
 22
58.135942
 32
0.0
 13
76.348331
 23
58.135942
 33
0.0
  0
MTEXT
  5
6A2
100
AcDbEntity
  8
0
  6
BYBLOCK
 62
     0
100
AcDbMText
 10
53.848331
 20
60.260942
 30
0.0
 40
3.0
 41
0.0
 71
     5
 72
     1
  1
\A1;{835}
  0
POINT
  5
6A3
100
AcDbEntity
  8
DEFPOINTS
  6
BYBLOCK
 62
     0
100
AcDbPoint
 10
31.348331
 20
65.185022
 30
0.0
  0
POINT
  5
6A4
100
AcDbEntity
  8
DEFPOINTS
  6
BYBLOCK
 62
     0
100
AcDbPoint
 10
76.348331
 20
65.185022
 30
0.0
  0
POINT
  5
6A5
100
AcDbEntity
  8
DEFPOINTS
  6
BYBLOCK
 62
     0
100
AcDbPoint
 10
76.348331
 20
58.135942
 30
0.0
  0
ENDBLK
  5
6A6
100
AcDbEntity
  8
0
100
AcDbBlockEnd
  0
BLOCK
  5
6C4
100
AcDbEntity
  8
QUOTE
100
AcDbBlockBegin
  2
RUGOSITA
 70
     2
 10
0.0
 20
0.0
 30
0.0
  3
RUGOSITA
  1

  0
ATTDEF
  5
6C0
100
AcDbEntity
  8
QUOTE
100
AcDbText
 10
-1.071886
 20
3.214106
 30
0.0
 40
1.5
  1
0.8
100
AcDbAttributeDefinition
  3
CHE RUGOSITA ?
  2
RUGOSITA
 70
     0
  0
LINE
  5
6C1
100
AcDbEntity
  8
QUOTE
100
AcDbLine
 10
0.0
 20
0.0
 30
0.0
 11
4.0
 21
6.928203
 31
0.0
  0
LINE
  5
6C2
100
AcDbEntity
  8
QUOTE
100
AcDbLine
 10
0.0
 20
0.0
 30
0.0
 11
-1.75
 21
3.031089
 31
0.0
  0
LINE
  5
6C3
100
AcDbEntity
  8
QUOTE
100
AcDbLine
 10
-1.75
 20
3.031089
 30
0.0
 11
1.75
 21
3.031089
 31
0.0
  0
ENDBLK
  5
6C5
100
AcDbEntity
  8
QUOTE
100
AcDbBlockEnd
  0
ENDSEC
  0
SECTION
  2
ENTITIES
  0
LINE
  5
26A
100
AcDbEntity
  8
DISEGNO
100
AcDbLine
 10
71.17286
 20
195.361567
 30
0.0
 11
129.17286
 21
195.361567
 31
0.0
1001
ACAD
1000
ASC_BOUNDS
1002
{
1070
    19
1002
}
  0
LINE
  5
26B
100
AcDbEntity
  8
DISEGNO
100
AcDbLine
 10
130.17286
 20
196.361567
 30
0.0
 11
130.17286
 21
220.113039
 31
0.0
1001
ACAD
1000
ASC_BOUNDS
1002
{
1070
    19
1002
}
  0
LINE
  5
26C
100
AcDbEntity
  8
DISEGNO
100
AcDbLine
 10
129.67286
 20
235.361567
 30
0.0
 11
106.17286
 21
235.361567
 31
0.0
1001
ACAD
1000
ASC_BOUNDS
1002
{
1070
    19
1002
}
  0
LINE
  5
26D
100
AcDbEntity
  8
DISEGNO
100
AcDbLine
 10
106.17286
 20
235.361567
 30
0.0
 11
106.17286
 21
254.861567
 31
0.0
1001
ACAD
1000
ASC_BOUNDS
1002
{
1070
    19
1002
}
  0
LINE
  5
26E
100
AcDbEntity
  8
DISEGNO
100
AcDbLine
 10
105.67286
 20
255.361567
 30
0.0
 11
103.338546
 21
255.361567
 31
0.0
1001
ACAD
1000
ASC_BOUNDS
1002
{
1070
    19
1002
}
  0
LINE
  5
26F
100
AcDbEntity
  8
DISEGNO
100
AcDbLine
 10
70.17286
 20
254.361567
 30
0.0
 11
70.17286
 21
196.361567
 31
0.0
1001
ACAD
1000
ASC_BOUNDS
1002
{
1070
    19
1002
}
  0
LINE
  5
271
100
AcDbEntity
  8
DISEGNO
100
AcDbLine
 10
97.290018
 20
255.24441
 30
0.0
 11
100.17286
 21
252.361567
 31
0.0
1001
ACAD
1000
ASC_BOUNDS
1002
{
1070
    19
1002
}
  0
LINE
  5
273
100
AcDbEntity
  8
DISEGNO
100
AcDbLine
 10
103.055703
 20
255.24441
 30
0.0
 11
100.17286
 21
252.361567
 31
0.0
1001
ACAD
1000
ASC_BOUNDS
1002
{
1070
    19
1002
}
  0
LINE
  5
274
100
AcDbEntity
  8
DISEGNO
100
AcDbLine
 10
97.007175
 20
255.361567
 30
0.0
 11
71.17286
 21
255.361567
 31
0.0
1001
ACAD
1000
ASC_BOUNDS
1002
{
1070
    19
1002
}
  0
LINE
  5
275
100
AcDbEntity
  8
DISEGNO
100
AcDbLine
 10
129.997124
 20
230.185831
 30
0.0
 11
125.17286
 21
225.361567
 31
0.0
1001
ACAD
1000
ASC_BOUNDS
1002
{
1070
    19
1002
}
  0
LINE
  5
276
100
AcDbEntity
  8
DISEGNO
100
AcDbLine
 10
129.997124
 20
220.537303
 30
0.0
 11
125.17286
 21
225.361567
 31
0.0
1001
ACAD
1000
ASC_BOUNDS
1002
{
1070
    19
1002
}
  0
LINE
  5
277
100
AcDbEntity
  8
DISEGNO
100
AcDbLine
 10
130.17286
 20
230.610095
 30
0.0
 11
130.17286
 21
234.861567
 31
0.0
1001
ACAD
1000
ASC_BOUNDS
1002
{
1070
    19
1002
}
  0
LINE
  5
278
100
AcDbEntity
  8
DISEGNO
100
AcDbLine
 10
71.17286
 20
255.361567
 30
0.0
 11
70.17286
 21
254.361567
 31
0.0
1001
ACAD
1000
ASC_BOUNDS
1002
{
1070
    19
1002
}
  0
LINE
  5
279
100
AcDbEntity
  8
DISEGNO
100
AcDbLine
 10
70.17286
 20
196.361567
 30
0.0
 11
71.17286
 21
195.361567
 31
0.0
  0
LINE
  5
27A
100
AcDbEntity
  8
DISEGNO
100
AcDbLine
 10
130.17286
 20
196.361567
 30
0.0
 11
129.17286
 21
195.361567
 31
0.0
1001
ACAD
1000
ASC_BOUNDS
1002
{
1070
    19
1002
}
  0
LINE
  5
27B
100
AcDbEntity
  8
DISEGNO
100
AcDbLine
 10
105.67286
 20
255.361567
 30
0.0
 11
106.17286
 21
254.861567
 31
0.0
1001
ACAD
1000
ASC_BOUNDS
1002
{
1070
    19
1002
}
  0
LINE
  5
27C
100
AcDbEntity
  8
DISEGNO
100
AcDbLine
 10
129.67286
 20
235.361567
 30
0.0
 11
130.17286
 21
234.861567
 31
0.0
1001
ACAD
1000
ASC_BOUNDS
1002
{
1070
    19
1002
}
  0
ARC
  5
2CF
100
AcDbEntity
  8
DISEGNO
100
AcDbCircle
 10
97.007175
 20
254.961567
 30
0.0
 40
0.4
100
AcDbArc
 50
45.0
 51
90.0
1001
ACAD
1000
ASC_BOUNDS
1002
{
1070
    19
1002
}
  0
ARC
  5
2D0
100
AcDbEntity
  8
DISEGNO
100
AcDbCircle
 10
103.338546
 20
254.961567
 30
0.0
 40
0.4
100
AcDbArc
 50
90.0
 51
135.0
1001
ACAD
1000
ASC_BOUNDS
1002
{
1070
    19
1002
}
  0
ARC
  5
2D1
100
AcDbEntity
  8
DISEGNO
100
AcDbCircle
 10
129.57286
 20
230.610095
 30
0.0
 40
0.6
100
AcDbArc
 50
315.0
 51
0.0
1001
ACAD
1000
ASC_BOUNDS
1002
{
1070
    19
1002
}
  0
ARC
  5
2D2
100
AcDbEntity
  8
DISEGNO
100
AcDbCircle
 10
129.57286
 20
220.113039
 30
0.0
 40
0.6
100
AcDbArc
 50
0.0
 51
45.0
1001
ACAD
1000
ASC_BOUNDS
1002
{
1070
    19
1002
}
  0
MTEXT
  5
6AE
100
AcDbEntity
  8
QUOTE
100
AcDbMText
 10
67.181596
 20
100.878574
 30
0.0
 40
3.0
 41
0.0
 71
     7
 72
     1
  1

  0
ENDSEC
  0
SECTION
  2
OBJECTS
  0
DICTIONARY
  5
C
100
AcDbDictionary
  3
ACAD_GROUP
350
D
  3
ACAD_MLINESTYLE
350
E
  0
DICTIONARY
  5
D
102
{ACAD_REACTORS
330
C
102
}
100
AcDbDictionary
  0
DICTIONARY
  5
E
102
{ACAD_REACTORS
330
C
102
}
100
AcDbDictionary
  3
STANDARD
350
1C
  0
MLINESTYLE
  5
1C
102
{ACAD_REACTORS
330
E
102
}
100
AcDbMlineStyle
  2
STANDARD
 70
     0
  3

 62
     0
 51
90.0
 52
90.0
 71
     2
 49
0.5
 62
   256
  6
BYLAYER
 49
-0.5
 62
   256
  6
BYLAYER
  0
ENDSEC
  0
EOF
