  0
SECTION
  2
HEADER
  9
$ACADVER
  1
AC1012
  9
$DWGCODEPAGE
  3
iso8859-1
  9
$INSBASE
 10
0.0
 20
0.0
 30
0.0
  9
$EXTMIN
 10
6.84992
 20
5.0
 30
0.0
  9
$EXTMAX
 10
396.038088
 20
288.0
 30
0.0
  9
$LIMMIN
 10
0.0
 20
0.0
  9
$LIMMAX
 10
210.0
 20
297.0
  9
$ORTHOMODE
 70
     1
  9
$REGENMODE
 70
     1
  9
$FILLMODE
 70
     1
  9
$QTEXTMODE
 70
     0
  9
$MIRRTEXT
 70
     1
  9
$DRAGMODE
 70
     2
  9
$LTSCALE
 40
1.0
  9
$OSMODE
 70
     0
  9
$ATTMODE
 70
     1
  9
$TEXTSIZE
 40
4.0
  9
$TRACEWID
 40
0.05
  9
$TEXTSTYLE
  7
STYLE3
  9
$CLAYER
  8
DISEGNO
  9
$CELTYPE
  6
BYLAYER
  9
$CECOLOR
 62
   256
  9
$CELTSCALE
 40
1.0
  9
$DELOBJ
 70
     1
  9
$DISPSILH
 70
     0
  9
$DIMSCALE
 40
1.0
  9
$DIMASZ
 40
2.5
  9
$DIMEXO
 40
0.625
  9
$DIMDLI
 40
3.75
  9
$DIMRND
 40
0.0
  9
$DIMDLE
 40
0.0
  9
$DIMEXE
 40
1.25
  9
$DIMTP
 40
0.0
  9
$DIMTM
 40
0.0
  9
$DIMTXT
 40
3.0
  9
$DIMCEN
 40
2.5
  9
$DIMTSZ
 40
0.0
  9
$DIMTOL
 70
     0
  9
$DIMLIM
 70
     0
  9
$DIMTIH
 70
     0
  9
$DIMTOH
 70
     0
  9
$DIMSE1
 70
     0
  9
$DIMSE2
 70
     0
  9
$DIMTAD
 70
     1
  9
$DIMZIN
 70
     8
  9
$DIMBLK
  1

  9
$DIMASO
 70
     1
  9
$DIMSHO
 70
     1
  9
$DIMPOST
  1

  9
$DIMAPOST
  1

  9
$DIMALT
 70
     0
  9
$DIMALTD
 70
     2
  9
$DIMALTF
 40
0.03937
  9
$DIMLFAC
 40
1.0
  9
$DIMTOFL
 70
     0
  9
$DIMTVP
 40
0.0
  9
$DIMTIX
 70
     0
  9
$DIMSOXD
 70
     0
  9
$DIMSAH
 70
     0
  9
$DIMBLK1
  1

  9
$DIMBLK2
  1

  9
$DIMSTYLE
  2
STANDARD
  9
$DIMCLRD
 70
     0
  9
$DIMCLRE
 70
     0
  9
$DIMCLRT
 70
     0
  9
$DIMTFAC
 40
1.0
  9
$DIMGAP
 40
0.625
  9
$DIMJUST
 70
     0
  9
$DIMSD1
 70
     0
  9
$DIMSD2
 70
     0
  9
$DIMTOLJ
 70
     1
  9
$DIMTZIN
 70
     8
  9
$DIMALTZ
 70
     0
  9
$DIMALTTZ
 70
     0
  9
$DIMFIT
 70
     3
  9
$DIMUPT
 70
     0
  9
$DIMUNIT
 70
     2
  9
$DIMDEC
 70
     2
  9
$DIMTDEC
 70
     2
  9
$DIMALTU
 70
     2
  9
$DIMALTTD
 70
     2
  9
$DIMTXSTY
  7
STANDARD
  9
$DIMAUNIT
 70
     0
  9
$LUNITS
 70
     2
  9
$LUPREC
 70
     4
  9
$SKETCHINC
 40
0.1
  9
$FILLETRAD
 40
6.0
  9
$AUNITS
 70
     0
  9
$AUPREC
 70
     0
  9
$MENU
  1
acad
  9
$ELEVATION
 40
0.0
  9
$PELEVATION
 40
0.0
  9
$THICKNESS
 40
0.0
  9
$LIMCHECK
 70
     0
  9
$BLIPMODE
 70
     1
  9
$CHAMFERA
 40
1.0
  9
$CHAMFERB
 40
1.0
  9
$CHAMFERC
 40
20.0
  9
$CHAMFERD
 40
0.0
  9
$SKPOLY
 70
     0
  9
$TDCREATE
 40
2451758.561665278
  9
$TDUPDATE
 40
2452628.476920370
  9
$TDINDWG
 40
0.0642170139
  9
$TDUSRTIMER
 40
0.0642170139
  9
$USRTIMER
 70
     1
  9
$ANGBASE
 50
0.0
  9
$ANGDIR
 70
     0
  9
$PDMODE
 70
     0
  9
$PDSIZE
 40
0.0
  9
$PLINEWID
 40
0.0
  9
$COORDS
 70
     1
  9
$SPLFRAME
 70
     0
  9
$SPLINETYPE
 70
     6
  9
$SPLINESEGS
 70
     8
  9
$ATTDIA
 70
     0
  9
$ATTREQ
 70
     1
  9
$HANDLING
 70
     1
  9
$HANDSEED
  5
63D
  9
$SURFTAB1
 70
     6
  9
$SURFTAB2
 70
     6
  9
$SURFTYPE
 70
     6
  9
$SURFU
 70
     6
  9
$SURFV
 70
     6
  9
$UCSNAME
  2

  9
$UCSORG
 10
0.0
 20
0.0
 30
0.0
  9
$UCSXDIR
 10
1.0
 20
0.0
 30
0.0
  9
$UCSYDIR
 10
0.0
 20
1.0
 30
0.0
  9
$PUCSNAME
  2

  9
$PUCSORG
 10
0.0
 20
0.0
 30
0.0
  9
$PUCSXDIR
 10
1.0
 20
0.0
 30
0.0
  9
$PUCSYDIR
 10
0.0
 20
1.0
 30
0.0
  9
$USERI1
 70
     0
  9
$USERI2
 70
     0
  9
$USERI3
 70
     0
  9
$USERI4
 70
     0
  9
$USERI5
 70
     0
  9
$USERR1
 40
0.0
  9
$USERR2
 40
0.0
  9
$USERR3
 40
0.0
  9
$USERR4
 40
0.0
  9
$USERR5
 40
0.0
  9
$WORLDVIEW
 70
     1
  9
$SHADEDGE
 70
     3
  9
$SHADEDIF
 70
    70
  9
$TILEMODE
 70
     1
  9
$MAXACTVP
 70
    16
  9
$PINSBASE
 10
0.0
 20
0.0
 30
0.0
  9
$PLIMCHECK
 70
     0
  9
$PEXTMIN
 10
1.000000E+20
 20
1.000000E+20
 30
1.000000E+20
  9
$PEXTMAX
 10
-1.000000E+20
 20
-1.000000E+20
 30
-1.000000E+20
  9
$PLIMMIN
 10
0.0
 20
0.0
  9
$PLIMMAX
 10
12.0
 20
9.0
  9
$UNITMODE
 70
     0
  9
$VISRETAIN
 70
     0
  9
$PLINEGEN
 70
     0
  9
$PSLTSCALE
 70
     1
  9
$TREEDEPTH
 70
  3020
  9
$PICKSTYLE
 70
     1
  9
$CMLSTYLE
  2
STANDARD
  9
$CMLJUST
 70
     0
  9
$CMLSCALE
 40
20.0
  9
$SAVEIMAGES
 70
     0
  0
ENDSEC
  0
SECTION
  2
CLASSES
  0
ENDSEC
  0
SECTION
  2
TABLES
  0
TABLE
  2
VPORT
  5
8
100
AcDbSymbolTable
 70
     2
  0
VPORT
  5
63C
100
AcDbSymbolTableRecord
100
AcDbViewportTableRecord
  2
*ACTIVE
 70
     0
 10
0.0
 20
0.0
 11
1.0
 21
1.0
 12
114.033122
 22
250.95874
 13
0.0
 23
0.0
 14
10.0
 24
10.0
 15
10.0
 25
10.0
 16
0.0
 26
0.0
 36
1.0
 17
0.0
 27
0.0
 37
0.0
 40
606.987425
 41
1.650113
 42
50.0
 43
0.0
 44
0.0
 50
0.0
 51
0.0
 71
     0
 72
   100
 73
     1
 74
     0
 75
     0
 76
     0
 77
     0
 78
     0
  0
ENDTAB
  0
TABLE
  2
LTYPE
  5
5
100
AcDbSymbolTable
 70
     4
  0
LTYPE
  5
13
100
AcDbSymbolTableRecord
100
AcDbLinetypeTableRecord
  2
BYBLOCK
 70
     0
  3

 72
    65
 73
     0
 40
0.0
  0
LTYPE
  5
14
100
AcDbSymbolTableRecord
100
AcDbLinetypeTableRecord
  2
BYLAYER
 70
     0
  3

 72
    65
 73
     0
 40
0.0
  0
LTYPE
  5
15
100
AcDbSymbolTableRecord
100
AcDbLinetypeTableRecord
  2
CONTINUOUS
 70
    64
  3
Solid line
 72
    65
 73
     0
 40
0.0
  0
LTYPE
  5
94
100
AcDbSymbolTableRecord
100
AcDbLinetypeTableRecord
  2
ACAD_ISO04W100
 70
    64
  3
____ . ____ . ____ . ____ . ____ . ____ . ____ 
 72
    65
 73
     4
 40
30.5
 49
24.0
 74
     0
 49
-3.0
 74
     0
 49
0.5
 74
     0
 49
-3.0
 74
     0
  0
LTYPE
  5
225
100
AcDbSymbolTableRecord
100
AcDbLinetypeTableRecord
  2
TRATTEGGIATAX2
 70
    64
  3
____  ____  ____  ____  ____  ____  ____  ____ 
 72
    65
 73
     2
 40
1.5
 49
1.0
 74
     0
 49
-0.5
 74
     0
  0
LTYPE
  5
226
100
AcDbSymbolTableRecord
100
AcDbLinetypeTableRecord
  2
NASCOSTA
 70
    64
  3
__ __ __ __ __ __ __ __ __ __ __ __ __ __ __ __
 72
    65
 73
     2
 40
0.375
 49
0.25
 74
     0
 49
-0.125
 74
     0
  0
ENDTAB
  0
TABLE
  2
LAYER
  5
2
100
AcDbSymbolTable
 70
    10
  0
LAYER
  5
F
100
AcDbSymbolTableRecord
100
AcDbLayerTableRecord
  2
0
 70
     0
 62
     7
  6
CONTINUOUS
  0
LAYER
  5
95
100
AcDbSymbolTableRecord
100
AcDbLayerTableRecord
  2
DISEGNO
 70
    64
 62
     7
  6
CONTINUOUS
  0
LAYER
  5
96
100
AcDbSymbolTableRecord
100
AcDbLayerTableRecord
  2
ASSI
 70
    64
 62
     1
  6
ACAD_ISO04W100
  0
LAYER
  5
97
100
AcDbSymbolTableRecord
100
AcDbLayerTableRecord
  2
SEZIONE
 70
    64
 62
     3
  6
CONTINUOUS
  0
LAYER
  5
98
100
AcDbSymbolTableRecord
100
AcDbLayerTableRecord
  2
TEMPRA
 70
    64
 62
     2
  6
CONTINUOUS
  0
LAYER
  5
99
100
AcDbSymbolTableRecord
100
AcDbLayerTableRecord
  2
QUOTE
 70
    64
 62
     5
  6
CONTINUOUS
  0
LAYER
  5
9A
100
AcDbSymbolTableRecord
100
AcDbLayerTableRecord
  2
FOGLIO
 70
    64
 62
     8
  6
CONTINUOUS
  0
LAYER
  5
1A3
100
AcDbSymbolTableRecord
100
AcDbLayerTableRecord
  2
TRATTO
 70
    64
 62
     6
  6
NASCOSTA
  0
LAYER
  5
280
100
AcDbSymbolTableRecord
100
AcDbLayerTableRecord
  2
DEFPOINTS
 70
    64
 62
     7
  6
CONTINUOUS
  0
LAYER
  5
53D
100
AcDbSymbolTableRecord
100
AcDbLayerTableRecord
  2
TESTO
 70
    64
 62
     6
  6
CONTINUOUS
  0
ENDTAB
  0
TABLE
  2
STYLE
  5
3
100
AcDbSymbolTable
 70
     2
  0
STYLE
  5
10
100
AcDbSymbolTableRecord
100
AcDbTextStyleTableRecord
  2
STANDARD
 70
    64
 40
0.0
 41
1.1
 50
0.0
 71
     0
 42
2.5
  3
C:\Programmi\AutoCAD LT\isocp.shx
  4

  0
STYLE
  5
B0
100
AcDbSymbolTableRecord
100
AcDbTextStyleTableRecord
  2
STYLE3
 70
    64
 40
0.0
 41
1.5
 50
0.0
 71
     0
 42
4.0
  3
C:\Programmi\AutoCAD LT\isocp.shx
  4

  0
ENDTAB
  0
TABLE
  2
VIEW
  5
6
100
AcDbSymbolTable
 70
     0
  0
ENDTAB
  0
TABLE
  2
UCS
  5
7
100
AcDbSymbolTable
 70
     0
  0
ENDTAB
  0
TABLE
  2
APPID
  5
9
100
AcDbSymbolTable
 70
     1
  0
APPID
  5
11
100
AcDbSymbolTableRecord
100
AcDbRegAppTableRecord
  2
ACAD
 70
     0
  0
ENDTAB
  0
TABLE
  2
DIMSTYLE
  5
A
100
AcDbSymbolTable
 70
    13
  0
DIMSTYLE
105
1D
100
AcDbSymbolTableRecord
100
AcDbDimStyleTableRecord
  2
STANDARD
 70
     0
  3

  4

  5

  6

  7

 40
1.0
 41
2.5
 42
0.625
 43
3.75
 44
1.25
 45
0.0
 46
0.0
 47
0.0
 48
0.0
140
3.0
141
2.5
142
0.0
143
0.03937
144
1.0
145
0.0
146
1.0
147
0.625
 71
     0
 72
     0
 73
     0
 74
     0
 75
     0
 76
     0
 77
     1
 78
     8
170
     0
171
     2
172
     0
173
     0
174
     0
175
     0
176
     0
177
     0
178
     0
270
     2
271
     2
272
     2
273
     2
274
     2
340
10
275
     0
280
     0
281
     0
282
     0
283
     1
284
     8
285
     0
286
     0
287
     3
288
     0
  0
DIMSTYLE
105
198
100
AcDbSymbolTableRecord
100
AcDbDimStyleTableRecord
  2
TOLL-06
 70
     0
  3

  4

  5

  6

  7

 40
1.0
 41
2.5
 42
0.625
 43
3.75
 44
1.25
 45
0.0
 46
0.0
 47
-0.05
 48
0.0
140
3.0
141
2.5
142
0.0
143
0.03937
144
1.0
145
0.0
146
0.8
147
0.625
 71
     1
 72
     0
 73
     0
 74
     0
 75
     0
 76
     0
 77
     1
 78
     8
170
     0
171
     2
172
     0
173
     0
174
     0
175
     0
176
     0
177
     0
178
     0
270
     2
271
     2
272
     2
273
     2
274
     2
340
10
275
     0
280
     0
281
     0
282
     0
283
     2
284
     8
285
     0
286
     0
287
     3
288
     0
  0
DIMSTYLE
105
20B
100
AcDbSymbolTableRecord
100
AcDbDimStyleTableRecord
  2
TOLL-01
 70
     0
  3

  4

  5

  6

  7

 40
1.0
 41
2.5
 42
0.625
 43
3.75
 44
1.25
 45
0.0
 46
0.0
 47
0.02
 48
0.0
140
3.0
141
2.5
142
0.0
143
0.03937
144
1.0
145
0.0
146
0.8
147
0.625
 71
     1
 72
     0
 73
     0
 74
     0
 75
     0
 76
     0
 77
     1
 78
     8
170
     0
171
     2
172
     0
173
     0
174
     0
175
     0
176
     0
177
     0
178
     0
270
     2
271
     2
272
     2
273
     2
274
     2
340
10
275
     0
280
     0
281
     0
282
     0
283
     2
284
     8
285
     0
286
     0
287
     3
288
     0
  0
DIMSTYLE
105
232
100
AcDbSymbolTableRecord
100
AcDbDimStyleTableRecord
  2
TOLL-02
 70
     0
  3

  4

  5

  6

  7

 40
1.0
 41
2.5
 42
0.625
 43
3.75
 44
1.25
 45
0.0
 46
0.0
 47
-0.02
 48
0.0
140
3.0
141
2.5
142
0.0
143
0.03937
144
1.0
145
0.0
146
0.8
147
0.625
 71
     1
 72
     0
 73
     0
 74
     0
 75
     0
 76
     0
 77
     1
 78
     8
170
     0
171
     2
172
     0
173
     0
174
     0
175
     0
176
     0
177
     0
178
     0
270
     2
271
     2
272
     2
273
     2
274
     2
340
10
275
     0
280
     0
281
     0
282
     0
283
     2
284
     8
285
     0
286
     0
287
     3
288
     0
  0
DIMSTYLE
105
233
100
AcDbSymbolTableRecord
100
AcDbDimStyleTableRecord
  2
TOLL-03
 70
     0
  3

  4

  5

  6

  7

 40
1.0
 41
2.5
 42
0.625
 43
3.75
 44
1.25
 45
0.0
 46
0.0
 47
0.01
 48
0.01
140
3.0
141
2.5
142
0.0
143
0.03937
144
1.0
145
0.0
146
0.8
147
0.625
 71
     1
 72
     0
 73
     0
 74
     0
 75
     0
 76
     0
 77
     1
 78
     8
170
     0
171
     2
172
     0
173
     0
174
     0
175
     0
176
     0
177
     0
178
     0
270
     2
271
     2
272
     2
273
     2
274
     2
340
10
275
     0
280
     0
281
     0
282
     0
283
     2
284
     8
285
     0
286
     0
287
     3
288
     0
  0
DIMSTYLE
105
234
100
AcDbSymbolTableRecord
100
AcDbDimStyleTableRecord
  2
TOLL-04
 70
     0
  3

  4

  5

  6

  7

 40
1.0
 41
2.5
 42
0.625
 43
3.75
 44
1.25
 45
0.0
 46
0.0
 47
0.05
 48
0.05
140
3.0
141
2.5
142
0.0
143
0.03937
144
1.0
145
0.0
146
0.8
147
0.625
 71
     1
 72
     0
 73
     0
 74
     0
 75
     0
 76
     0
 77
     1
 78
     8
170
     0
171
     2
172
     0
173
     0
174
     0
175
     0
176
     0
177
     0
178
     0
270
     2
271
     2
272
     2
273
     2
274
     2
340
10
275
     0
280
     0
281
     0
282
     0
283
     2
284
     8
285
     0
286
     0
287
     3
288
     0
  0
DIMSTYLE
105
235
100
AcDbSymbolTableRecord
100
AcDbDimStyleTableRecord
  2
TOLL-05
 70
     0
  3

  4

  5

  6

  7

 40
1.0
 41
2.5
 42
0.625
 43
3.75
 44
1.25
 45
0.0
 46
0.0
 47
0.05
 48
0.0
140
3.0
141
2.5
142
0.0
143
0.03937
144
1.0
145
0.0
146
0.8
147
0.625
 71
     1
 72
     0
 73
     0
 74
     0
 75
     0
 76
     0
 77
     1
 78
     8
170
     0
171
     2
172
     0
173
     0
174
     0
175
     0
176
     0
177
     0
178
     0
270
     2
271
     2
272
     2
273
     2
274
     2
340
10
275
     0
280
     0
281
     0
282
     0
283
     2
284
     8
285
     0
286
     0
287
     3
288
     0
  0
DIMSTYLE
105
247
100
AcDbSymbolTableRecord
100
AcDbDimStyleTableRecord
  2
TOLL-07
 70
     0
  3

  4

  5

  6

  7

 40
1.0
 41
2.5
 42
0.625
 43
3.75
 44
1.25
 45
0.0
 46
0.0
 47
0.1
 48
0.1
140
3.0
141
2.5
142
0.0
143
0.03937
144
1.0
145
0.0
146
1.0
147
0.625
 71
     1
 72
     0
 73
     0
 74
     0
 75
     0
 76
     0
 77
     1
 78
     8
170
     0
171
     2
172
     0
173
     0
174
     0
175
     0
176
     0
177
     0
178
     0
270
     2
271
     2
272
     2
273
     2
274
     2
340
10
275
     0
280
     0
281
     0
282
     0
283
     1
284
     8
285
     0
286
     0
287
     3
288
     0
  0
DIMSTYLE
105
251
100
AcDbSymbolTableRecord
100
AcDbDimStyleTableRecord
  2
TOLL-08
 70
     0
  3

  4

  5

  6

  7

 40
1.0
 41
2.5
 42
0.625
 43
3.75
 44
1.25
 45
0.0
 46
0.0
 47
0.1
 48
0.0
140
3.0
141
2.5
142
0.0
143
0.03937
144
1.0
145
0.0
146
1.0
147
0.625
 71
     1
 72
     0
 73
     0
 74
     0
 75
     0
 76
     0
 77
     1
 78
     8
170
     0
171
     2
172
     0
173
     0
174
     0
175
     0
176
     0
177
     0
178
     0
270
     2
271
     2
272
     2
273
     2
274
     2
340
10
275
     0
280
     0
281
     0
282
     0
283
     1
284
     8
285
     0
286
     0
287
     3
288
     0
  0
DIMSTYLE
105
257
100
AcDbSymbolTableRecord
100
AcDbDimStyleTableRecord
  2
TOLL-09
 70
     0
  3

  4

  5

  6

  7

 40
1.0
 41
2.5
 42
0.625
 43
3.75
 44
1.25
 45
0.0
 46
0.0
 47
-0.1
 48
0.0
140
3.0
141
2.5
142
0.0
143
0.03937
144
1.0
145
0.0
146
1.0
147
0.625
 71
     1
 72
     0
 73
     0
 74
     0
 75
     0
 76
     0
 77
     1
 78
     8
170
     0
171
     2
172
     0
173
     0
174
     0
175
     0
176
     0
177
     0
178
     0
270
     2
271
     2
272
     2
273
     2
274
     2
340
10
275
     0
280
     0
281
     0
282
     0
283
     1
284
     8
285
     0
286
     0
287
     3
288
     0
  0
DIMSTYLE
105
258
100
AcDbSymbolTableRecord
100
AcDbDimStyleTableRecord
  2
TOLL-10
 70
     0
  3

  4

  5

  6

  7

 40
1.0
 41
2.5
 42
0.625
 43
3.75
 44
1.25
 45
0.0
 46
0.0
 47
0.2
 48
0.2
140
3.0
141
2.5
142
0.0
143
0.03937
144
1.0
145
0.0
146
1.0
147
0.625
 71
     1
 72
     0
 73
     0
 74
     0
 75
     0
 76
     0
 77
     1
 78
     8
170
     0
171
     2
172
     0
173
     0
174
     0
175
     0
176
     0
177
     0
178
     0
270
     2
271
     2
272
     2
273
     2
274
     2
340
10
275
     0
280
     0
281
     0
282
     0
283
     1
284
     8
285
     0
286
     0
287
     3
288
     0
  0
DIMSTYLE
105
259
100
AcDbSymbolTableRecord
100
AcDbDimStyleTableRecord
  2
TOLL-11
 70
     0
  3

  4

  5

  6

  7

 40
1.0
 41
2.5
 42
0.625
 43
3.75
 44
1.25
 45
0.0
 46
0.0
 47
0.2
 48
0.0
140
3.0
141
2.5
142
0.0
143
0.03937
144
1.0
145
0.0
146
1.0
147
0.625
 71
     1
 72
     0
 73
     0
 74
     0
 75
     0
 76
     0
 77
     1
 78
     8
170
     0
171
     2
172
     0
173
     0
174
     0
175
     0
176
     0
177
     0
178
     0
270
     2
271
     2
272
     2
273
     2
274
     2
340
10
275
     0
280
     0
281
     0
282
     0
283
     1
284
     8
285
     0
286
     0
287
     3
288
     0
  0
DIMSTYLE
105
53E
100
AcDbSymbolTableRecord
100
AcDbDimStyleTableRecord
  2
ISO-25
 70
     0
  3

  4

  5

  6

  7

 40
1.0
 41
2.5
 42
0.625
 43
3.75
 44
1.25
 45
0.0
 46
0.0
 47
0.0
 48
0.0
140
2.5
141
2.5
142
0.0
143
0.0394
144
1.0
145
1.0
146
1.0
147
0.625
 71
     0
 72
     0
 73
     1
 74
     0
 75
     0
 76
     0
 77
     1
 78
     8
170
     0
171
     2
172
     1
173
     0
174
     0
175
     0
176
     0
177
     0
178
     0
270
     2
271
     4
272
     4
273
     2
274
     2
340
10
275
     0
280
     0
281
     0
282
     0
283
     1
284
     0
285
     0
286
     0
287
     3
288
     0
  0
ENDTAB
  0
TABLE
  2
BLOCK_RECORD
  5
1
100
AcDbSymbolTable
 70
    19
  0
BLOCK_RECORD
  5
19
100
AcDbSymbolTableRecord
100
AcDbBlockTableRecord
  2
*MODEL_SPACE
  0
BLOCK_RECORD
  5
16
100
AcDbSymbolTableRecord
100
AcDbBlockTableRecord
  2
*PAPER_SPACE
  0
BLOCK_RECORD
  5
286
100
AcDbSymbolTableRecord
100
AcDbBlockTableRecord
  2
*D0
  0
BLOCK_RECORD
  5
2C5
100
AcDbSymbolTableRecord
100
AcDbBlockTableRecord
  2
*D1
  0
BLOCK_RECORD
  5
2D2
100
AcDbSymbolTableRecord
100
AcDbBlockTableRecord
  2
*D2
  0
BLOCK_RECORD
  5
2DF
100
AcDbSymbolTableRecord
100
AcDbBlockTableRecord
  2
*D3
  0
BLOCK_RECORD
  5
2EC
100
AcDbSymbolTableRecord
100
AcDbBlockTableRecord
  2
*D4
  0
BLOCK_RECORD
  5
2F9
100
AcDbSymbolTableRecord
100
AcDbBlockTableRecord
  2
*D5
  0
BLOCK_RECORD
  5
311
100
AcDbSymbolTableRecord
100
AcDbBlockTableRecord
  2
*D6
  0
BLOCK_RECORD
  5
323
100
AcDbSymbolTableRecord
100
AcDbBlockTableRecord
  2
*D7
  0
BLOCK_RECORD
  5
32C
100
AcDbSymbolTableRecord
100
AcDbBlockTableRecord
  2
*D8
  0
BLOCK_RECORD
  5
360
100
AcDbSymbolTableRecord
100
AcDbBlockTableRecord
  2
*X9
  0
BLOCK_RECORD
  5
43F
100
AcDbSymbolTableRecord
100
AcDbBlockTableRecord
  2
*D10
  0
BLOCK_RECORD
  5
449
100
AcDbSymbolTableRecord
100
AcDbBlockTableRecord
  2
*D11
  0
BLOCK_RECORD
  5
470
100
AcDbSymbolTableRecord
100
AcDbBlockTableRecord
  2
RUGOSITA
  0
BLOCK_RECORD
  5
4CB
100
AcDbSymbolTableRecord
100
AcDbBlockTableRecord
  2
*D13
  0
BLOCK_RECORD
  5
53F
100
AcDbSymbolTableRecord
100
AcDbBlockTableRecord
  2
A$C8213
  0
BLOCK_RECORD
  5
573
100
AcDbSymbolTableRecord
100
AcDbBlockTableRecord
  2
A$CC223
  0
BLOCK_RECORD
  5
5A6
100
AcDbSymbolTableRecord
100
AcDbBlockTableRecord
  2
*D16
  0
BLOCK_RECORD
  5
5B3
100
AcDbSymbolTableRecord
100
AcDbBlockTableRecord
  2
*D17
  0
BLOCK_RECORD
  5
5C2
100
AcDbSymbolTableRecord
100
AcDbBlockTableRecord
  2
*D18
  0
ENDTAB
  0
ENDSEC
  0
SECTION
  2
BLOCKS
  0
BLOCK
  5
1A
100
AcDbEntity
  8
0
100
AcDbBlockBegin
  2
*MODEL_SPACE
 70
     0
 10
0.0
 20
0.0
 30
0.0
  3
*MODEL_SPACE
  1

  0
ENDBLK
  5
1B
100
AcDbEntity
  8
0
100
AcDbBlockEnd
  0
BLOCK
  5
17
100
AcDbEntity
 67
     1
  8
0
100
AcDbBlockBegin
  2
*PAPER_SPACE
 70
     0
 10
0.0
 20
0.0
 30
0.0
  3
*PAPER_SPACE
  1

  0
ENDBLK
  5
18
100
AcDbEntity
 67
     1
  8
0
100
AcDbBlockEnd
  0
BLOCK
  5
568
100
AcDbEntity
  8
0
100
AcDbBlockBegin
  2
*D0
 70
    65
 10
0.0
 20
0.0
 30
0.0
  3
*D0
  1

  0
LINE
  5
569
100
AcDbEntity
  8
0
  6
BYBLOCK
 62
     0
100
AcDbLine
 10
72.159591
 20
234.926739
 30
0.0
 11
72.159591
 21
251.418687
 31
0.0
  0
LINE
  5
56A
100
AcDbEntity
  8
0
  6
BYBLOCK
 62
     0
100
AcDbLine
 10
135.159591
 20
234.926739
 30
0.0
 11
135.159591
 21
251.418687
 31
0.0
  0
LINE
  5
56B
100
AcDbEntity
  8
0
  6
BYBLOCK
 62
     0
100
AcDbLine
 10
74.659591
 20
250.168687
 30
0.0
 11
132.659591
 21
250.168687
 31
0.0
  0
SOLID
  5
56C
100
AcDbEntity
  8
0
  6
BYBLOCK
 62
     0
100
AcDbTrace
 10
74.659591
 20
250.585354
 30
0.0
 11
74.659591
 21
249.75202
 31
0.0
 12
72.159591
 22
250.168687
 32
0.0
 13
72.159591
 23
250.168687
 33
0.0
  0
SOLID
  5
56D
100
AcDbEntity
  8
0
  6
BYBLOCK
 62
     0
100
AcDbTrace
 10
132.659591
 20
250.585354
 30
0.0
 11
132.659591
 21
249.75202
 31
0.0
 12
135.159591
 22
250.168687
 32
0.0
 13
135.159591
 23
250.168687
 33
0.0
  0
MTEXT
  5
56E
100
AcDbEntity
  8
0
  6
BYBLOCK
 62
     0
100
AcDbMText
 10
103.659591
 20
252.293687
 30
0.0
 40
3.0
 41
0.0
 71
     5
 72
     1
  1
\A1;63
  0
POINT
  5
56F
100
AcDbEntity
  8
DEFPOINTS
  6
BYBLOCK
 62
     0
100
AcDbPoint
 10
72.159591
 20
234.301739
 30
0.0
  0
POINT
  5
570
100
AcDbEntity
  8
DEFPOINTS
  6
BYBLOCK
 62
     0
100
AcDbPoint
 10
135.159591
 20
234.301739
 30
0.0
  0
POINT
  5
571
100
AcDbEntity
  8
DEFPOINTS
  6
BYBLOCK
 62
     0
100
AcDbPoint
 10
135.159591
 20
250.168687
 30
0.0
  0
ENDBLK
  5
572
100
AcDbEntity
  8
0
100
AcDbBlockEnd
  0
BLOCK
  5
405
100
AcDbEntity
  8
0
100
AcDbBlockBegin
  2
*D1
 70
    65
 10
0.0
 20
0.0
 30
0.0
  3
*D1
  1

  0
LINE
  5
406
100
AcDbEntity
  8
0
  6
BYBLOCK
 62
     0
100
AcDbLine
 10
73.659591
 20
158.676739
 30
0.0
 11
73.659591
 21
141.717242
 31
0.0
  0
LINE
  5
407
100
AcDbEntity
  8
0
  6
BYBLOCK
 62
     0
100
AcDbLine
 10
133.659591
 20
158.676739
 30
0.0
 11
133.659591
 21
141.717242
 31
0.0
  0
LINE
  5
408
100
AcDbEntity
  8
0
  6
BYBLOCK
 62
     0
100
AcDbLine
 10
76.159591
 20
142.967242
 30
0.0
 11
131.159591
 21
142.967242
 31
0.0
  0
SOLID
  5
409
100
AcDbEntity
  8
0
  6
BYBLOCK
 62
     0
100
AcDbTrace
 10
76.159591
 20
143.383908
 30
0.0
 11
76.159591
 21
142.550575
 31
0.0
 12
73.659591
 22
142.967242
 32
0.0
 13
73.659591
 23
142.967242
 33
0.0
  0
SOLID
  5
40A
100
AcDbEntity
  8
0
  6
BYBLOCK
 62
     0
100
AcDbTrace
 10
131.159591
 20
143.383908
 30
0.0
 11
131.159591
 21
142.550575
 31
0.0
 12
133.659591
 22
142.967242
 32
0.0
 13
133.659591
 23
142.967242
 33
0.0
  0
MTEXT
  5
40B
100
AcDbEntity
  8
0
  6
BYBLOCK
 62
     0
100
AcDbMText
 10
103.659591
 20
146.273186
 30
0.0
 40
3.0
 41
0.0
 71
     5
 72
     1
  1
\A2;60{\H2.400000;\S+0.05^  0;}
  0
POINT
  5
40C
100
AcDbEntity
  8
DEFPOINTS
  6
BYBLOCK
 62
     0
100
AcDbPoint
 10
73.659591
 20
159.301739
 30
0.0
  0
POINT
  5
40D
100
AcDbEntity
  8
DEFPOINTS
  6
BYBLOCK
 62
     0
100
AcDbPoint
 10
133.659591
 20
159.301739
 30
0.0
  0
POINT
  5
40E
100
AcDbEntity
  8
DEFPOINTS
  6
BYBLOCK
 62
     0
100
AcDbPoint
 10
133.659591
 20
142.967242
 30
0.0
  0
ENDBLK
  5
40F
100
AcDbEntity
  8
0
100
AcDbBlockEnd
  0
BLOCK
  5
3FA
100
AcDbEntity
  8
0
100
AcDbBlockBegin
  2
*D2
 70
    65
 10
0.0
 20
0.0
 30
0.0
  3
*D2
  1

  0
LINE
  5
3FB
100
AcDbEntity
  8
0
  6
BYBLOCK
 62
     0
100
AcDbLine
 10
144.284591
 20
234.301739
 30
0.0
 11
171.875614
 21
234.301739
 31
0.0
  0
LINE
  5
3FC
100
AcDbEntity
  8
0
  6
BYBLOCK
 62
     0
100
AcDbLine
 10
134.284591
 20
159.301739
 30
0.0
 11
171.875614
 21
159.301739
 31
0.0
  0
LINE
  5
3FD
100
AcDbEntity
  8
0
  6
BYBLOCK
 62
     0
100
AcDbLine
 10
170.625614
 20
231.801739
 30
0.0
 11
170.625614
 21
161.801739
 31
0.0
  0
SOLID
  5
3FE
100
AcDbEntity
  8
0
  6
BYBLOCK
 62
     0
100
AcDbTrace
 10
170.208947
 20
231.801739
 30
0.0
 11
171.04228
 21
231.801739
 31
0.0
 12
170.625614
 22
234.301739
 32
0.0
 13
170.625614
 23
234.301739
 33
0.0
  0
SOLID
  5
3FF
100
AcDbEntity
  8
0
  6
BYBLOCK
 62
     0
100
AcDbTrace
 10
170.208947
 20
161.801739
 30
0.0
 11
171.04228
 21
161.801739
 31
0.0
 12
170.625614
 22
159.301739
 32
0.0
 13
170.625614
 23
159.301739
 33
0.0
  0
MTEXT
  5
400
100
AcDbEntity
  8
0
  6
BYBLOCK
 62
     0
100
AcDbMText
 10
167.259905
 20
196.801739
 30
0.0
 40
3.0
 41
0.0
 71
     5
 72
     1
  1
\A2;75{\H2.400000;\S+0.02^  0;}
 11
0.0
 21
1.0
 31
0.0
  0
POINT
  5
401
100
AcDbEntity
  8
DEFPOINTS
  6
BYBLOCK
 62
     0
100
AcDbPoint
 10
143.659591
 20
234.301739
 30
0.0
  0
POINT
  5
402
100
AcDbEntity
  8
DEFPOINTS
  6
BYBLOCK
 62
     0
100
AcDbPoint
 10
133.659591
 20
159.301739
 30
0.0
  0
POINT
  5
403
100
AcDbEntity
  8
DEFPOINTS
  6
BYBLOCK
 62
     0
100
AcDbPoint
 10
170.625614
 20
159.301739
 30
0.0
  0
ENDBLK
  5
404
100
AcDbEntity
  8
0
100
AcDbBlockEnd
  0
BLOCK
  5
2E0
100
AcDbEntity
  8
0
100
AcDbBlockBegin
  2
*D3
 70
    65
 10
0.0
 20
0.0
 30
0.0
  3
*D3
  1

  0
LINE
  5
2E1
100
AcDbEntity
  8
0
  6
BYBLOCK
 62
     0
100
AcDbLine
 10
144.284591
 20
179.301739
 30
0.0
 11
156.889618
 21
179.301739
 31
0.0
  0
LINE
  5
2E2
100
AcDbEntity
  8
0
  6
BYBLOCK
 62
     0
100
AcDbLine
 10
134.284591
 20
159.301739
 30
0.0
 11
156.889618
 21
159.301739
 31
0.0
  0
LINE
  5
2E3
100
AcDbEntity
  8
0
  6
BYBLOCK
 62
     0
100
AcDbLine
 10
155.639618
 20
176.801739
 30
0.0
 11
155.639618
 21
161.801739
 31
0.0
  0
SOLID
  5
2E4
100
AcDbEntity
  8
0
  6
BYBLOCK
 62
     0
100
AcDbTrace
 10
155.222951
 20
176.801739
 30
0.0
 11
156.056285
 21
176.801739
 31
0.0
 12
155.639618
 22
179.301739
 32
0.0
 13
155.639618
 23
179.301739
 33
0.0
  0
SOLID
  5
2E5
100
AcDbEntity
  8
0
  6
BYBLOCK
 62
     0
100
AcDbTrace
 10
155.222951
 20
161.801739
 30
0.0
 11
156.056285
 21
161.801739
 31
0.0
 12
155.639618
 22
159.301739
 32
0.0
 13
155.639618
 23
159.301739
 33
0.0
  0
MTEXT
  5
2E6
100
AcDbEntity
  8
0
  6
BYBLOCK
 62
     0
100
AcDbMText
 10
153.514618
 20
169.301739
 30
0.0
 40
3.0
 41
0.0
 71
     5
 72
     1
  1
\A1;20
 11
0.0
 21
1.0
 31
0.0
  0
POINT
  5
2E7
100
AcDbEntity
  8
DEFPOINTS
  6
BYBLOCK
 62
     0
100
AcDbPoint
 10
143.659591
 20
179.301739
 30
0.0
  0
POINT
  5
2E8
100
AcDbEntity
  8
DEFPOINTS
  6
BYBLOCK
 62
     0
100
AcDbPoint
 10
133.659591
 20
159.301739
 30
0.0
  0
POINT
  5
2E9
100
AcDbEntity
  8
DEFPOINTS
  6
BYBLOCK
 62
     0
100
AcDbPoint
 10
155.639618
 20
159.301739
 30
0.0
  0
ENDBLK
  5
2EA
100
AcDbEntity
  8
0
100
AcDbBlockEnd
  0
BLOCK
  5
55D
100
AcDbEntity
  8
0
100
AcDbBlockBegin
  2
*D4
 70
    65
 10
0.0
 20
0.0
 30
0.0
  3
*D4
  1

  0
LINE
  5
55E
100
AcDbEntity
  8
0
  6
BYBLOCK
 62
     0
100
AcDbLine
 10
63.659591
 20
234.926739
 30
0.0
 11
63.659591
 21
263.513465
 31
0.0
  0
LINE
  5
55F
100
AcDbEntity
  8
0
  6
BYBLOCK
 62
     0
100
AcDbLine
 10
143.659591
 20
234.926739
 30
0.0
 11
143.659591
 21
263.513465
 31
0.0
  0
LINE
  5
560
100
AcDbEntity
  8
0
  6
BYBLOCK
 62
     0
100
AcDbLine
 10
66.159591
 20
262.263465
 30
0.0
 11
141.159591
 21
262.263465
 31
0.0
  0
SOLID
  5
561
100
AcDbEntity
  8
0
  6
BYBLOCK
 62
     0
100
AcDbTrace
 10
66.159591
 20
262.680132
 30
0.0
 11
66.159591
 21
261.846799
 31
0.0
 12
63.659591
 22
262.263465
 32
0.0
 13
63.659591
 23
262.263465
 33
0.0
  0
SOLID
  5
562
100
AcDbEntity
  8
0
  6
BYBLOCK
 62
     0
100
AcDbTrace
 10
141.159591
 20
262.680132
 30
0.0
 11
141.159591
 21
261.846799
 31
0.0
 12
143.659591
 22
262.263465
 32
0.0
 13
143.659591
 23
262.263465
 33
0.0
  0
MTEXT
  5
563
100
AcDbEntity
  8
0
  6
BYBLOCK
 62
     0
100
AcDbMText
 10
103.659591
 20
264.388465
 30
0.0
 40
3.0
 41
0.0
 71
     5
 72
     1
  1
\A2;80{\H2.400000;±0.05}
  0
POINT
  5
564
100
AcDbEntity
  8
DEFPOINTS
  6
BYBLOCK
 62
     0
100
AcDbPoint
 10
63.659591
 20
234.301739
 30
0.0
  0
POINT
  5
565
100
AcDbEntity
  8
DEFPOINTS
  6
BYBLOCK
 62
     0
100
AcDbPoint
 10
143.659591
 20
234.301739
 30
0.0
  0
POINT
  5
566
100
AcDbEntity
  8
DEFPOINTS
  6
BYBLOCK
 62
     0
100
AcDbPoint
 10
143.659591
 20
262.263465
 30
0.0
  0
ENDBLK
  5
567
100
AcDbEntity
  8
0
100
AcDbBlockEnd
  0
BLOCK
  5
47D
100
AcDbEntity
  8
0
100
AcDbBlockBegin
  2
*D5
 70
    65
 10
0.0
 20
0.0
 30
0.0
  3
*D5
  1

  0
ARC
  5
47E
100
AcDbEntity
  8
0
  6
BYBLOCK
 62
     0
100
AcDbCircle
 10
103.659591
 20
199.925521
 30
0.0
 40
43.19397
100
AcDbArc
 50
50.816654
 51
129.183346
  0
SOLID
  5
47F
100
AcDbEntity
  8
0
  6
BYBLOCK
 62
     0
100
AcDbTrace
 10
131.222203
 20
233.721601
 30
0.0
 11
130.677228
 21
233.091168
 31
0.0
 12
132.841014
 22
231.771457
 32
0.0
 13
132.841014
 23
231.771457
 33
0.0
  0
SOLID
  5
480
100
AcDbEntity
  8
0
  6
BYBLOCK
 62
     0
100
AcDbTrace
 10
76.641954
 20
233.091168
 30
0.0
 11
76.096979
 21
233.721601
 31
0.0
 12
74.478168
 22
231.771457
 32
0.0
 13
74.478168
 23
231.771457
 33
0.0
  0
MTEXT
  5
481
100
AcDbEntity
  8
0
  6
BYBLOCK
 62
     0
100
AcDbMText
 10
103.659591
 20
245.244492
 30
0.0
 40
3.0
 41
0.0
 71
     5
 72
     1
  1
\A1;85°
  0
POINT
  5
482
100
AcDbEntity
  8
DEFPOINTS
  6
BYBLOCK
 62
     0
100
AcDbPoint
 10
114.231028
 20
241.805872
 30
0.0
  0
POINT
  5
483
100
AcDbEntity
  8
DEFPOINTS
  6
BYBLOCK
 62
     0
100
AcDbPoint
 10
73.645925
 20
232.67969
 30
0.0
  0
POINT
  5
484
100
AcDbEntity
  8
DEFPOINTS
  6
BYBLOCK
 62
     0
100
AcDbPoint
 10
133.673257
 20
232.67969
 30
0.0
  0
POINT
  5
485
100
AcDbEntity
  8
DEFPOINTS
  6
BYBLOCK
 62
     0
100
AcDbPoint
 10
129.422108
 20
228.040375
 30
0.0
  0
POINT
  5
486
100
AcDbEntity
  8
DEFPOINTS
  6
BYBLOCK
 62
     0
100
AcDbPoint
 10
77.902108
 20
228.034882
 30
0.0
  0
ENDBLK
  5
487
100
AcDbEntity
  8
0
100
AcDbBlockEnd
  0
BLOCK
  5
31B
100
AcDbEntity
  8
0
100
AcDbBlockBegin
  2
*D6
 70
    65
 10
0.0
 20
0.0
 30
0.0
  3
*D6
  1

  0
LINE
  5
31C
100
AcDbEntity
  8
0
  6
BYBLOCK
 62
     0
100
AcDbLine
 10
137.359644
 20
229.301739
 30
0.0
 11
135.74843
 21
231.21328
 31
0.0
  0
LINE
  5
31D
100
AcDbEntity
  8
0
  6
BYBLOCK
 62
     0
100
AcDbLine
 10
134.137215
 20
233.124821
 30
0.0
 11
127.605903
 21
240.873557
 31
0.0
  0
SOLID
  5
31E
100
AcDbEntity
  8
0
  6
BYBLOCK
 62
     0
100
AcDbTrace
 10
136.06702
 20
231.481816
 30
0.0
 11
135.429839
 21
230.944744
 31
0.0
 12
134.137215
 22
233.124821
 32
0.0
 13
134.137215
 23
233.124821
 33
0.0
  0
MTEXT
  5
31F
100
AcDbEntity
  8
0
  6
BYBLOCK
 62
     0
100
AcDbMText
 10
130.953645
 20
240.199005
 30
0.0
 40
3.0
 41
0.0
 71
     5
 72
     1
  1
\A1;R5
 11
0.644486
 21
-0.764616
 31
0.0
  0
POINT
  5
320
100
AcDbEntity
  8
DEFPOINTS
  6
BYBLOCK
 62
     0
100
AcDbPoint
 10
134.137215
 20
233.124821
 30
0.0
  0
POINT
  5
321
100
AcDbEntity
  8
DEFPOINTS
  6
BYBLOCK
 62
     0
100
AcDbPoint
 10
137.359644
 20
229.301739
 30
0.0
  0
ENDBLK
  5
322
100
AcDbEntity
  8
0
100
AcDbBlockEnd
  0
BLOCK
  5
324
100
AcDbEntity
  8
0
100
AcDbBlockBegin
  2
*D7
 70
    65
 10
0.0
 20
0.0
 30
0.0
  3
*D7
  1

  0
LINE
  5
325
100
AcDbEntity
  8
0
  6
BYBLOCK
 62
     0
100
AcDbLine
 10
108.877296
 20
200.616349
 30
0.0
 11
110.411915
 21
198.642787
 31
0.0
  0
SOLID
  5
326
100
AcDbEntity
  8
0
  6
BYBLOCK
 62
     0
100
AcDbTrace
 10
109.206223
 20
200.872119
 30
0.0
 11
108.548369
 21
200.360579
 31
0.0
 12
107.342677
 22
202.58991
 32
0.0
 13
107.342677
 23
202.58991
 33
0.0
  0
MTEXT
  5
327
100
AcDbEntity
  8
0
  6
BYBLOCK
 62
     0
100
AcDbMText
 10
107.178661
 20
206.26261
 30
0.0
 40
3.0
 41
0.0
 71
     5
 72
     1
  1
\A1;R6
 11
0.613848
 21
-0.789425
 31
0.0
  0
POINT
  5
328
100
AcDbEntity
  8
DEFPOINTS
  6
BYBLOCK
 62
     0
100
AcDbPoint
 10
107.342677
 20
202.58991
 30
0.0
  0
POINT
  5
329
100
AcDbEntity
  8
DEFPOINTS
  6
BYBLOCK
 62
     0
100
AcDbPoint
 10
103.659591
 20
207.326457
 30
0.0
  0
ENDBLK
  5
32A
100
AcDbEntity
  8
0
100
AcDbBlockEnd
  0
BLOCK
  5
32D
100
AcDbEntity
  8
0
100
AcDbBlockBegin
  2
*D8
 70
    65
 10
0.0
 20
0.0
 30
0.0
  3
*D8
  1

  0
LINE
  5
32E
100
AcDbEntity
  8
0
  6
BYBLOCK
 62
     0
100
AcDbLine
 10
78.324352
 20
227.574083
 30
0.0
 11
84.660266
 21
220.659646
 31
0.0
  0
LINE
  5
32F
100
AcDbEntity
  8
0
  6
BYBLOCK
 62
     0
100
AcDbLine
 10
77.587074
 20
226.898493
 30
0.0
 11
83.922989
 21
219.984055
 31
0.0
  0
LINE
  5
330
100
AcDbEntity
  8
0
  6
BYBLOCK
 62
     0
100
AcDbLine
 10
85.658972
 20
223.270218
 30
0.0
 11
87.502165
 21
224.959193
 31
0.0
  0
LINE
  5
331
100
AcDbEntity
  8
0
  6
BYBLOCK
 62
     0
100
AcDbLine
 10
81.235308
 20
219.216677
 30
0.0
 11
77.983915
 21
216.237324
 31
0.0
  0
SOLID
  5
332
100
AcDbEntity
  8
0
  6
BYBLOCK
 62
     0
100
AcDbTrace
 10
85.377476
 20
223.577417
 30
0.0
 11
85.940468
 21
222.963019
 31
0.0
 12
83.815779
 22
221.581242
 32
0.0
 13
83.815779
 23
221.581242
 33
0.0
  0
SOLID
  5
333
100
AcDbEntity
  8
0
  6
BYBLOCK
 62
     0
100
AcDbTrace
 10
80.953812
 20
219.523875
 30
0.0
 11
81.516804
 21
218.909478
 31
0.0
 12
83.078501
 22
220.905652
 32
0.0
 13
83.078501
 23
220.905652
 33
0.0
  0
MTEXT
  5
334
100
AcDbEntity
  8
0
  6
BYBLOCK
 62
     0
100
AcDbMText
 10
77.252386
 20
218.449227
 30
0.0
 40
3.0
 41
0.0
 71
     5
 72
     1
  1
\A1;1
 11
0.737277
 21
0.67559
 31
0.0
  0
POINT
  5
335
100
AcDbEntity
  8
DEFPOINTS
  6
BYBLOCK
 62
     0
100
AcDbPoint
 10
77.902108
 20
228.034882
 30
0.0
  0
POINT
  5
336
100
AcDbEntity
  8
DEFPOINTS
  6
BYBLOCK
 62
     0
100
AcDbPoint
 10
77.16483
 20
227.359291
 30
0.0
  0
POINT
  5
337
100
AcDbEntity
  8
DEFPOINTS
  6
BYBLOCK
 62
     0
100
AcDbPoint
 10
83.078501
 20
220.905652
 30
0.0
  0
ENDBLK
  5
338
100
AcDbEntity
  8
0
100
AcDbBlockEnd
  0
BLOCK
  5
361
100
AcDbEntity
  8
0
100
AcDbBlockBegin
  2
*X9
 70
    65
 10
0.0
 20
0.0
 30
0.0
  3
*X9
  1

  0
LINE
  5
363
100
AcDbEntity
  8
0
 62
     0
100
AcDbLine
 10
77.851832
 20
228.046615
 30
0.0
 11
77.872457
 21
228.06724
 31
0.0
  0
LINE
  5
364
100
AcDbEntity
  8
0
 62
     0
100
AcDbLine
 10
77.669808
 20
228.089098
 30
0.0
 11
77.765104
 21
228.184394
 31
0.0
  0
LINE
  5
365
100
AcDbEntity
  8
0
 62
     0
100
AcDbLine
 10
77.487784
 20
228.13158
 30
0.0
 11
77.657752
 21
228.301549
 31
0.0
  0
LINE
  5
366
100
AcDbEntity
  8
0
 62
     0
100
AcDbLine
 10
77.30576
 20
228.174063
 30
0.0
 11
77.5504
 21
228.418703
 31
0.0
  0
LINE
  5
367
100
AcDbEntity
  8
0
 62
     0
100
AcDbLine
 10
77.123736
 20
228.216546
 30
0.0
 11
77.443048
 21
228.535857
 31
0.0
  0
LINE
  5
368
100
AcDbEntity
  8
0
 62
     0
100
AcDbLine
 10
76.941712
 20
228.259028
 30
0.0
 11
77.335696
 21
228.653012
 31
0.0
  0
LINE
  5
369
100
AcDbEntity
  8
0
 62
     0
100
AcDbLine
 10
76.759689
 20
228.301511
 30
0.0
 11
77.228344
 21
228.770166
 31
0.0
  0
LINE
  5
36A
100
AcDbEntity
  8
0
 62
     0
100
AcDbLine
 10
76.577665
 20
228.343993
 30
0.0
 11
77.120992
 21
228.88732
 31
0.0
  0
LINE
  5
36B
100
AcDbEntity
  8
0
 62
     0
100
AcDbLine
 10
76.395641
 20
228.386476
 30
0.0
 11
77.01364
 21
229.004474
 31
0.0
  0
LINE
  5
36C
100
AcDbEntity
  8
0
 62
     0
100
AcDbLine
 10
76.213617
 20
228.428958
 30
0.0
 11
76.906287
 21
229.121629
 31
0.0
  0
LINE
  5
36D
100
AcDbEntity
  8
0
 62
     0
100
AcDbLine
 10
76.031593
 20
228.471441
 30
0.0
 11
76.798935
 21
229.238783
 31
0.0
  0
LINE
  5
36E
100
AcDbEntity
  8
0
 62
     0
100
AcDbLine
 10
75.849569
 20
228.513923
 30
0.0
 11
76.691583
 21
229.355937
 31
0.0
  0
LINE
  5
36F
100
AcDbEntity
  8
0
 62
     0
100
AcDbLine
 10
75.667545
 20
228.556406
 30
0.0
 11
76.584231
 21
229.473092
 31
0.0
  0
LINE
  5
370
100
AcDbEntity
  8
0
 62
     0
100
AcDbLine
 10
75.485521
 20
228.598888
 30
0.0
 11
76.476879
 21
229.590246
 31
0.0
  0
LINE
  5
371
100
AcDbEntity
  8
0
 62
     0
100
AcDbLine
 10
75.303498
 20
228.641371
 30
0.0
 11
76.369527
 21
229.7074
 31
0.0
  0
LINE
  5
372
100
AcDbEntity
  8
0
 62
     0
100
AcDbLine
 10
75.121474
 20
228.683853
 30
0.0
 11
76.262175
 21
229.824554
 31
0.0
  0
LINE
  5
373
100
AcDbEntity
  8
0
 62
     0
100
AcDbLine
 10
74.93945
 20
228.726336
 30
0.0
 11
76.154823
 21
229.941709
 31
0.0
  0
LINE
  5
374
100
AcDbEntity
  8
0
 62
     0
100
AcDbLine
 10
74.757426
 20
228.768818
 30
0.0
 11
76.04747
 21
230.058863
 31
0.0
  0
LINE
  5
375
100
AcDbEntity
  8
0
 62
     0
100
AcDbLine
 10
74.575402
 20
228.811301
 30
0.0
 11
75.940118
 21
230.176017
 31
0.0
  0
LINE
  5
376
100
AcDbEntity
  8
0
 62
     0
100
AcDbLine
 10
74.393378
 20
228.853784
 30
0.0
 11
75.832766
 21
230.293172
 31
0.0
  0
LINE
  5
377
100
AcDbEntity
  8
0
 62
     0
100
AcDbLine
 10
74.211354
 20
228.896266
 30
0.0
 11
75.725414
 21
230.410326
 31
0.0
  0
LINE
  5
378
100
AcDbEntity
  8
0
 62
     0
100
AcDbLine
 10
74.02933
 20
228.938749
 30
0.0
 11
75.618062
 21
230.52748
 31
0.0
  0
LINE
  5
379
100
AcDbEntity
  8
0
 62
     0
100
AcDbLine
 10
73.847307
 20
228.981231
 30
0.0
 11
75.51071
 21
230.644634
 31
0.0
  0
LINE
  5
37A
100
AcDbEntity
  8
0
 62
     0
100
AcDbLine
 10
73.665283
 20
229.023714
 30
0.0
 11
75.403358
 21
230.761789
 31
0.0
  0
LINE
  5
37B
100
AcDbEntity
  8
0
 62
     0
100
AcDbLine
 10
73.483259
 20
229.066196
 30
0.0
 11
75.296006
 21
230.878943
 31
0.0
  0
LINE
  5
37C
100
AcDbEntity
  8
0
 62
     0
100
AcDbLine
 10
73.301235
 20
229.108679
 30
0.0
 11
75.188654
 21
230.996097
 31
0.0
  0
LINE
  5
37D
100
AcDbEntity
  8
0
 62
     0
100
AcDbLine
 10
73.119211
 20
229.151161
 30
0.0
 11
75.081301
 21
231.113252
 31
0.0
  0
LINE
  5
37E
100
AcDbEntity
  8
0
 62
     0
100
AcDbLine
 10
72.937187
 20
229.193644
 30
0.0
 11
74.973949
 21
231.230406
 31
0.0
  0
LINE
  5
37F
100
AcDbEntity
  8
0
 62
     0
100
AcDbLine
 10
72.755163
 20
229.236126
 30
0.0
 11
74.866597
 21
231.34756
 31
0.0
  0
LINE
  5
380
100
AcDbEntity
  8
0
 62
     0
100
AcDbLine
 10
72.57314
 20
229.278609
 30
0.0
 11
74.759245
 21
231.464714
 31
0.0
  0
LINE
  5
381
100
AcDbEntity
  8
0
 62
     0
100
AcDbLine
 10
72.391116
 20
229.321091
 30
0.0
 11
74.651893
 21
231.581869
 31
0.0
  0
LINE
  5
382
100
AcDbEntity
  8
0
 62
     0
100
AcDbLine
 10
72.209092
 20
229.363574
 30
0.0
 11
74.544541
 21
231.699023
 31
0.0
  0
LINE
  5
383
100
AcDbEntity
  8
0
 62
     0
100
AcDbLine
 10
72.027068
 20
229.406056
 30
0.0
 11
74.437189
 21
231.816177
 31
0.0
  0
LINE
  5
384
100
AcDbEntity
  8
0
 62
     0
100
AcDbLine
 10
71.845044
 20
229.448539
 30
0.0
 11
74.329837
 21
231.933331
 31
0.0
  0
LINE
  5
385
100
AcDbEntity
  8
0
 62
     0
100
AcDbLine
 10
71.66302
 20
229.491021
 30
0.0
 11
74.222484
 21
232.050486
 31
0.0
  0
LINE
  5
386
100
AcDbEntity
  8
0
 62
     0
100
AcDbLine
 10
71.480996
 20
229.533504
 30
0.0
 11
74.115132
 21
232.16764
 31
0.0
  0
LINE
  5
387
100
AcDbEntity
  8
0
 62
     0
100
AcDbLine
 10
71.298972
 20
229.575987
 30
0.0
 11
74.00778
 21
232.284794
 31
0.0
  0
LINE
  5
388
100
AcDbEntity
  8
0
 62
     0
100
AcDbLine
 10
71.116949
 20
229.618469
 30
0.0
 11
73.900428
 21
232.401949
 31
0.0
  0
LINE
  5
389
100
AcDbEntity
  8
0
 62
     0
100
AcDbLine
 10
70.934925
 20
229.660952
 30
0.0
 11
73.793076
 21
232.519103
 31
0.0
  0
LINE
  5
38A
100
AcDbEntity
  8
0
 62
     0
100
AcDbLine
 10
70.752901
 20
229.703434
 30
0.0
 11
73.685724
 21
232.636257
 31
0.0
  0
LINE
  5
38B
100
AcDbEntity
  8
0
 62
     0
100
AcDbLine
 10
70.570877
 20
229.745917
 30
0.0
 11
73.577665
 21
232.752704
 31
0.0
  0
LINE
  5
38C
100
AcDbEntity
  8
0
 62
     0
100
AcDbLine
 10
70.388853
 20
229.788399
 30
0.0
 11
73.466283
 21
232.865829
 31
0.0
  0
LINE
  5
38D
100
AcDbEntity
  8
0
 62
     0
100
AcDbLine
 10
70.206829
 20
229.830882
 30
0.0
 11
73.351336
 21
232.975389
 31
0.0
  0
LINE
  5
38E
100
AcDbEntity
  8
0
 62
     0
100
AcDbLine
 10
70.024805
 20
229.873364
 30
0.0
 11
73.232816
 21
233.081375
 31
0.0
  0
LINE
  5
38F
100
AcDbEntity
  8
0
 62
     0
100
AcDbLine
 10
69.842781
 20
229.915847
 30
0.0
 11
73.110704
 21
233.183769
 31
0.0
  0
LINE
  5
390
100
AcDbEntity
  8
0
 62
     0
100
AcDbLine
 10
69.660758
 20
229.958329
 30
0.0
 11
72.984968
 21
233.28254
 31
0.0
  0
LINE
  5
391
100
AcDbEntity
  8
0
 62
     0
100
AcDbLine
 10
69.478734
 20
230.000812
 30
0.0
 11
72.855567
 21
233.377646
 31
0.0
  0
LINE
  5
392
100
AcDbEntity
  8
0
 62
     0
100
AcDbLine
 10
69.29671
 20
230.043294
 30
0.0
 11
72.722448
 21
233.469032
 31
0.0
  0
LINE
  5
393
100
AcDbEntity
  8
0
 62
     0
100
AcDbLine
 10
69.114686
 20
230.085777
 30
0.0
 11
72.585541
 21
233.556632
 31
0.0
  0
LINE
  5
394
100
AcDbEntity
  8
0
 62
     0
100
AcDbLine
 10
68.932662
 20
230.128259
 30
0.0
 11
72.444765
 21
233.640362
 31
0.0
  0
LINE
  5
395
100
AcDbEntity
  8
0
 62
     0
100
AcDbLine
 10
68.750638
 20
230.170742
 30
0.0
 11
72.300022
 21
233.720125
 31
0.0
  0
LINE
  5
396
100
AcDbEntity
  8
0
 62
     0
100
AcDbLine
 10
68.568614
 20
230.213225
 30
0.0
 11
72.151196
 21
233.795806
 31
0.0
  0
LINE
  5
397
100
AcDbEntity
  8
0
 62
     0
100
AcDbLine
 10
68.38659
 20
230.255707
 30
0.0
 11
71.998151
 21
233.867268
 31
0.0
  0
LINE
  5
398
100
AcDbEntity
  8
0
 62
     0
100
AcDbLine
 10
68.204567
 20
230.29819
 30
0.0
 11
71.84073
 21
233.934353
 31
0.0
  0
LINE
  5
399
100
AcDbEntity
  8
0
 62
     0
100
AcDbLine
 10
68.022543
 20
230.340672
 30
0.0
 11
71.678747
 21
233.996877
 31
0.0
  0
LINE
  5
39A
100
AcDbEntity
  8
0
 62
     0
100
AcDbLine
 10
67.840519
 20
230.383155
 30
0.0
 11
71.511987
 21
234.054623
 31
0.0
  0
LINE
  5
39B
100
AcDbEntity
  8
0
 62
     0
100
AcDbLine
 10
67.658495
 20
230.425637
 30
0.0
 11
71.340196
 21
234.107338
 31
0.0
  0
LINE
  5
39C
100
AcDbEntity
  8
0
 62
     0
100
AcDbLine
 10
67.476471
 20
230.46812
 30
0.0
 11
71.163078
 21
234.154727
 31
0.0
  0
LINE
  5
39D
100
AcDbEntity
  8
0
 62
     0
100
AcDbLine
 10
67.294447
 20
230.510602
 30
0.0
 11
70.980283
 21
234.196438
 31
0.0
  0
LINE
  5
39E
100
AcDbEntity
  8
0
 62
     0
100
AcDbLine
 10
67.112423
 20
230.553085
 30
0.0
 11
70.791394
 21
234.232055
 31
0.0
  0
LINE
  5
39F
100
AcDbEntity
  8
0
 62
     0
100
AcDbLine
 10
66.930399
 20
230.595567
 30
0.0
 11
70.595909
 21
234.261077
 31
0.0
  0
LINE
  5
3A0
100
AcDbEntity
  8
0
 62
     0
100
AcDbLine
 10
66.748376
 20
230.63805
 30
0.0
 11
70.393221
 21
234.282895
 31
0.0
  0
LINE
  5
3A1
100
AcDbEntity
  8
0
 62
     0
100
AcDbLine
 10
66.566352
 20
230.680532
 30
0.0
 11
70.182581
 21
234.296762
 31
0.0
  0
LINE
  5
3A2
100
AcDbEntity
  8
0
 62
     0
100
AcDbLine
 10
66.384328
 20
230.723015
 30
0.0
 11
69.963051
 21
234.301738
 31
0.0
  0
LINE
  5
3A3
100
AcDbEntity
  8
0
 62
     0
100
AcDbLine
 10
66.202304
 20
230.765497
 30
0.0
 11
69.738545
 21
234.301739
 31
0.0
  0
LINE
  5
3A4
100
AcDbEntity
  8
0
 62
     0
100
AcDbLine
 10
66.02028
 20
230.80798
 30
0.0
 11
69.514039
 21
234.301739
 31
0.0
  0
LINE
  5
3A5
100
AcDbEntity
  8
0
 62
     0
100
AcDbLine
 10
65.838256
 20
230.850462
 30
0.0
 11
69.289533
 21
234.301739
 31
0.0
  0
LINE
  5
3A6
100
AcDbEntity
  8
0
 62
     0
100
AcDbLine
 10
65.656232
 20
230.892945
 30
0.0
 11
69.065026
 21
234.301739
 31
0.0
  0
LINE
  5
3A7
100
AcDbEntity
  8
0
 62
     0
100
AcDbLine
 10
65.474208
 20
230.935428
 30
0.0
 11
68.84052
 21
234.301739
 31
0.0
  0
LINE
  5
3A8
100
AcDbEntity
  8
0
 62
     0
100
AcDbLine
 10
65.292185
 20
230.97791
 30
0.0
 11
68.616013
 21
234.301739
 31
0.0
  0
LINE
  5
3A9
100
AcDbEntity
  8
0
 62
     0
100
AcDbLine
 10
65.110161
 20
231.020393
 30
0.0
 11
68.391507
 21
234.301739
 31
0.0
  0
LINE
  5
3AA
100
AcDbEntity
  8
0
 62
     0
100
AcDbLine
 10
64.928137
 20
231.062875
 30
0.0
 11
68.167001
 21
234.301739
 31
0.0
  0
LINE
  5
3AB
100
AcDbEntity
  8
0
 62
     0
100
AcDbLine
 10
64.746113
 20
231.105358
 30
0.0
 11
67.942494
 21
234.301739
 31
0.0
  0
LINE
  5
3AC
100
AcDbEntity
  8
0
 62
     0
100
AcDbLine
 10
64.564089
 20
231.14784
 30
0.0
 11
67.717988
 21
234.301739
 31
0.0
  0
LINE
  5
3AD
100
AcDbEntity
  8
0
 62
     0
100
AcDbLine
 10
64.382065
 20
231.190323
 30
0.0
 11
67.493481
 21
234.301739
 31
0.0
  0
LINE
  5
3AE
100
AcDbEntity
  8
0
 62
     0
100
AcDbLine
 10
64.200041
 20
231.232805
 30
0.0
 11
67.268975
 21
234.301739
 31
0.0
  0
LINE
  5
3AF
100
AcDbEntity
  8
0
 62
     0
100
AcDbLine
 10
64.018018
 20
231.275288
 30
0.0
 11
67.044469
 21
234.301739
 31
0.0
  0
LINE
  5
3B0
100
AcDbEntity
  8
0
 62
     0
100
AcDbLine
 10
63.835994
 20
231.31777
 30
0.0
 11
66.819962
 21
234.301739
 31
0.0
  0
LINE
  5
3B1
100
AcDbEntity
  8
0
 62
     0
100
AcDbLine
 10
63.659591
 20
231.365874
 30
0.0
 11
66.595456
 21
234.301739
 31
0.0
  0
LINE
  5
3B2
100
AcDbEntity
  8
0
 62
     0
100
AcDbLine
 10
63.659591
 20
231.59038
 30
0.0
 11
66.370949
 21
234.301739
 31
0.0
  0
LINE
  5
3B3
100
AcDbEntity
  8
0
 62
     0
100
AcDbLine
 10
63.659591
 20
231.814887
 30
0.0
 11
66.146443
 21
234.301739
 31
0.0
  0
LINE
  5
3B4
100
AcDbEntity
  8
0
 62
     0
100
AcDbLine
 10
63.659591
 20
232.039393
 30
0.0
 11
65.921937
 21
234.301739
 31
0.0
  0
LINE
  5
3B5
100
AcDbEntity
  8
0
 62
     0
100
AcDbLine
 10
63.659591
 20
232.2639
 30
0.0
 11
65.69743
 21
234.301739
 31
0.0
  0
LINE
  5
3B6
100
AcDbEntity
  8
0
 62
     0
100
AcDbLine
 10
63.659591
 20
232.488406
 30
0.0
 11
65.472924
 21
234.301739
 31
0.0
  0
LINE
  5
3B7
100
AcDbEntity
  8
0
 62
     0
100
AcDbLine
 10
63.659591
 20
232.712912
 30
0.0
 11
65.248417
 21
234.301739
 31
0.0
  0
LINE
  5
3B8
100
AcDbEntity
  8
0
 62
     0
100
AcDbLine
 10
63.659591
 20
232.937419
 30
0.0
 11
65.023911
 21
234.301739
 31
0.0
  0
LINE
  5
3B9
100
AcDbEntity
  8
0
 62
     0
100
AcDbLine
 10
63.659591
 20
233.161925
 30
0.0
 11
64.799405
 21
234.301739
 31
0.0
  0
LINE
  5
3BA
100
AcDbEntity
  8
0
 62
     0
100
AcDbLine
 10
133.683375
 20
232.690699
 30
0.0
 11
133.970683
 21
232.978007
 31
0.0
  0
LINE
  5
3BB
100
AcDbEntity
  8
0
 62
     0
100
AcDbLine
 10
131.224245
 20
230.007062
 30
0.0
 11
134.834341
 21
233.617159
 31
0.0
  0
LINE
  5
3BC
100
AcDbEntity
  8
0
 62
     0
100
AcDbLine
 10
129.422108
 20
227.980419
 30
0.0
 11
135.299102
 21
233.857413
 31
0.0
  0
LINE
  5
3BD
100
AcDbEntity
  8
0
 62
     0
100
AcDbLine
 10
129.422108
 20
227.755912
 30
0.0
 11
135.675911
 21
234.009716
 31
0.0
  0
LINE
  5
3BE
100
AcDbEntity
  8
0
 62
     0
100
AcDbLine
 10
129.536739
 20
227.646037
 30
0.0
 11
136.005609
 21
234.114907
 31
0.0
  0
LINE
  5
3BF
100
AcDbEntity
  8
0
 62
     0
100
AcDbLine
 10
129.847904
 20
227.732696
 30
0.0
 11
136.304304
 21
234.189096
 31
0.0
  0
LINE
  5
3C0
100
AcDbEntity
  8
0
 62
     0
100
AcDbLine
 10
130.159069
 20
227.819355
 30
0.0
 11
136.58035
 21
234.240636
 31
0.0
  0
LINE
  5
3C1
100
AcDbEntity
  8
0
 62
     0
100
AcDbLine
 10
130.470235
 20
227.906014
 30
0.0
 11
136.838753
 21
234.274532
 31
0.0
  0
LINE
  5
3C2
100
AcDbEntity
  8
0
 62
     0
100
AcDbLine
 10
130.7814
 20
227.992673
 30
0.0
 11
137.082796
 21
234.294069
 31
0.0
  0
LINE
  5
3C3
100
AcDbEntity
  8
0
 62
     0
100
AcDbLine
 10
131.092566
 20
228.079332
 30
0.0
 11
137.314771
 21
234.301538
 31
0.0
  0
LINE
  5
3C4
100
AcDbEntity
  8
0
 62
     0
100
AcDbLine
 10
131.403731
 20
228.165991
 30
0.0
 11
137.539479
 21
234.301739
 31
0.0
  0
LINE
  5
3C5
100
AcDbEntity
  8
0
 62
     0
100
AcDbLine
 10
131.714896
 20
228.25265
 30
0.0
 11
137.763986
 21
234.301739
 31
0.0
  0
LINE
  5
3C6
100
AcDbEntity
  8
0
 62
     0
100
AcDbLine
 10
132.026062
 20
228.339309
 30
0.0
 11
137.988492
 21
234.301739
 31
0.0
  0
LINE
  5
3C7
100
AcDbEntity
  8
0
 62
     0
100
AcDbLine
 10
132.337227
 20
228.425968
 30
0.0
 11
138.212998
 21
234.301739
 31
0.0
  0
LINE
  5
3C8
100
AcDbEntity
  8
0
 62
     0
100
AcDbLine
 10
132.648392
 20
228.512627
 30
0.0
 11
138.437505
 21
234.301739
 31
0.0
  0
LINE
  5
3C9
100
AcDbEntity
  8
0
 62
     0
100
AcDbLine
 10
132.959558
 20
228.599286
 30
0.0
 11
138.662011
 21
234.301739
 31
0.0
  0
LINE
  5
3CA
100
AcDbEntity
  8
0
 62
     0
100
AcDbLine
 10
133.270723
 20
228.685945
 30
0.0
 11
138.886518
 21
234.301739
 31
0.0
  0
LINE
  5
3CB
100
AcDbEntity
  8
0
 62
     0
100
AcDbLine
 10
133.581889
 20
228.772604
 30
0.0
 11
139.111024
 21
234.301739
 31
0.0
  0
LINE
  5
3CC
100
AcDbEntity
  8
0
 62
     0
100
AcDbLine
 10
133.893054
 20
228.859262
 30
0.0
 11
139.33553
 21
234.301739
 31
0.0
  0
LINE
  5
3CD
100
AcDbEntity
  8
0
 62
     0
100
AcDbLine
 10
134.204219
 20
228.945921
 30
0.0
 11
139.560037
 21
234.301739
 31
0.0
  0
LINE
  5
3CE
100
AcDbEntity
  8
0
 62
     0
100
AcDbLine
 10
134.515385
 20
229.03258
 30
0.0
 11
139.784543
 21
234.301739
 31
0.0
  0
LINE
  5
3CF
100
AcDbEntity
  8
0
 62
     0
100
AcDbLine
 10
134.82655
 20
229.119239
 30
0.0
 11
140.00905
 21
234.301739
 31
0.0
  0
LINE
  5
3D0
100
AcDbEntity
  8
0
 62
     0
100
AcDbLine
 10
135.137716
 20
229.205898
 30
0.0
 11
140.233556
 21
234.301739
 31
0.0
  0
LINE
  5
3D1
100
AcDbEntity
  8
0
 62
     0
100
AcDbLine
 10
135.448881
 20
229.292557
 30
0.0
 11
140.458062
 21
234.301739
 31
0.0
  0
LINE
  5
3D2
100
AcDbEntity
  8
0
 62
     0
100
AcDbLine
 10
135.760046
 20
229.379216
 30
0.0
 11
140.682569
 21
234.301739
 31
0.0
  0
LINE
  5
3D3
100
AcDbEntity
  8
0
 62
     0
100
AcDbLine
 10
136.071212
 20
229.465875
 30
0.0
 11
140.907075
 21
234.301739
 31
0.0
  0
LINE
  5
3D4
100
AcDbEntity
  8
0
 62
     0
100
AcDbLine
 10
136.382377
 20
229.552534
 30
0.0
 11
141.131582
 21
234.301739
 31
0.0
  0
LINE
  5
3D5
100
AcDbEntity
  8
0
 62
     0
100
AcDbLine
 10
136.693542
 20
229.639193
 30
0.0
 11
141.356088
 21
234.301739
 31
0.0
  0
LINE
  5
3D6
100
AcDbEntity
  8
0
 62
     0
100
AcDbLine
 10
137.004708
 20
229.725852
 30
0.0
 11
141.580594
 21
234.301739
 31
0.0
  0
LINE
  5
3D7
100
AcDbEntity
  8
0
 62
     0
100
AcDbLine
 10
137.315873
 20
229.812511
 30
0.0
 11
141.805101
 21
234.301739
 31
0.0
  0
LINE
  5
3D8
100
AcDbEntity
  8
0
 62
     0
100
AcDbLine
 10
137.627039
 20
229.89917
 30
0.0
 11
142.029607
 21
234.301739
 31
0.0
  0
LINE
  5
3D9
100
AcDbEntity
  8
0
 62
     0
100
AcDbLine
 10
137.938204
 20
229.985829
 30
0.0
 11
142.254114
 21
234.301739
 31
0.0
  0
LINE
  5
3DA
100
AcDbEntity
  8
0
 62
     0
100
AcDbLine
 10
138.249369
 20
230.072488
 30
0.0
 11
142.47862
 21
234.301739
 31
0.0
  0
LINE
  5
3DB
100
AcDbEntity
  8
0
 62
     0
100
AcDbLine
 10
138.560535
 20
230.159147
 30
0.0
 11
142.681359
 21
234.279971
 31
0.0
  0
LINE
  5
3DC
100
AcDbEntity
  8
0
 62
     0
100
AcDbLine
 10
138.8717
 20
230.245806
 30
0.0
 11
142.793612
 21
234.167718
 31
0.0
  0
LINE
  5
3DD
100
AcDbEntity
  8
0
 62
     0
100
AcDbLine
 10
139.182866
 20
230.332465
 30
0.0
 11
142.905865
 21
234.055465
 31
0.0
  0
LINE
  5
3DE
100
AcDbEntity
  8
0
 62
     0
100
AcDbLine
 10
139.494031
 20
230.419124
 30
0.0
 11
143.018118
 21
233.943212
 31
0.0
  0
LINE
  5
3DF
100
AcDbEntity
  8
0
 62
     0
100
AcDbLine
 10
139.805196
 20
230.505783
 30
0.0
 11
143.130372
 21
233.830958
 31
0.0
  0
LINE
  5
3E0
100
AcDbEntity
  8
0
 62
     0
100
AcDbLine
 10
140.116362
 20
230.592442
 30
0.0
 11
143.242625
 21
233.718705
 31
0.0
  0
LINE
  5
3E1
100
AcDbEntity
  8
0
 62
     0
100
AcDbLine
 10
140.427527
 20
230.679101
 30
0.0
 11
143.354878
 21
233.606452
 31
0.0
  0
LINE
  5
3E2
100
AcDbEntity
  8
0
 62
     0
100
AcDbLine
 10
140.738692
 20
230.76576
 30
0.0
 11
143.467131
 21
233.494199
 31
0.0
  0
LINE
  5
3E3
100
AcDbEntity
  8
0
 62
     0
100
AcDbLine
 10
141.049858
 20
230.852419
 30
0.0
 11
143.579384
 21
233.381946
 31
0.0
  0
LINE
  5
3E4
100
AcDbEntity
  8
0
 62
     0
100
AcDbLine
 10
141.361023
 20
230.939078
 30
0.0
 11
143.659591
 21
233.237646
 31
0.0
  0
LINE
  5
3E5
100
AcDbEntity
  8
0
 62
     0
100
AcDbLine
 10
141.672189
 20
231.025737
 30
0.0
 11
143.659591
 21
233.013139
 31
0.0
  0
LINE
  5
3E6
100
AcDbEntity
  8
0
 62
     0
100
AcDbLine
 10
141.983354
 20
231.112396
 30
0.0
 11
143.659591
 21
232.788633
 31
0.0
  0
LINE
  5
3E7
100
AcDbEntity
  8
0
 62
     0
100
AcDbLine
 10
142.294519
 20
231.199055
 30
0.0
 11
143.659591
 21
232.564127
 31
0.0
  0
LINE
  5
3E8
100
AcDbEntity
  8
0
 62
     0
100
AcDbLine
 10
142.605685
 20
231.285714
 30
0.0
 11
143.659591
 21
232.33962
 31
0.0
  0
LINE
  5
3E9
100
AcDbEntity
  8
0
 62
     0
100
AcDbLine
 10
142.91685
 20
231.372373
 30
0.0
 11
143.659591
 21
232.115114
 31
0.0
  0
LINE
  5
3EA
100
AcDbEntity
  8
0
 62
     0
100
AcDbLine
 10
143.228016
 20
231.459032
 30
0.0
 11
143.659591
 21
231.890607
 31
0.0
  0
LINE
  5
3EB
100
AcDbEntity
  8
0
 62
     0
100
AcDbLine
 10
143.539181
 20
231.545691
 30
0.0
 11
143.659591
 21
231.666101
 31
0.0
  0
ENDBLK
  5
3EC
100
AcDbEntity
  8
0
100
AcDbBlockEnd
  0
BLOCK
  5
4AB
100
AcDbEntity
  8
0
100
AcDbBlockBegin
  2
*D10
 70
    65
 10
0.0
 20
0.0
 30
0.0
  3
*D10
  1

  0
LINE
  5
4AC
100
AcDbEntity
  8
0
  6
BYBLOCK
 62
     0
100
AcDbLine
 10
171.856215
 20
107.034606
 30
0.0
 11
138.003782
 21
98.145693
 31
0.0
  0
SOLID
  5
4AD
100
AcDbEntity
  8
0
  6
BYBLOCK
 62
     0
100
AcDbTrace
 10
171.750395
 20
107.437611
 30
0.0
 11
171.962036
 21
106.6316
 31
0.0
 12
174.274246
 22
107.669528
 32
0.0
 13
174.274246
 23
107.669528
 33
0.0
  0
SOLID
  5
4AE
100
AcDbEntity
  8
0
  6
BYBLOCK
 62
     0
100
AcDbTrace
 10
137.897962
 20
98.548698
 30
0.0
 11
138.109603
 21
97.742688
 31
0.0
 12
135.585751
 22
97.510771
 32
0.0
 13
135.585751
 23
97.510771
 33
0.0
  0
MTEXT
  5
4AF
100
AcDbEntity
  8
0
  6
BYBLOCK
 62
     0
100
AcDbMText
 10
154.390315
 20
104.645476
 30
0.0
 40
3.0
 41
0.0
 71
     5
 72
     1
  1
\A2;\U+220580{\H2.400000;±0.01}
 11
0.967212
 21
0.253969
 31
0.0
  0
POINT
  5
4B0
100
AcDbEntity
  8
DEFPOINTS
  6
BYBLOCK
 62
     0
100
AcDbPoint
 10
135.585751
 20
97.510771
 30
0.0
  0
POINT
  5
4B1
100
AcDbEntity
  8
DEFPOINTS
  6
BYBLOCK
 62
     0
100
AcDbPoint
 10
174.274246
 20
107.669528
 30
0.0
  0
ENDBLK
  5
4B2
100
AcDbEntity
  8
0
100
AcDbBlockEnd
  0
BLOCK
  5
461
100
AcDbEntity
  8
0
100
AcDbBlockBegin
  2
*D11
 70
    65
 10
0.0
 20
0.0
 30
0.0
  3
*D11
  1

  0
LINE
  5
462
100
AcDbEntity
  8
0
  6
BYBLOCK
 62
     0
100
AcDbLine
 10
154.304999
 20
122.590149
 30
0.0
 11
111.334119
 21
122.590149
 31
0.0
  0
LINE
  5
463
100
AcDbEntity
  8
0
  6
BYBLOCK
 62
     0
100
AcDbLine
 10
139.804999
 20
52.679528
 30
0.0
 11
111.334119
 21
52.679528
 31
0.0
  0
LINE
  5
464
100
AcDbEntity
  8
0
  6
BYBLOCK
 62
     0
100
AcDbLine
 10
112.584119
 20
120.090149
 30
0.0
 11
112.584119
 21
55.179528
 31
0.0
  0
SOLID
  5
465
100
AcDbEntity
  8
0
  6
BYBLOCK
 62
     0
100
AcDbTrace
 10
112.167453
 20
120.090149
 30
0.0
 11
113.000786
 21
120.090149
 31
0.0
 12
112.584119
 22
122.590149
 32
0.0
 13
112.584119
 23
122.590149
 33
0.0
  0
SOLID
  5
466
100
AcDbEntity
  8
0
  6
BYBLOCK
 62
     0
100
AcDbTrace
 10
112.167453
 20
55.179528
 30
0.0
 11
113.000786
 21
55.179528
 31
0.0
 12
112.584119
 22
52.679528
 32
0.0
 13
112.584119
 23
52.679528
 33
0.0
  0
MTEXT
  5
467
100
AcDbEntity
  8
0
  6
BYBLOCK
 62
     0
100
AcDbMText
 10
109.218411
 20
87.634839
 30
0.0
 40
3.0
 41
0.0
 71
     5
 72
     1
  1
\A2;139.82{\H2.400000;\S+0.02^  0;}
 11
0.0
 21
1.0
 31
0.0
  0
POINT
  5
468
100
AcDbEntity
  8
DEFPOINTS
  6
BYBLOCK
 62
     0
100
AcDbPoint
 10
154.929999
 20
122.590149
 30
0.0
  0
POINT
  5
469
100
AcDbEntity
  8
DEFPOINTS
  6
BYBLOCK
 62
     0
100
AcDbPoint
 10
140.429999
 20
52.679528
 30
0.0
  0
POINT
  5
46A
100
AcDbEntity
  8
DEFPOINTS
  6
BYBLOCK
 62
     0
100
AcDbPoint
 10
112.584119
 20
52.679528
 30
0.0
  0
ENDBLK
  5
46B
100
AcDbEntity
  8
0
100
AcDbBlockEnd
  0
BLOCK
  5
475
100
AcDbEntity
  8
DISEGNO
100
AcDbBlockBegin
  2
RUGOSITA
 70
     2
 10
0.0
 20
0.0
 30
0.0
  3
RUGOSITA
  1

  0
ATTDEF
  5
471
100
AcDbEntity
  8
QUOTE
100
AcDbText
 10
-1.071886
 20
3.214106
 30
0.0
 40
1.5
  1
0.8
100
AcDbAttributeDefinition
  3
CHE RUGOSITA ?
  2
RUGOSITA
 70
     0
  0
LINE
  5
472
100
AcDbEntity
  8
QUOTE
100
AcDbLine
 10
0.0
 20
0.0
 30
0.0
 11
4.0
 21
6.928203
 31
0.0
  0
LINE
  5
473
100
AcDbEntity
  8
QUOTE
100
AcDbLine
 10
0.0
 20
0.0
 30
0.0
 11
-1.75
 21
3.031089
 31
0.0
  0
LINE
  5
474
100
AcDbEntity
  8
QUOTE
100
AcDbLine
 10
-1.75
 20
3.031089
 30
0.0
 11
1.75
 21
3.031089
 31
0.0
  0
ENDBLK
  5
476
100
AcDbEntity
  8
DISEGNO
100
AcDbBlockEnd
  0
BLOCK
  5
4EF
100
AcDbEntity
  8
0
100
AcDbBlockBegin
  2
*D13
 70
    65
 10
0.0
 20
0.0
 30
0.0
  3
*D13
  1

  0
LINE
  5
4F0
100
AcDbEntity
  8
0
  6
BYBLOCK
 62
     0
100
AcDbLine
 10
17.792635
 20
92.393282
 30
0.0
 11
17.792635
 21
94.708396
 31
0.0
  0
LINE
  5
4F1
100
AcDbEntity
  8
0
  6
BYBLOCK
 62
     0
100
AcDbLine
 10
25.792635
 20
83.393282
 30
0.0
 11
25.792635
 21
94.708396
 31
0.0
  0
LINE
  5
4F2
100
AcDbEntity
  8
0
  6
BYBLOCK
 62
     0
100
AcDbLine
 10
15.292635
 20
93.458396
 30
0.0
 11
12.792635
 21
93.458396
 31
0.0
  0
LINE
  5
4F3
100
AcDbEntity
  8
0
  6
BYBLOCK
 62
     0
100
AcDbLine
 10
28.292635
 20
93.458396
 30
0.0
 11
30.792635
 21
93.458396
 31
0.0
  0
SOLID
  5
4F4
100
AcDbEntity
  8
0
  6
BYBLOCK
 62
     0
100
AcDbTrace
 10
15.292635
 20
93.875062
 30
0.0
 11
15.292635
 21
93.041729
 31
0.0
 12
17.792635
 22
93.458396
 32
0.0
 13
17.792635
 23
93.458396
 33
0.0
  0
SOLID
  5
4F5
100
AcDbEntity
  8
0
  6
BYBLOCK
 62
     0
100
AcDbTrace
 10
28.292635
 20
93.875062
 30
0.0
 11
28.292635
 21
93.041729
 31
0.0
 12
25.792635
 22
93.458396
 32
0.0
 13
25.792635
 23
93.458396
 33
0.0
  0
MTEXT
  5
4F6
100
AcDbEntity
  8
0
  6
BYBLOCK
 62
     0
100
AcDbMText
 10
21.792635
 20
95.583396
 30
0.0
 40
3.0
 41
0.0
 71
     5
 72
     1
  1
\A1;{50}
  0
POINT
  5
4F7
100
AcDbEntity
  8
DEFPOINTS
  6
BYBLOCK
 62
     0
100
AcDbPoint
 10
17.792635
 20
91.768282
 30
0.0
  0
POINT
  5
4F8
100
AcDbEntity
  8
DEFPOINTS
  6
BYBLOCK
 62
     0
100
AcDbPoint
 10
25.792635
 20
82.768282
 30
0.0
  0
POINT
  5
4F9
100
AcDbEntity
  8
DEFPOINTS
  6
BYBLOCK
 62
     0
100
AcDbPoint
 10
25.792635
 20
93.458396
 30
0.0
  0
ENDBLK
  5
4FA
100
AcDbEntity
  8
0
100
AcDbBlockEnd
  0
BLOCK
  5
549
100
AcDbEntity
  8
QUOTE
100
AcDbBlockBegin
  2
A$C8213
 70
     0
 10
0.0
 20
0.0
 30
0.0
  3
A$C8213
  1

  0
POLYLINE
  5
540
100
AcDbEntity
  8
TESTO
100
AcDb2dPolyline
 66
     1
 10
0.0
 20
0.0
 30
0.0
 70
     1
  0
VERTEX
  5
541
100
AcDbEntity
  8
TESTO
100
AcDbVertex
100
AcDb2dVertex
 10
88.159861
 20
55.895339
 30
0.0
  0
VERTEX
  5
542
100
AcDbEntity
  8
TESTO
100
AcDbVertex
100
AcDb2dVertex
 10
88.159861
 20
43.180731
 30
0.0
  0
VERTEX
  5
543
100
AcDbEntity
  8
TESTO
100
AcDbVertex
100
AcDb2dVertex
 10
129.278901
 20
43.180731
 30
0.0
  0
VERTEX
  5
544
100
AcDbEntity
  8
TESTO
100
AcDbVertex
100
AcDb2dVertex
 10
129.278901
 20
55.895339
 30
0.0
  0
SEQEND
  5
545
100
AcDbEntity
  8
TESTO
  0
TOLERANCE
  5
546
100
AcDbEntity
  8
TESTO
  6
CONTINUOUS
100
AcDbFcf
  3
ISO-25
 10
107.515958
 20
47.495447
 30
0.0
  1
{\Fgdt;u}%%v0.02%%v%%v%%v%%v
1001
ACAD
1000
DSTYLE
1002
{
1070
   140
1040
2.6
1070
    47
1040
0.02
1070
    73
1070
     0
1070
   272
1070
     2
1070
   147
1040
0.53
1070
    42
1040
0.5261
1070
    44
1040
1.0522
1070
    43
1040
3.1566
1070
   271
1070
     2
1070
   141
1040
2.1044
1070
    41
1040
2.6
1002
}
  0
TEXT
  5
547
100
AcDbEntity
  8
TESTO
100
AcDbText
 10
88.753446
 20
51.431378
 30
0.0
 40
2.5
  1
TOLLERANZE AL METRO
 41
1.1
100
AcDbText
  0
TOLERANCE
  5
548
100
AcDbEntity
  8
TESTO
  6
CONTINUOUS
100
AcDbFcf
  3
ISO-25
 10
91.958001
 20
47.495447
 30
0.0
  1
{\Fgdt;b}%%v0.02%%v%%v%%v%%v
1001
ACAD
1000
DSTYLE
1002
{
1070
   140
1040
2.6
1070
    47
1040
0.02
1070
    73
1070
     0
1070
   272
1070
     2
1070
   147
1040
0.53
1070
    42
1040
0.5261
1070
    44
1040
1.0522
1070
    43
1040
3.1566
1070
   271
1070
     2
1070
   141
1040
2.1044
1070
    41
1040
2.6
1002
}
  0
ENDBLK
  5
54A
100
AcDbEntity
  8
QUOTE
100
AcDbBlockEnd
  0
BLOCK
  5
577
100
AcDbEntity
  8
QUOTE
100
AcDbBlockBegin
  2
A$CC223
 70
     0
 10
0.0
 20
0.0
 30
0.0
  3
A$CC223
  1

  0
TEXT
  5
574
100
AcDbEntity
  8
DISEGNO
100
AcDbText
 10
-0.421349
 20
5.594786
 30
0.0
 40
3.0
  1
E SI RIFERISCONO AGLI SCOSTAMENTI RSPETTO
 41
1.1
100
AcDbText
  0
TEXT
  5
575
100
AcDbEntity
  8
DISEGNO
100
AcDbText
 10
-0.421349
 20
11.294786
 30
0.0
 40
3.0
  1
LE TOLLERANZE DEI PROFILI SONO INDICATIVE
 41
1.1
100
AcDbText
  0
TEXT
  5
576
100
AcDbEntity
  8
DISEGNO
100
AcDbText
 10
-0.421349
 20
-0.105214
 30
0.0
 40
3.0
  1
AL MASTER: P.116.35.R08
 41
1.1
100
AcDbText
  0
ENDBLK
  5
578
100
AcDbEntity
  8
QUOTE
100
AcDbBlockEnd
  0
BLOCK
  5
5A7
100
AcDbEntity
  8
0
100
AcDbBlockBegin
  2
*D16
 70
    65
 10
0.0
 20
0.0
 30
0.0
  3
*D16
  1

  0
LINE
  5
5A8
100
AcDbEntity
  8
0
  6
BYBLOCK
 62
     0
100
AcDbLine
 10
64.034591
 20
234.301739
 30
0.0
 11
54.056858
 21
234.301739
 31
0.0
  0
LINE
  5
5A9
100
AcDbEntity
  8
0
  6
BYBLOCK
 62
     0
100
AcDbLine
 10
64.034591
 20
207.301739
 30
0.0
 11
54.056858
 21
207.301739
 31
0.0
  0
LINE
  5
5AA
100
AcDbEntity
  8
0
  6
BYBLOCK
 62
     0
100
AcDbLine
 10
55.306858
 20
231.801739
 30
0.0
 11
55.306858
 21
209.801739
 31
0.0
  0
SOLID
  5
5AB
100
AcDbEntity
  8
0
  6
BYBLOCK
 62
     0
100
AcDbTrace
 10
54.890191
 20
231.801739
 30
0.0
 11
55.723524
 21
231.801739
 31
0.0
 12
55.306858
 22
234.301739
 32
0.0
 13
55.306858
 23
234.301739
 33
0.0
  0
SOLID
  5
5AC
100
AcDbEntity
  8
0
  6
BYBLOCK
 62
     0
100
AcDbTrace
 10
54.890191
 20
209.801739
 30
0.0
 11
55.723524
 21
209.801739
 31
0.0
 12
55.306858
 22
207.301739
 32
0.0
 13
55.306858
 23
207.301739
 33
0.0
  0
MTEXT
  5
5AD
100
AcDbEntity
  8
0
  6
BYBLOCK
 62
     0
100
AcDbMText
 10
53.181858
 20
220.801739
 30
0.0
 40
3.0
 41
0.0
 71
     5
 72
     1
  1
\A1;27
 11
0.0
 21
1.0
 31
0.0
  0
POINT
  5
5AE
100
AcDbEntity
  8
DEFPOINTS
  6
BYBLOCK
 62
     0
100
AcDbPoint
 10
64.659591
 20
234.301739
 30
0.0
  0
POINT
  5
5AF
100
AcDbEntity
  8
DEFPOINTS
  6
BYBLOCK
 62
     0
100
AcDbPoint
 10
64.659591
 20
207.301739
 30
0.0
  0
POINT
  5
5B0
100
AcDbEntity
  8
DEFPOINTS
  6
BYBLOCK
 62
     0
100
AcDbPoint
 10
55.306858
 20
207.301739
 30
0.0
  0
ENDBLK
  5
5B1
100
AcDbEntity
  8
0
100
AcDbBlockEnd
  0
BLOCK
  5
5B4
100
AcDbEntity
  8
0
100
AcDbBlockBegin
  2
*D17
 70
    65
 10
0.0
 20
0.0
 30
0.0
  3
*D17
  1

  0
LINE
  5
5B5
100
AcDbEntity
  8
0
  6
BYBLOCK
 62
     0
100
AcDbLine
 10
65.101533
 20
206.859797
 30
0.0
 11
73.605411
 21
198.355919
 31
0.0
  0
LINE
  5
5B6
100
AcDbEntity
  8
0
  6
BYBLOCK
 62
     0
100
AcDbLine
 10
65.101533
 20
207.743681
 30
0.0
 11
73.605411
 21
216.247559
 31
0.0
  0
ARC
  5
5B7
100
AcDbEntity
  8
0
  6
BYBLOCK
 62
     0
100
AcDbCircle
 10
64.659591
 20
207.301739
 30
0.0
 40
11.4013
100
AcDbArc
 50
327.588738
 51
32.411262
  0
SOLID
  5
5B8
100
AcDbEntity
  8
0
  6
BYBLOCK
 62
     0
100
AcDbTrace
 10
74.609979
 20
200.930175
 30
0.0
 11
73.959672
 21
201.451275
 31
0.0
 12
72.721527
 22
199.239803
 32
0.0
 13
72.721527
 23
199.239803
 33
0.0
  0
SOLID
  5
5B9
100
AcDbEntity
  8
0
  6
BYBLOCK
 62
     0
100
AcDbTrace
 10
73.959672
 20
213.152203
 30
0.0
 11
74.609979
 21
213.673302
 31
0.0
 12
72.721527
 22
215.363675
 32
0.0
 13
72.721527
 23
215.363675
 33
0.0
  0
MTEXT
  5
5BA
100
AcDbEntity
  8
0
  6
BYBLOCK
 62
     0
100
AcDbMText
 10
73.935891
 20
207.301739
 30
0.0
 40
3.0
 41
0.0
 71
     5
 72
     1
  1
\A1;90°
 11
0.0
 21
1.0
 31
0.0
  0
POINT
  5
5BB
100
AcDbEntity
  8
DEFPOINTS
  6
BYBLOCK
 62
     0
100
AcDbPoint
 10
75.672401
 20
204.350865
 30
0.0
  0
POINT
  5
5BC
100
AcDbEntity
  8
DEFPOINTS
  6
BYBLOCK
 62
     0
100
AcDbPoint
 10
63.659591
 20
208.301739
 30
0.0
  0
POINT
  5
5BD
100
AcDbEntity
  8
DEFPOINTS
  6
BYBLOCK
 62
     0
100
AcDbPoint
 10
63.659591
 20
206.301739
 30
0.0
  0
POINT
  5
5BE
100
AcDbEntity
  8
DEFPOINTS
  6
BYBLOCK
 62
     0
100
AcDbPoint
 10
64.659591
 20
207.301739
 30
0.0
  0
POINT
  5
5BF
100
AcDbEntity
  8
DEFPOINTS
  6
BYBLOCK
 62
     0
100
AcDbPoint
 10
64.659591
 20
207.301739
 30
0.0
  0
ENDBLK
  5
5C0
100
AcDbEntity
  8
0
100
AcDbBlockEnd
  0
BLOCK
  5
5C3
100
AcDbEntity
  8
0
100
AcDbBlockBegin
  2
*D18
 70
    65
 10
0.0
 20
0.0
 30
0.0
  3
*D18
  1

  0
LINE
  5
5C4
100
AcDbEntity
  8
0
  6
BYBLOCK
 62
     0
100
AcDbLine
 10
63.034591
 20
208.301739
 30
0.0
 11
59.03844
 21
208.301739
 31
0.0
  0
LINE
  5
5C5
100
AcDbEntity
  8
0
  6
BYBLOCK
 62
     0
100
AcDbLine
 10
63.034591
 20
206.301739
 30
0.0
 11
59.03844
 21
206.301739
 31
0.0
  0
LINE
  5
5C6
100
AcDbEntity
  8
0
  6
BYBLOCK
 62
     0
100
AcDbLine
 10
60.28844
 20
210.801739
 30
0.0
 11
60.28844
 21
213.301739
 31
0.0
  0
LINE
  5
5C7
100
AcDbEntity
  8
0
  6
BYBLOCK
 62
     0
100
AcDbLine
 10
60.28844
 20
203.801739
 30
0.0
 11
60.28844
 21
198.449745
 31
0.0
  0
SOLID
  5
5C8
100
AcDbEntity
  8
0
  6
BYBLOCK
 62
     0
100
AcDbTrace
 10
59.871773
 20
210.801739
 30
0.0
 11
60.705107
 21
210.801739
 31
0.0
 12
60.28844
 22
208.301739
 32
0.0
 13
60.28844
 23
208.301739
 33
0.0
  0
SOLID
  5
5C9
100
AcDbEntity
  8
0
  6
BYBLOCK
 62
     0
100
AcDbTrace
 10
59.871773
 20
203.801739
 30
0.0
 11
60.705107
 21
203.801739
 31
0.0
 12
60.28844
 22
206.301739
 32
0.0
 13
60.28844
 23
206.301739
 33
0.0
  0
MTEXT
  5
5CA
100
AcDbEntity
  8
0
  6
BYBLOCK
 62
     0
100
AcDbMText
 10
58.163145
 20
199.875742
 30
0.0
 40
3.0
 41
0.0
 71
     5
 72
     1
  1
\A1;2
 11
0.0
 21
1.0
 31
0.0
  0
POINT
  5
5CB
100
AcDbEntity
  8
DEFPOINTS
  6
BYBLOCK
 62
     0
100
AcDbPoint
 10
63.659591
 20
208.301739
 30
0.0
  0
POINT
  5
5CC
100
AcDbEntity
  8
DEFPOINTS
  6
BYBLOCK
 62
     0
100
AcDbPoint
 10
63.659591
 20
206.301739
 30
0.0
  0
POINT
  5
5CD
100
AcDbEntity
  8
DEFPOINTS
  6
BYBLOCK
 62
     0
100
AcDbPoint
 10
60.28844
 20
206.301739
 30
0.0
  0
ENDBLK
  5
5CE
100
AcDbEntity
  8
0
100
AcDbBlockEnd
  0
ENDSEC
  0
SECTION
  2
ENTITIES
  0
LINE
  5
26A
100
AcDbEntity
  8
DISEGNO
100
AcDbLine
 10
74.659591
 20
159.301739
 30
0.0
 11
132.659591
 21
159.301739
 31
0.0
  0
LINE
  5
26B
100
AcDbEntity
  8
DISEGNO
100
AcDbLine
 10
133.659591
 20
160.301739
 30
0.0
 11
133.659591
 21
179.301739
 31
0.0
  0
LINE
  5
26C
100
AcDbEntity
  8
DISEGNO
100
AcDbLine
 10
133.659591
 20
179.301739
 30
0.0
 11
142.659591
 21
179.301739
 31
0.0
  0
LINE
  5
26D
100
AcDbEntity
  8
DISEGNO
100
AcDbLine
 10
143.659591
 20
180.301739
 30
0.0
 11
143.659591
 21
233.301739
 31
0.0
1001
ACAD
1000
ASC_BOUNDS
1002
{
1070
    19
1002
}
  0
LINE
  5
26E
100
AcDbEntity
  8
DISEGNO
100
AcDbLine
 10
142.659591
 20
234.301739
 30
0.0
 11
137.359644
 21
234.301739
 31
0.0
1001
ACAD
1000
ASC_BOUNDS
1002
{
1070
    19
1002
}
  0
LINE
  5
26F
100
AcDbEntity
  8
DISEGNO
100
AcDbLine
 10
63.659591
 20
233.301739
 30
0.0
 11
63.659591
 21
208.301739
 31
0.0
1001
ACAD
1000
ASC_BOUNDS
1002
{
1070
    19
1002
}
  0
LINE
  5
270
100
AcDbEntity
  8
DISEGNO
100
AcDbLine
 10
64.659591
 20
179.301739
 30
0.0
 11
73.659591
 21
179.301739
 31
0.0
  0
LINE
  5
271
100
AcDbEntity
  8
DISEGNO
100
AcDbLine
 10
73.659591
 20
179.301739
 30
0.0
 11
73.659591
 21
160.301739
 31
0.0
  0
LINE
  5
272
100
AcDbEntity
  8
DISEGNO
100
AcDbLine
 10
133.673257
 20
232.67969
 30
0.0
 11
129.422108
 21
228.040375
 31
0.0
1001
ACAD
1000
ASC_BOUNDS
1002
{
1070
    19
1002
}
  0
LINE
  5
273
100
AcDbEntity
  8
DISEGNO
100
AcDbLine
 10
73.645925
 20
232.67969
 30
0.0
 11
77.902108
 21
228.034882
 31
0.0
1001
ACAD
1000
ASC_BOUNDS
1002
{
1070
    19
1002
}
  0
LINE
  5
274
100
AcDbEntity
  8
DISEGNO
100
AcDbLine
 10
69.959538
 20
234.301739
 30
0.0
 11
64.659591
 21
234.301739
 31
0.0
1001
ACAD
1000
ASC_BOUNDS
1002
{
1070
    19
1002
}
  0
ARC
  5
293
100
AcDbEntity
  8
DISEGNO
100
AcDbCircle
 10
69.959538
 20
229.301739
 30
0.0
 40
5.0
100
AcDbArc
 50
42.5
 51
90.0
1001
ACAD
1000
ASC_BOUNDS
1002
{
1070
    19
1002
}
  0
ARC
  5
294
100
AcDbEntity
  8
DISEGNO
100
AcDbCircle
 10
137.359644
 20
229.301739
 30
0.0
 40
5.0
100
AcDbArc
 50
90.0
 51
137.5
1001
ACAD
1000
ASC_BOUNDS
1002
{
1070
    19
1002
}
  0
LINE
  5
296
100
AcDbEntity
  8
DISEGNO
100
AcDbLine
 10
77.902108
 20
228.034882
 30
0.0
 11
77.902108
 21
226.554694
 31
0.0
  0
LINE
  5
2BF
100
AcDbEntity
  8
DISEGNO
100
AcDbLine
 10
129.422108
 20
228.040375
 30
0.0
 11
129.422108
 21
226.560187
 31
0.0
1001
ACAD
1000
ASC_BOUNDS
1002
{
1070
    19
1002
}
  0
LINE
  5
2C2
100
AcDbEntity
  8
DISEGNO
100
AcDbLine
 10
77.902108
 20
226.554694
 30
0.0
 11
99.235927
 21
203.272916
 31
0.0
  0
LINE
  5
2C3
100
AcDbEntity
  8
DISEGNO
100
AcDbLine
 10
129.422108
 20
226.560187
 30
0.0
 11
108.083255
 21
203.272916
 31
0.0
  0
ARC
  5
2C4
100
AcDbEntity
  8
DISEGNO
100
AcDbCircle
 10
103.659591
 20
207.326457
 30
0.0
 40
6.0
100
AcDbArc
 50
222.5
 51
317.5
  0
LINE
  5
33A
100
AcDbEntity
  8
DISEGNO
100
AcDbLine
 10
64.659591
 20
234.301739
 30
0.0
 11
63.659591
 21
233.301739
 31
0.0
1001
ACAD
1000
ASC_BOUNDS
1002
{
1070
    19
1002
}
  0
LINE
  5
33B
100
AcDbEntity
  8
DISEGNO
100
AcDbLine
 10
63.659591
 20
180.301739
 30
0.0
 11
64.659591
 21
179.301739
 31
0.0
  0
LINE
  5
33C
100
AcDbEntity
  8
DISEGNO
100
AcDbLine
 10
73.659591
 20
160.301739
 30
0.0
 11
74.659591
 21
159.301739
 31
0.0
  0
LINE
  5
33D
100
AcDbEntity
  8
DISEGNO
100
AcDbLine
 10
133.659591
 20
160.301739
 30
0.0
 11
132.659591
 21
159.301739
 31
0.0
  0
LINE
  5
33E
100
AcDbEntity
  8
DISEGNO
100
AcDbLine
 10
142.659591
 20
179.301739
 30
0.0
 11
143.659591
 21
180.301739
 31
0.0
  0
LINE
  5
33F
100
AcDbEntity
  8
DISEGNO
100
AcDbLine
 10
142.659591
 20
234.301739
 30
0.0
 11
143.659591
 21
233.301739
 31
0.0
1001
ACAD
1000
ASC_BOUNDS
1002
{
1070
    19
1002
}
  0
LINE
  5
5A3
100
AcDbEntity
  8
DISEGNO
100
AcDbLine
 10
63.659591
 20
206.301739
 30
0.0
 11
64.659591
 21
207.301739
 31
0.0
  0
LINE
  5
5A4
100
AcDbEntity
  8
DISEGNO
100
AcDbLine
 10
63.659591
 20
208.301739
 30
0.0
 11
64.659591
 21
207.301739
 31
0.0
  0
LINE
  5
5A5
100
AcDbEntity
  8
DISEGNO
100
AcDbLine
 10
63.659591
 20
206.301739
 30
0.0
 11
63.659591
 21
180.301739
 31
0.0
1001
ACAD
1000
ASC_BOUNDS
1002
{
1070
    19
1002
}
  0
ENDSEC
  0
SECTION
  2
OBJECTS
  0
DICTIONARY
  5
C
100
AcDbDictionary
  3
ACAD_GROUP
350
D
  3
ACAD_MLINESTYLE
350
E
  0
DICTIONARY
  5
D
102
{ACAD_REACTORS
330
C
102
}
100
AcDbDictionary
  0
DICTIONARY
  5
E
102
{ACAD_REACTORS
330
C
102
}
100
AcDbDictionary
  3
STANDARD
350
1C
  0
MLINESTYLE
  5
1C
102
{ACAD_REACTORS
330
E
102
}
100
AcDbMlineStyle
  2
STANDARD
 70
     0
  3

 62
     0
 51
90.0
 52
90.0
 71
     2
 49
0.5
 62
   256
  6
BYLAYER
 49
-0.5
 62
   256
  6
BYLAYER
  0
ENDSEC
  0
EOF
