  0
SECTION
  2
HEADER
  9
$ACADVER
  1
AC1006
  9
$DWGCODEPAGE
  3
ansi_1252
  9
$INSBASE
 10
0.0
 20
0.0
 30
0.0
  9
$EXTMIN
 10
1.000000E+20
 20
1.000000E+20
  9
$EXTMAX
 10
-1.000000E+20
 20
-1.000000E+20
  9
$LIMMIN
 10
0.0
 20
0.0
  9
$LIMMAX
 10
420.0
 20
297.0
  9
$ORTHOMODE
 70
     0
  9
$REGENMODE
 70
     1
  9
$FILLMODE
 70
     1
  9
$QTEXTMODE
 70
     0
  9
$MIRRTEXT
 70
     1
  9
$DRAGMODE
 70
     2
  9
$LTSCALE
 40
1.0
  9
$OSMODE
 70
    37
  9
$ATTMODE
 70
     1
  9
$TEXTSIZE
 40
2.5
  9
$TRACEWID
 40
1.0
  9
$TEXTSTYLE
  7
STANDARD
  9
$CLAYER
  8
0
  9
$CELTYPE
  6
BYLAYER
  9
$CECOLOR
 62
   256
  9
$DIMSCALE
 40
1.0
  9
$DIMASZ
 40
2.5
  9
$DIMEXO
 40
0.625
  9
$DIMDLI
 40
3.75
  9
$DIMRND
 40
0.0
  9
$DIMDLE
 40
0.0
  9
$DIMEXE
 40
1.25
  9
$DIMTP
 40
0.0
  9
$DIMTM
 40
0.0
  9
$DIMTXT
 40
2.5
  9
$DIMCEN
 40
2.5
  9
$DIMTSZ
 40
0.0
  9
$DIMTOL
 70
     0
  9
$DIMLIM
 70
     0
  9
$DIMTIH
 70
     0
  9
$DIMTOH
 70
     0
  9
$DIMSE1
 70
     0
  9
$DIMSE2
 70
     0
  9
$DIMTAD
 70
     1
  9
$DIMZIN
 70
     8
  9
$DIMBLK
  1

  9
$DIMASO
 70
     1
  9
$DIMSHO
 70
     1
  9
$DIMPOST
  1

  9
$DIMAPOST
  1

  9
$DIMALT
 70
     0
  9
$DIMALTD
 70
     3
  9
$DIMALTF
 40
0.03937
  9
$DIMLFAC
 40
1.0
  9
$DIMTOFL
 70
     1
  9
$DIMTVP
 40
0.0
  9
$DIMTIX
 70
     0
  9
$DIMSOXD
 70
     0
  9
$DIMSAH
 70
     0
  9
$DIMBLK1
  1

  9
$DIMBLK2
  1

  9
$LUNITS
 70
     2
  9
$LUPREC
 70
     4
  9
$SKETCHINC
 40
1.0
  9
$FILLETRAD
 40
10.0
  9
$AUNITS
 70
     0
  9
$AUPREC
 70
     0
  9
$MENU
  1
.
  9
$ELEVATION
 40
0.0
  9
$THICKNESS
 40
0.0
  9
$LIMCHECK
 70
     0
  9
$CHAMFERA
 40
10.0
  9
$CHAMFERB
 40
10.0
  9
$SKPOLY
 70
     0
  9
$TDCREATE
 40
2456274.616088183
  9
$TDUPDATE
 40
2456274.616088194
  9
$TDINDWG
 40
0.0000000116
  9
$TDUSRTIMER
 40
0.0000000116
  9
$USRTIMER
 70
     1
  9
$ANGBASE
 50
0.0
  9
$ANGDIR
 70
     0
  9
$PDMODE
 70
     0
  9
$PDSIZE
 40
0.0
  9
$PLINEWID
 40
0.0
  9
$COORDS
 70
     1
  9
$SPLFRAME
 70
     0
  9
$SPLINETYPE
 70
     6
  9
$SPLINESEGS
 70
     8
  9
$ATTDIA
 70
     0
  9
$ATTREQ
 70
     1
  9
$HANDLING
 70
     1
  9
$HANDSEED
  5
60
  9
$SURFTAB1
 70
     6
  9
$SURFTAB2
 70
     6
  9
$SURFTYPE
 70
     6
  9
$SURFU
 70
     6
  9
$SURFV
 70
     6
  9
$UCSNAME
  2

  9
$UCSORG
 10
0.0
 20
0.0
 30
0.0
  9
$UCSXDIR
 10
1.0
 20
0.0
 30
0.0
  9
$UCSYDIR
 10
0.0
 20
1.0
 30
0.0
  9
$USERI1
 70
     0
  9
$USERI2
 70
     0
  9
$USERI3
 70
     0
  9
$USERI4
 70
     0
  9
$USERI5
 70
     0
  9
$USERR1
 40
0.0
  9
$USERR2
 40
0.0
  9
$USERR3
 40
0.0
  9
$USERR4
 40
0.0
  9
$USERR5
 40
0.0
  9
$WORLDVIEW
 70
     1
  0
ENDSEC
  0
SECTION
  2
TABLES
  0
TABLE
  2
VPORT
 70
     1
  0
VPORT
  2
*ACTIVE
 70
     0
 10
0.0
 20
0.0
 11
1.0
 21
1.0
 12
344.186916
 22
148.5
 13
0.0
 23
0.0
 14
10.0
 24
10.0
 15
10.0
 25
10.0
 16
0.0
 26
0.0
 36
1.0
 17
0.0
 27
0.0
 37
0.0
 40
297.0
 41
1.972973
 42
50.0
 43
0.0
 44
0.0
 50
0.0
 51
0.0
 71
     0
 72
   100
 73
     1
 74
     3
 75
     0
 76
     0
 77
     0
 78
     0
  0
ENDTAB
  0
TABLE
  2
LTYPE
 70
     1
  0
LTYPE
  2
CONTINUOUS
 70
     0
  3
Solid line
 72
    65
 73
     0
 40
0.0
  0
ENDTAB
  0
TABLE
  2
LAYER
 70
     2
  0
LAYER
  2
0
 70
     0
 62
     7
  6
CONTINUOUS
  0
LAYER
  2
1
 70
     0
 62
     7
  6
CONTINUOUS
  0
ENDTAB
  0
TABLE
  2
STYLE
 70
     3
  0
STYLE
  2
STANDARD
 70
     0
 40
0.0
 41
1.0
 50
0.0
 71
     0
 42
2.5
  3
txt
  4

  0
STYLE
  2
DEFAULT
 70
     0
 40
0.0
 41
1.0
 50
0.0
 71
     0
 42
0.2
  3

  4

  0
STYLE
  2
ROLLERI
 70
     0
 40
0.0
 41
1.0
 50
0.0
 71
     0
 42
0.2
  3

  4

  0
ENDTAB
  0
TABLE
  2
VIEW
 70
     0
  0
ENDTAB
  0
TABLE
  2
UCS
 70
     0
  0
ENDTAB
  0
ENDSEC
  0
SECTION
  2
BLOCKS
  0
BLOCK
  8
0
  2
_CLOSED
 70
     0
 10
0.0
 20
0.0
 30
0.0
  0
LINE
  5
41
  8
0
  6
BYBLOCK
 62
     0
 10
-1.0
 20
0.166667
 30
0.0
 11
0.0
 21
0.0
 31
0.0
  0
LINE
  5
42
  8
0
  6
BYBLOCK
 62
     0
 10
0.0
 20
0.0
 30
0.0
 11
-1.0
 21
-0.166667
 31
0.0
  0
LINE
  5
43
  8
0
  6
BYBLOCK
 62
     0
 10
-1.0
 20
0.166667
 30
0.0
 11
-1.0
 21
-0.166667
 31
0.0
  0
LINE
  5
44
  8
0
  6
BYBLOCK
 62
     0
 10
0.0
 20
0.0
 30
0.0
 11
-1.0
 21
0.0
 31
0.0
  0
ENDBLK
  8
0
  0
ENDSEC
  0
SECTION
  2
ENTITIES
  0
LINE
  5
47
  8
1
  6
CONTINUOUS
 62
    91
 10
544.911957
 20
6.417212
 30
0.0
 11
544.911957
 21
67.917212
 31
0.0
  0
LINE
  5
48
  8
1
  6
CONTINUOUS
 62
    91
 10
527.911957
 20
6.417212
 30
0.0
 11
544.911957
 21
6.417212
 31
0.0
  0
LINE
  5
49
  8
1
  6
CONTINUOUS
 62
    91
 10
526.911957
 20
-10.582788
 30
0.0
 11
526.911957
 21
5.417212
 31
0.0
  0
LINE
  5
4A
  8
1
  6
CONTINUOUS
 62
    91
 10
526.911957
 20
-10.582788
 30
0.0
 11
527.911957
 21
-11.582788
 31
0.0
  0
LINE
  5
4B
  8
1
  6
CONTINUOUS
 62
    91
 10
585.911957
 20
-11.582788
 30
0.0
 11
527.911957
 21
-11.582788
 31
0.0
  0
LINE
  5
4C
  8
1
  6
CONTINUOUS
 62
    91
 10
586.911957
 20
-10.582788
 30
0.0
 11
585.911957
 21
-11.582788
 31
0.0
  0
LINE
  5
4D
  8
1
  6
CONTINUOUS
 62
    91
 10
586.911957
 20
5.417212
 30
0.0
 11
586.911957
 21
-10.582788
 31
0.0
  0
LINE
  5
4E
  8
1
  6
CONTINUOUS
 62
    91
 10
586.911957
 20
5.417212
 30
0.0
 11
585.911957
 21
6.417212
 31
0.0
  0
LINE
  5
4F
  8
1
  6
CONTINUOUS
 62
    91
 10
568.911957
 20
6.417212
 30
0.0
 11
585.911957
 21
6.417212
 31
0.0
  0
LINE
  5
50
  8
1
  6
CONTINUOUS
 62
    91
 10
564.062948
 20
68.417212
 30
0.0
 11
568.411957
 21
68.417212
 31
0.0
  0
LINE
  5
51
  8
1
  6
CONTINUOUS
 62
    91
 10
545.411957
 20
68.417212
 30
0.0
 11
549.760967
 21
68.417212
 31
0.0
  0
LINE
  5
52
  8
1
  6
CONTINUOUS
 62
    91
 10
551.209855
 20
67.30544
 30
0.0
 11
555.752846
 21
50.350767
 31
0.0
  0
LINE
  5
53
  8
1
  6
CONTINUOUS
 62
    91
 10
558.071068
 20
50.350767
 30
0.0
 11
562.614059
 21
67.30544
 31
0.0
  0
LINE
  5
54
  8
1
  6
CONTINUOUS
 62
    91
 10
568.411957
 20
68.417212
 30
0.0
 11
568.911957
 21
67.917212
 31
0.0
  0
LINE
  5
55
  8
1
  6
CONTINUOUS
 62
    91
 10
545.411957
 20
68.417212
 30
0.0
 11
544.911957
 21
67.917212
 31
0.0
  0
LINE
  5
56
  8
1
  6
CONTINUOUS
 62
    91
 10
568.911957
 20
22.167212
 30
0.0
 11
568.911957
 21
6.417212
 31
0.0
  0
ARC
  5
57
  8
1
  6
CONTINUOUS
 62
    91
 10
564.062948
 20
66.917212
 30
0.0
 40
1.5
 50
90.0
 51
165.0
  0
ARC
  5
58
  8
1
  6
CONTINUOUS
 62
    91
 10
549.760967
 20
66.917212
 30
0.0
 40
1.5
 50
15.0
 51
90.0
  0
ARC
  5
59
  8
1
  6
CONTINUOUS
 62
    91
 10
-556.911957
 20
50.66135
 30
0.0
 40
1.2
 50
195.0
 51
345.0
210
0.0
220
0.0
230
-1.0
  0
LINE
  5
5A
  8
1
  6
CONTINUOUS
 62
    91
 10
527.911957
 20
6.417212
 30
0.0
 11
526.911957
 21
5.417212
 31
0.0
  0
LINE
  5
5B
  8
1
  6
CONTINUOUS
 62
    91
 10
568.911957
 20
67.917212
 30
0.0
 11
568.911957
 21
6.417212
 31
0.0
  0
ENDSEC
  0
EOF
