  0
SECTION
  2
HEADER
  9
$ACADVER
  1
AC1012
  9
$DWGCODEPAGE
  3
iso8859-1
  9
$INSBASE
 10
0.0
 20
0.0
 30
0.0
  9
$EXTMIN
 10
-1940.234365
 20
-1659.251698
 30
0.0
  9
$EXTMAX
 10
-1501.96332
 20
-1372.037392
 30
0.0
  9
$LIMMIN
 10
0.0
 20
0.0
  9
$LIMMAX
 10
210.0
 20
297.0
  9
$ORTHOMODE
 70
     0
  9
$REGENMODE
 70
     1
  9
$FILLMODE
 70
     1
  9
$QTEXTMODE
 70
     0
  9
$MIRRTEXT
 70
     1
  9
$DRAGMODE
 70
     2
  9
$LTSCALE
 40
1.0
  9
$OSMODE
 70
     0
  9
$ATTMODE
 70
     1
  9
$TEXTSIZE
 40
3.0
  9
$TRACEWID
 40
0.05
  9
$TEXTSTYLE
  7
STYLE3
  9
$CLAYER
  8
QUOTE
  9
$CELTYPE
  6
BYLAYER
  9
$CECOLOR
 62
   256
  9
$CELTSCALE
 40
1.0
  9
$DELOBJ
 70
     1
  9
$DISPSILH
 70
     0
  9
$DIMSCALE
 40
1.0
  9
$DIMASZ
 40
2.5
  9
$DIMEXO
 40
0.625
  9
$DIMDLI
 40
3.75
  9
$DIMRND
 40
0.0
  9
$DIMDLE
 40
0.0
  9
$DIMEXE
 40
1.25
  9
$DIMTP
 40
0.0
  9
$DIMTM
 40
0.0
  9
$DIMTXT
 40
3.5
  9
$DIMCEN
 40
0.0
  9
$DIMTSZ
 40
0.0
  9
$DIMTOL
 70
     0
  9
$DIMLIM
 70
     0
  9
$DIMTIH
 70
     0
  9
$DIMTOH
 70
     0
  9
$DIMSE1
 70
     0
  9
$DIMSE2
 70
     0
  9
$DIMTAD
 70
     1
  9
$DIMZIN
 70
     8
  9
$DIMBLK
  1

  9
$DIMASO
 70
     1
  9
$DIMSHO
 70
     1
  9
$DIMPOST
  1

  9
$DIMAPOST
  1

  9
$DIMALT
 70
     0
  9
$DIMALTD
 70
     2
  9
$DIMALTF
 40
0.03937
  9
$DIMLFAC
 40
1.0
  9
$DIMTOFL
 70
     0
  9
$DIMTVP
 40
0.0
  9
$DIMTIX
 70
     0
  9
$DIMSOXD
 70
     0
  9
$DIMSAH
 70
     0
  9
$DIMBLK1
  1

  9
$DIMBLK2
  1

  9
$DIMSTYLE
  2
STANDARD
  9
$DIMCLRD
 70
     0
  9
$DIMCLRE
 70
     0
  9
$DIMCLRT
 70
     0
  9
$DIMTFAC
 40
1.0
  9
$DIMGAP
 40
0.625
  9
$DIMJUST
 70
     0
  9
$DIMSD1
 70
     0
  9
$DIMSD2
 70
     0
  9
$DIMTOLJ
 70
     1
  9
$DIMTZIN
 70
     8
  9
$DIMALTZ
 70
     0
  9
$DIMALTTZ
 70
     0
  9
$DIMFIT
 70
     3
  9
$DIMUPT
 70
     0
  9
$DIMUNIT
 70
     2
  9
$DIMDEC
 70
     2
  9
$DIMTDEC
 70
     2
  9
$DIMALTU
 70
     2
  9
$DIMALTTD
 70
     2
  9
$DIMTXSTY
  7
STANDARD
  9
$DIMAUNIT
 70
     0
  9
$LUNITS
 70
     2
  9
$LUPREC
 70
     4
  9
$SKETCHINC
 40
0.1
  9
$FILLETRAD
 40
3.0
  9
$AUNITS
 70
     0
  9
$AUPREC
 70
     0
  9
$MENU
  1
acad
  9
$ELEVATION
 40
0.0
  9
$PELEVATION
 40
0.0
  9
$THICKNESS
 40
0.0
  9
$LIMCHECK
 70
     0
  9
$BLIPMODE
 70
     1
  9
$CHAMFERA
 40
0.0
  9
$CHAMFERB
 40
0.0
  9
$CHAMFERC
 40
20.0
  9
$CHAMFERD
 40
0.0
  9
$SKPOLY
 70
     0
  9
$TDCREATE
 40
2452481.284075347
  9
$TDUPDATE
 40
2452686.395809375
  9
$TDINDWG
 40
0.1390163194
  9
$TDUSRTIMER
 40
0.1390163194
  9
$USRTIMER
 70
     1
  9
$ANGBASE
 50
0.0
  9
$ANGDIR
 70
     0
  9
$PDMODE
 70
     0
  9
$PDSIZE
 40
0.0
  9
$PLINEWID
 40
0.0
  9
$COORDS
 70
     1
  9
$SPLFRAME
 70
     0
  9
$SPLINETYPE
 70
     6
  9
$SPLINESEGS
 70
     8
  9
$ATTDIA
 70
     0
  9
$ATTREQ
 70
     1
  9
$HANDLING
 70
     1
  9
$HANDSEED
  5
2371
  9
$SURFTAB1
 70
     6
  9
$SURFTAB2
 70
     6
  9
$SURFTYPE
 70
     6
  9
$SURFU
 70
     6
  9
$SURFV
 70
     6
  9
$UCSNAME
  2

  9
$UCSORG
 10
0.0
 20
0.0
 30
0.0
  9
$UCSXDIR
 10
1.0
 20
0.0
 30
0.0
  9
$UCSYDIR
 10
0.0
 20
1.0
 30
0.0
  9
$PUCSNAME
  2

  9
$PUCSORG
 10
0.0
 20
0.0
 30
0.0
  9
$PUCSXDIR
 10
1.0
 20
0.0
 30
0.0
  9
$PUCSYDIR
 10
0.0
 20
1.0
 30
0.0
  9
$USERI1
 70
     0
  9
$USERI2
 70
     0
  9
$USERI3
 70
     0
  9
$USERI4
 70
     0
  9
$USERI5
 70
     0
  9
$USERR1
 40
0.0
  9
$USERR2
 40
0.0
  9
$USERR3
 40
0.0
  9
$USERR4
 40
0.0
  9
$USERR5
 40
0.0
  9
$WORLDVIEW
 70
     1
  9
$SHADEDGE
 70
     3
  9
$SHADEDIF
 70
    70
  9
$TILEMODE
 70
     1
  9
$MAXACTVP
 70
    16
  9
$PINSBASE
 10
0.0
 20
0.0
 30
0.0
  9
$PLIMCHECK
 70
     0
  9
$PEXTMIN
 10
1.000000E+20
 20
1.000000E+20
 30
1.000000E+20
  9
$PEXTMAX
 10
-1.000000E+20
 20
-1.000000E+20
 30
-1.000000E+20
  9
$PLIMMIN
 10
0.0
 20
0.0
  9
$PLIMMAX
 10
12.0
 20
9.0
  9
$UNITMODE
 70
     0
  9
$VISRETAIN
 70
     0
  9
$PLINEGEN
 70
     0
  9
$PSLTSCALE
 70
     1
  9
$TREEDEPTH
 70
  3020
  9
$PICKSTYLE
 70
     1
  9
$CMLSTYLE
  2
STANDARD
  9
$CMLJUST
 70
     0
  9
$CMLSCALE
 40
20.0
  9
$SAVEIMAGES
 70
     0
  0
ENDSEC
  0
SECTION
  2
CLASSES
  0
ENDSEC
  0
SECTION
  2
TABLES
  0
TABLE
  2
VPORT
  5
8
100
AcDbSymbolTable
 70
     2
  0
VPORT
  5
2370
100
AcDbSymbolTableRecord
100
AcDbViewportTableRecord
  2
*ACTIVE
 70
     0
 10
0.0
 20
0.0
 11
1.0
 21
1.0
 12
-1801.126312
 22
-1487.491463
 13
0.0
 23
0.0
 14
10.0
 24
10.0
 15
10.0
 25
10.0
 16
0.0
 26
0.0
 36
1.0
 17
0.0
 27
0.0
 37
0.0
 40
146.828282
 41
1.563011
 42
50.0
 43
0.0
 44
0.0
 50
0.0
 51
0.0
 71
     0
 72
   100
 73
     1
 74
     0
 75
     0
 76
     0
 77
     0
 78
     0
  0
ENDTAB
  0
TABLE
  2
LTYPE
  5
5
100
AcDbSymbolTable
 70
     4
  0
LTYPE
  5
13
100
AcDbSymbolTableRecord
100
AcDbLinetypeTableRecord
  2
BYBLOCK
 70
     0
  3

 72
    65
 73
     0
 40
0.0
  0
LTYPE
  5
14
100
AcDbSymbolTableRecord
100
AcDbLinetypeTableRecord
  2
BYLAYER
 70
     0
  3

 72
    65
 73
     0
 40
0.0
  0
LTYPE
  5
15
100
AcDbSymbolTableRecord
100
AcDbLinetypeTableRecord
  2
CONTINUOUS
 70
    64
  3
Solid line
 72
    65
 73
     0
 40
0.0
  0
LTYPE
  5
94
100
AcDbSymbolTableRecord
100
AcDbLinetypeTableRecord
  2
ACAD_ISO04W100
 70
    64
  3
____ . ____ . ____ . ____ . ____ . ____ . ____ 
 72
    65
 73
     4
 40
30.5
 49
24.0
 74
     0
 49
-3.0
 74
     0
 49
0.5
 74
     0
 49
-3.0
 74
     0
  0
LTYPE
  5
225
100
AcDbSymbolTableRecord
100
AcDbLinetypeTableRecord
  2
TRATTEGGIATAX2
 70
    64
  3
____  ____  ____  ____  ____  ____  ____  ____ 
 72
    65
 73
     2
 40
1.5
 49
1.0
 74
     0
 49
-0.5
 74
     0
  0
LTYPE
  5
226
100
AcDbSymbolTableRecord
100
AcDbLinetypeTableRecord
  2
NASCOSTA
 70
    64
  3
__ __ __ __ __ __ __ __ __ __ __ __ __ __ __ __
 72
    65
 73
     2
 40
0.375
 49
0.25
 74
     0
 49
-0.125
 74
     0
  0
ENDTAB
  0
TABLE
  2
LAYER
  5
2
100
AcDbSymbolTable
 70
    11
  0
LAYER
  5
F
100
AcDbSymbolTableRecord
100
AcDbLayerTableRecord
  2
0
 70
     0
 62
     7
  6
CONTINUOUS
  0
LAYER
  5
95
100
AcDbSymbolTableRecord
100
AcDbLayerTableRecord
  2
DISEGNO
 70
    64
 62
     7
  6
CONTINUOUS
  0
LAYER
  5
96
100
AcDbSymbolTableRecord
100
AcDbLayerTableRecord
  2
ASSI
 70
    64
 62
     1
  6
ACAD_ISO04W100
  0
LAYER
  5
97
100
AcDbSymbolTableRecord
100
AcDbLayerTableRecord
  2
SEZIONE
 70
    64
 62
     3
  6
CONTINUOUS
  0
LAYER
  5
98
100
AcDbSymbolTableRecord
100
AcDbLayerTableRecord
  2
TEMPRA
 70
    64
 62
     2
  6
CONTINUOUS
  0
LAYER
  5
99
100
AcDbSymbolTableRecord
100
AcDbLayerTableRecord
  2
QUOTE
 70
    64
 62
     5
  6
CONTINUOUS
  0
LAYER
  5
1A3
100
AcDbSymbolTableRecord
100
AcDbLayerTableRecord
  2
TRATTO
 70
    64
 62
     6
  6
NASCOSTA
  0
LAYER
  5
28A
100
AcDbSymbolTableRecord
100
AcDbLayerTableRecord
  2
DEFPOINTS
 70
    64
 62
     7
  6
CONTINUOUS
  0
LAYER
  5
4A6
100
AcDbSymbolTableRecord
100
AcDbLayerTableRecord
  2
TABELLA
 70
    64
 62
     8
  6
CONTINUOUS
  0
LAYER
  5
55B
100
AcDbSymbolTableRecord
100
AcDbLayerTableRecord
  2
MARCATURA
 70
    64
 62
   136
  6
CONTINUOUS
  0
LAYER
  5
55C
100
AcDbSymbolTableRecord
100
AcDbLayerTableRecord
  2
TESTO
 70
    64
 62
   140
  6
CONTINUOUS
  0
ENDTAB
  0
TABLE
  2
STYLE
  5
3
100
AcDbSymbolTable
 70
     2
  0
STYLE
  5
10
100
AcDbSymbolTableRecord
100
AcDbTextStyleTableRecord
  2
STANDARD
 70
    64
 40
0.0
 41
1.1
 50
0.0
 71
     0
 42
3.0
  3
D:\Programmi\AutoCAD LT\isocp.shx
  4

  0
STYLE
  5
B0
100
AcDbSymbolTableRecord
100
AcDbTextStyleTableRecord
  2
STYLE3
 70
    64
 40
0.0
 41
1.1
 50
0.0
 71
     0
 42
3.0
  3
D:\Programmi\AutoCAD LT\isocp.shx
  4

  0
ENDTAB
  0
TABLE
  2
VIEW
  5
6
100
AcDbSymbolTable
 70
     0
  0
ENDTAB
  0
TABLE
  2
UCS
  5
7
100
AcDbSymbolTable
 70
     0
  0
ENDTAB
  0
TABLE
  2
APPID
  5
9
100
AcDbSymbolTable
 70
     1
  0
APPID
  5
11
100
AcDbSymbolTableRecord
100
AcDbRegAppTableRecord
  2
ACAD
 70
     0
  0
ENDTAB
  0
TABLE
  2
DIMSTYLE
  5
A
100
AcDbSymbolTable
 70
    24
  0
DIMSTYLE
105
1D
100
AcDbSymbolTableRecord
100
AcDbDimStyleTableRecord
  2
STANDARD
 70
     0
  3

  4

  5

  6

  7

 40
1.0
 41
2.5
 42
0.625
 43
3.75
 44
1.25
 45
0.0
 46
0.0
 47
0.0
 48
0.0
140
3.5
141
2.5
142
0.0
143
0.03937
144
1.0
145
0.0
146
1.0
147
0.625
 71
     0
 72
     0
 73
     0
 74
     0
 75
     0
 76
     0
 77
     1
 78
     8
170
     0
171
     2
172
     0
173
     0
174
     0
175
     0
176
     0
177
     0
178
     0
270
     2
271
     2
272
     2
273
     2
274
     2
340
10
275
     0
280
     0
281
     0
282
     0
283
     1
284
     8
285
     0
286
     0
287
     3
288
     0
  0
DIMSTYLE
105
234
100
AcDbSymbolTableRecord
100
AcDbDimStyleTableRecord
  2
TOLL-04
 70
     0
  3

  4

  5

  6

  7

 40
1.0
 41
2.5
 42
0.625
 43
3.75
 44
1.25
 45
0.0
 46
0.0
 47
0.02
 48
0.02
140
3.5
141
2.5
142
0.0
143
0.03937
144
1.0
145
0.0
146
0.8
147
0.625
 71
     1
 72
     0
 73
     0
 74
     0
 75
     0
 76
     0
 77
     1
 78
     8
170
     0
171
     2
172
     0
173
     0
174
     0
175
     0
176
     0
177
     0
178
     0
270
     2
271
     2
272
     2
273
     2
274
     2
340
10
275
     0
280
     0
281
     0
282
     0
283
     2
284
     8
285
     0
286
     0
287
     3
288
     0
  0
DIMSTYLE
105
4A7
100
AcDbSymbolTableRecord
100
AcDbDimStyleTableRecord
  2
ISO-25
 70
     0
  3

  4

  5

  6

  7

 40
1.0
 41
2.5
 42
0.625
 43
3.75
 44
1.25
 45
0.0
 46
0.0
 47
0.0
 48
0.0
140
2.5
141
2.5
142
0.0
143
0.0394
144
1.0
145
1.0
146
1.0
147
0.625
 71
     0
 72
     0
 73
     1
 74
     0
 75
     0
 76
     0
 77
     1
 78
     8
170
     0
171
     2
172
     1
173
     0
174
     0
175
     0
176
     0
177
     0
178
     0
270
     2
271
     4
272
     4
273
     2
274
     2
340
10
275
     0
280
     0
281
     0
282
     0
283
     1
284
     0
285
     0
286
     0
287
     3
288
     0
  0
DIMSTYLE
105
574
100
AcDbSymbolTableRecord
100
AcDbDimStyleTableRecord
  2
TOLL-01
 70
     0
  3

  4

  5

  6

  7

 40
1.0
 41
2.5
 42
0.625
 43
3.75
 44
1.25
 45
0.0
 46
0.0
 47
0.01
 48
0.01
140
3.5
141
2.5
142
0.0
143
0.03937
144
1.0
145
0.0
146
0.8
147
0.625
 71
     1
 72
     0
 73
     0
 74
     0
 75
     0
 76
     0
 77
     1
 78
     8
170
     0
171
     2
172
     0
173
     0
174
     0
175
     0
176
     0
177
     0
178
     0
270
     2
271
     2
272
     2
273
     2
274
     2
340
10
275
     0
280
     0
281
     0
282
     0
283
     2
284
     8
285
     0
286
     0
287
     3
288
     0
  0
DIMSTYLE
105
575
100
AcDbSymbolTableRecord
100
AcDbDimStyleTableRecord
  2
TOLL-02
 70
     0
  3

  4

  5

  6

  7

 40
1.0
 41
2.5
 42
0.625
 43
3.75
 44
1.25
 45
0.0
 46
0.0
 47
0.01
 48
0.0
140
3.5
141
2.5
142
0.0
143
0.03937
144
1.0
145
0.0
146
0.8
147
0.625
 71
     1
 72
     0
 73
     0
 74
     0
 75
     0
 76
     0
 77
     1
 78
     8
170
     0
171
     2
172
     0
173
     0
174
     0
175
     0
176
     0
177
     0
178
     0
270
     2
271
     2
272
     2
273
     2
274
     2
340
10
275
     0
280
     0
281
     0
282
     0
283
     2
284
     8
285
     0
286
     0
287
     3
288
     0
  0
DIMSTYLE
105
576
100
AcDbSymbolTableRecord
100
AcDbDimStyleTableRecord
  2
TOLL-03
 70
     0
  3

  4

  5

  6

  7

 40
1.0
 41
2.5
 42
0.625
 43
3.75
 44
1.25
 45
0.0
 46
0.0
 47
-0.01
 48
0.0
140
3.5
141
2.5
142
0.0
143
0.03937
144
1.0
145
0.0
146
0.8
147
0.625
 71
     1
 72
     0
 73
     0
 74
     0
 75
     0
 76
     0
 77
     1
 78
     8
170
     0
171
     2
172
     0
173
     0
174
     0
175
     0
176
     0
177
     0
178
     0
270
     2
271
     2
272
     2
273
     2
274
     2
340
10
275
     0
280
     0
281
     0
282
     0
283
     2
284
     8
285
     0
286
     0
287
     3
288
     0
  0
DIMSTYLE
105
577
100
AcDbSymbolTableRecord
100
AcDbDimStyleTableRecord
  2
TOLL-05
 70
     0
  3

  4

  5

  6

  7

 40
1.0
 41
2.5
 42
0.625
 43
3.75
 44
1.25
 45
0.0
 46
0.0
 47
0.02
 48
0.0
140
3.5
141
2.5
142
0.0
143
0.03937
144
1.0
145
0.0
146
0.8
147
0.625
 71
     1
 72
     0
 73
     0
 74
     0
 75
     0
 76
     0
 77
     1
 78
     8
170
     0
171
     2
172
     0
173
     0
174
     0
175
     0
176
     0
177
     0
178
     0
270
     2
271
     2
272
     2
273
     2
274
     2
340
10
275
     0
280
     0
281
     0
282
     0
283
     2
284
     8
285
     0
286
     0
287
     3
288
     0
  0
DIMSTYLE
105
578
100
AcDbSymbolTableRecord
100
AcDbDimStyleTableRecord
  2
TOLL-06
 70
     0
  3

  4

  5

  6

  7

 40
1.0
 41
2.5
 42
0.625
 43
3.75
 44
1.25
 45
0.0
 46
0.0
 47
-0.02
 48
0.0
140
3.5
141
2.5
142
0.0
143
0.03937
144
1.0
145
0.0
146
0.8
147
0.625
 71
     1
 72
     0
 73
     0
 74
     0
 75
     0
 76
     0
 77
     1
 78
     8
170
     0
171
     2
172
     0
173
     0
174
     0
175
     0
176
     0
177
     0
178
     0
270
     2
271
     2
272
     2
273
     2
274
     2
340
10
275
     0
280
     0
281
     0
282
     0
283
     2
284
     8
285
     0
286
     0
287
     3
288
     0
  0
DIMSTYLE
105
579
100
AcDbSymbolTableRecord
100
AcDbDimStyleTableRecord
  2
TOLL-07
 70
     0
  3

  4

  5

  6

  7

 40
1.0
 41
2.5
 42
0.625
 43
3.75
 44
1.25
 45
0.0
 46
0.0
 47
0.05
 48
0.05
140
3.5
141
2.5
142
0.0
143
0.03937
144
1.0
145
0.0
146
0.8
147
0.625
 71
     1
 72
     0
 73
     0
 74
     0
 75
     0
 76
     0
 77
     1
 78
     8
170
     0
171
     2
172
     0
173
     0
174
     0
175
     0
176
     0
177
     0
178
     0
270
     2
271
     2
272
     2
273
     2
274
     2
340
10
275
     0
280
     0
281
     0
282
     0
283
     2
284
     8
285
     0
286
     0
287
     3
288
     0
  0
DIMSTYLE
105
57A
100
AcDbSymbolTableRecord
100
AcDbDimStyleTableRecord
  2
TOLL-08
 70
     0
  3

  4

  5

  6

  7

 40
1.0
 41
2.5
 42
0.625
 43
3.75
 44
1.25
 45
0.0
 46
0.0
 47
0.05
 48
0.0
140
3.5
141
2.5
142
0.0
143
0.03937
144
1.0
145
0.0
146
0.8
147
0.625
 71
     1
 72
     0
 73
     0
 74
     0
 75
     0
 76
     0
 77
     1
 78
     8
170
     0
171
     2
172
     0
173
     0
174
     0
175
     0
176
     0
177
     0
178
     0
270
     2
271
     2
272
     2
273
     2
274
     2
340
10
275
     0
280
     0
281
     0
282
     0
283
     2
284
     8
285
     0
286
     0
287
     3
288
     0
  0
DIMSTYLE
105
57B
100
AcDbSymbolTableRecord
100
AcDbDimStyleTableRecord
  2
TOLL-09
 70
     0
  3

  4

  5

  6

  7

 40
1.0
 41
2.5
 42
0.625
 43
3.75
 44
1.25
 45
0.0
 46
0.0
 47
-0.05
 48
0.0
140
3.5
141
2.5
142
0.0
143
0.03937
144
1.0
145
0.0
146
0.8
147
0.625
 71
     1
 72
     0
 73
     0
 74
     0
 75
     0
 76
     0
 77
     1
 78
     8
170
     0
171
     2
172
     0
173
     0
174
     0
175
     0
176
     0
177
     0
178
     0
270
     2
271
     2
272
     2
273
     2
274
     2
340
10
275
     0
280
     0
281
     0
282
     0
283
     2
284
     8
285
     0
286
     0
287
     3
288
     0
  0
DIMSTYLE
105
57C
100
AcDbSymbolTableRecord
100
AcDbDimStyleTableRecord
  2
TOLL-10
 70
     0
  3

  4

  5

  6

  7

 40
1.0
 41
2.5
 42
0.625
 43
3.75
 44
1.25
 45
0.0
 46
0.0
 47
0.1
 48
0.1
140
3.5
141
2.5
142
0.0
143
0.03937
144
1.0
145
0.0
146
0.8
147
0.625
 71
     1
 72
     0
 73
     0
 74
     0
 75
     0
 76
     0
 77
     1
 78
     8
170
     0
171
     2
172
     0
173
     0
174
     0
175
     0
176
     0
177
     0
178
     0
270
     2
271
     2
272
     2
273
     2
274
     2
340
10
275
     0
280
     0
281
     0
282
     0
283
     2
284
     8
285
     0
286
     0
287
     3
288
     0
  0
DIMSTYLE
105
57D
100
AcDbSymbolTableRecord
100
AcDbDimStyleTableRecord
  2
TOLL-11
 70
     0
  3

  4

  5

  6

  7

 40
1.0
 41
2.5
 42
0.625
 43
3.75
 44
1.25
 45
0.0
 46
0.0
 47
0.1
 48
0.0
140
3.5
141
2.5
142
0.0
143
0.03937
144
1.0
145
0.0
146
0.8
147
0.625
 71
     1
 72
     0
 73
     0
 74
     0
 75
     0
 76
     0
 77
     1
 78
     8
170
     0
171
     2
172
     0
173
     0
174
     0
175
     0
176
     0
177
     0
178
     0
270
     2
271
     2
272
     2
273
     2
274
     2
340
10
275
     0
280
     0
281
     0
282
     0
283
     2
284
     8
285
     0
286
     0
287
     3
288
     0
  0
DIMSTYLE
105
57E
100
AcDbSymbolTableRecord
100
AcDbDimStyleTableRecord
  2
TOLL-12
 70
     0
  3

  4

  5

  6

  7

 40
1.0
 41
2.5
 42
0.625
 43
3.75
 44
1.25
 45
0.0
 46
0.0
 47
-0.1
 48
0.0
140
3.5
141
2.5
142
0.0
143
0.03937
144
1.0
145
0.0
146
0.8
147
0.625
 71
     1
 72
     0
 73
     0
 74
     0
 75
     0
 76
     0
 77
     1
 78
     8
170
     0
171
     2
172
     0
173
     0
174
     0
175
     0
176
     0
177
     0
178
     0
270
     2
271
     2
272
     2
273
     2
274
     2
340
10
275
     0
280
     0
281
     0
282
     0
283
     2
284
     8
285
     0
286
     0
287
     3
288
     0
  0
DIMSTYLE
105
57F
100
AcDbSymbolTableRecord
100
AcDbDimStyleTableRecord
  2
TOLL-13
 70
     0
  3

  4

  5

  6

  7

 40
1.0
 41
2.5
 42
0.625
 43
3.75
 44
1.25
 45
0.0
 46
0.0
 47
0.2
 48
0.2
140
3.5
141
2.5
142
0.0
143
0.03937
144
1.0
145
0.0
146
0.8
147
0.625
 71
     1
 72
     0
 73
     0
 74
     0
 75
     0
 76
     0
 77
     1
 78
     8
170
     0
171
     2
172
     0
173
     0
174
     0
175
     0
176
     0
177
     0
178
     0
270
     2
271
     2
272
     2
273
     2
274
     2
340
10
275
     0
280
     0
281
     0
282
     0
283
     2
284
     8
285
     0
286
     0
287
     3
288
     0
  0
DIMSTYLE
105
580
100
AcDbSymbolTableRecord
100
AcDbDimStyleTableRecord
  2
TOLL-14
 70
     0
  3

  4

  5

  6

  7

 40
1.0
 41
2.5
 42
0.625
 43
3.75
 44
1.25
 45
0.0
 46
0.0
 47
0.2
 48
0.0
140
3.5
141
2.5
142
0.0
143
0.03937
144
1.0
145
0.0
146
0.8
147
0.625
 71
     1
 72
     0
 73
     0
 74
     0
 75
     0
 76
     0
 77
     1
 78
     8
170
     0
171
     2
172
     0
173
     0
174
     0
175
     0
176
     0
177
     0
178
     0
270
     2
271
     2
272
     2
273
     2
274
     2
340
10
275
     0
280
     0
281
     0
282
     0
283
     2
284
     8
285
     0
286
     0
287
     3
288
     0
  0
DIMSTYLE
105
581
100
AcDbSymbolTableRecord
100
AcDbDimStyleTableRecord
  2
TOLL-15
 70
     0
  3

  4

  5

  6

  7

 40
1.0
 41
2.5
 42
0.625
 43
3.75
 44
1.25
 45
0.0
 46
0.0
 47
-0.2
 48
0.0
140
3.5
141
2.5
142
0.0
143
0.03937
144
1.0
145
0.0
146
0.8
147
0.625
 71
     1
 72
     0
 73
     0
 74
     0
 75
     0
 76
     0
 77
     1
 78
     8
170
     0
171
     2
172
     0
173
     0
174
     0
175
     0
176
     0
177
     0
178
     0
270
     2
271
     2
272
     2
273
     2
274
     2
340
10
275
     0
280
     0
281
     0
282
     0
283
     2
284
     8
285
     0
286
     0
287
     3
288
     0
  0
DIMSTYLE
105
582
100
AcDbSymbolTableRecord
100
AcDbDimStyleTableRecord
  2
TOLL-16
 70
     0
  3

  4

  5

  6

  7

 40
1.0
 41
2.5
 42
0.625
 43
3.75
 44
1.25
 45
0.0
 46
0.0
 47
0.5
 48
0.5
140
3.5
141
2.5
142
0.0
143
0.03937
144
1.0
145
0.0
146
0.8
147
0.625
 71
     1
 72
     0
 73
     0
 74
     0
 75
     0
 76
     0
 77
     1
 78
     8
170
     0
171
     2
172
     0
173
     0
174
     0
175
     0
176
     0
177
     0
178
     0
270
     2
271
     2
272
     2
273
     2
274
     2
340
10
275
     0
280
     0
281
     0
282
     0
283
     2
284
     8
285
     0
286
     0
287
     3
288
     0
  0
DIMSTYLE
105
583
100
AcDbSymbolTableRecord
100
AcDbDimStyleTableRecord
  2
TOLL-17
 70
     0
  3

  4

  5

  6

  7

 40
1.0
 41
2.5
 42
0.625
 43
3.75
 44
1.25
 45
0.0
 46
0.0
 47
0.5
 48
0.0
140
3.5
141
2.5
142
0.0
143
0.03937
144
1.0
145
0.0
146
0.8
147
0.625
 71
     1
 72
     0
 73
     0
 74
     0
 75
     0
 76
     0
 77
     1
 78
     8
170
     0
171
     2
172
     0
173
     0
174
     0
175
     0
176
     0
177
     0
178
     0
270
     2
271
     2
272
     2
273
     2
274
     2
340
10
275
     0
280
     0
281
     0
282
     0
283
     2
284
     8
285
     0
286
     0
287
     3
288
     0
  0
DIMSTYLE
105
584
100
AcDbSymbolTableRecord
100
AcDbDimStyleTableRecord
  2
TOLL-18
 70
     0
  3

  4

  5

  6

  7

 40
1.0
 41
2.5
 42
0.625
 43
3.75
 44
1.25
 45
0.0
 46
0.0
 47
-0.5
 48
0.0
140
3.5
141
2.5
142
0.0
143
0.03937
144
1.0
145
0.0
146
0.8
147
0.625
 71
     1
 72
     0
 73
     0
 74
     0
 75
     0
 76
     0
 77
     1
 78
     8
170
     0
171
     2
172
     0
173
     0
174
     0
175
     0
176
     0
177
     0
178
     0
270
     2
271
     2
272
     2
273
     2
274
     2
340
10
275
     0
280
     0
281
     0
282
     0
283
     2
284
     8
285
     0
286
     0
287
     3
288
     0
  0
DIMSTYLE
105
585
100
AcDbSymbolTableRecord
100
AcDbDimStyleTableRecord
  2
TOLL-19
 70
     0
  3

  4

  5

  6

  7

 40
1.0
 41
2.5
 42
0.625
 43
3.75
 44
1.25
 45
0.0
 46
0.0
 47
0.16
 48
0.0
140
3.5
141
2.5
142
0.0
143
0.03937
144
1.0
145
0.0
146
0.8
147
0.625
 71
     1
 72
     0
 73
     0
 74
     0
 75
     0
 76
     0
 77
     1
 78
     8
170
     0
171
     2
172
     0
173
     0
174
     0
175
     0
176
     0
177
     0
178
     0
270
     2
271
     0
272
     2
273
     2
274
     2
340
10
275
     1
280
     0
281
     0
282
     0
283
     2
284
     8
285
     0
286
     0
287
     3
288
     0
  0
DIMSTYLE
105
5E5
100
AcDbSymbolTableRecord
100
AcDbDimStyleTableRecord
  2
TOLL-20
 70
     0
  3

  4

  5

  6

  7

 40
1.0
 41
2.5
 42
0.625
 43
3.75
 44
1.25
 45
0.0
 46
0.0
 47
-0.08
 48
-0.08
140
3.5
141
2.5
142
0.0
143
0.03937
144
1.0
145
0.0
146
0.8
147
0.625
 71
     1
 72
     0
 73
     0
 74
     0
 75
     0
 76
     0
 77
     1
 78
     8
170
     0
171
     2
172
     0
173
     0
174
     0
175
     0
176
     0
177
     0
178
     0
270
     2
271
     0
272
     2
273
     2
274
     2
340
10
275
     1
280
     0
281
     0
282
     0
283
     2
284
     8
285
     0
286
     0
287
     3
288
     0
  0
DIMSTYLE
105
5E6
100
AcDbSymbolTableRecord
100
AcDbDimStyleTableRecord
  2
TOLL-21
 70
     0
  3

  4

  5

  6

  7

 40
1.0
 41
2.5
 42
0.625
 43
3.75
 44
1.25
 45
0.0
 46
0.0
 47
0.033
 48
0.0
140
3.5
141
2.5
142
0.0
143
0.03937
144
1.0
145
0.0
146
0.8
147
0.625
 71
     1
 72
     0
 73
     0
 74
     0
 75
     0
 76
     0
 77
     1
 78
     8
170
     0
171
     2
172
     0
173
     0
174
     0
175
     0
176
     0
177
     0
178
     0
270
     2
271
     0
272
     2
273
     2
274
     2
340
10
275
     1
280
     0
281
     0
282
     0
283
     2
284
     8
285
     0
286
     0
287
     3
288
     0
  0
DIMSTYLE
105
60E
100
AcDbSymbolTableRecord
100
AcDbDimStyleTableRecord
  2
TOLL-22
 70
     0
  3

  4

  5

  6

  7

 40
1.0
 41
2.5
 42
0.625
 43
3.75
 44
1.25
 45
0.0
 46
0.0
 47
-0.033
 48
0.0
140
3.5
141
2.5
142
0.0
143
0.03937
144
1.0
145
0.0
146
0.8
147
0.625
 71
     1
 72
     0
 73
     0
 74
     0
 75
     0
 76
     0
 77
     1
 78
     8
170
     0
171
     2
172
     0
173
     0
174
     0
175
     0
176
     0
177
     0
178
     0
270
     2
271
     0
272
     2
273
     2
274
     2
340
10
275
     1
280
     0
281
     0
282
     0
283
     2
284
     8
285
     0
286
     0
287
     3
288
     0
  0
ENDTAB
  0
TABLE
  2
BLOCK_RECORD
  5
1
100
AcDbSymbolTable
 70
    50
  0
BLOCK_RECORD
  5
19
100
AcDbSymbolTableRecord
100
AcDbBlockTableRecord
  2
*MODEL_SPACE
  0
BLOCK_RECORD
  5
16
100
AcDbSymbolTableRecord
100
AcDbBlockTableRecord
  2
*PAPER_SPACE
  0
BLOCK_RECORD
  5
3A2
100
AcDbSymbolTableRecord
100
AcDbBlockTableRecord
  2
RUGOSITA
  0
BLOCK_RECORD
  5
4A8
100
AcDbSymbolTableRecord
100
AcDbBlockTableRecord
  2
A$C52B2
  0
BLOCK_RECORD
  5
62B
100
AcDbSymbolTableRecord
100
AcDbBlockTableRecord
  2
A$C350
  0
BLOCK_RECORD
  5
69B
100
AcDbSymbolTableRecord
100
AcDbBlockTableRecord
  2
*D3
  0
BLOCK_RECORD
  5
6CF
100
AcDbSymbolTableRecord
100
AcDbBlockTableRecord
  2
*D4
  0
BLOCK_RECORD
  5
723
100
AcDbSymbolTableRecord
100
AcDbBlockTableRecord
  2
*D5
  0
BLOCK_RECORD
  5
731
100
AcDbSymbolTableRecord
100
AcDbBlockTableRecord
  2
*D6
  0
BLOCK_RECORD
  5
7B8
100
AcDbSymbolTableRecord
100
AcDbBlockTableRecord
  2
*D7
  0
BLOCK_RECORD
  5
807
100
AcDbSymbolTableRecord
100
AcDbBlockTableRecord
  2
*D8
  0
BLOCK_RECORD
  5
815
100
AcDbSymbolTableRecord
100
AcDbBlockTableRecord
  2
*D9
  0
BLOCK_RECORD
  5
862
100
AcDbSymbolTableRecord
100
AcDbBlockTableRecord
  2
*D10
  0
BLOCK_RECORD
  5
892
100
AcDbSymbolTableRecord
100
AcDbBlockTableRecord
  2
*D11
  0
BLOCK_RECORD
  5
926
100
AcDbSymbolTableRecord
100
AcDbBlockTableRecord
  2
*D12
  0
BLOCK_RECORD
  5
933
100
AcDbSymbolTableRecord
100
AcDbBlockTableRecord
  2
*D13
  0
BLOCK_RECORD
  5
941
100
AcDbSymbolTableRecord
100
AcDbBlockTableRecord
  2
*D14
  0
BLOCK_RECORD
  5
AE0
100
AcDbSymbolTableRecord
100
AcDbBlockTableRecord
  2
*D15
  0
BLOCK_RECORD
  5
AEC
100
AcDbSymbolTableRecord
100
AcDbBlockTableRecord
  2
*D16
  0
BLOCK_RECORD
  5
AF9
100
AcDbSymbolTableRecord
100
AcDbBlockTableRecord
  2
*D17
  0
BLOCK_RECORD
  5
B7D
100
AcDbSymbolTableRecord
100
AcDbBlockTableRecord
  2
*D18
  0
BLOCK_RECORD
  5
B8A
100
AcDbSymbolTableRecord
100
AcDbBlockTableRecord
  2
*D19
  0
BLOCK_RECORD
  5
BB4
100
AcDbSymbolTableRecord
100
AcDbBlockTableRecord
  2
*D20
  0
BLOCK_RECORD
  5
BCE
100
AcDbSymbolTableRecord
100
AcDbBlockTableRecord
  2
*D21
  0
BLOCK_RECORD
  5
BEA
100
AcDbSymbolTableRecord
100
AcDbBlockTableRecord
  2
*D22
  0
BLOCK_RECORD
  5
C05
100
AcDbSymbolTableRecord
100
AcDbBlockTableRecord
  2
*D23
  0
BLOCK_RECORD
  5
C13
100
AcDbSymbolTableRecord
100
AcDbBlockTableRecord
  2
*D24
  0
BLOCK_RECORD
  5
11B1
100
AcDbSymbolTableRecord
100
AcDbBlockTableRecord
  2
*D25
  0
BLOCK_RECORD
  5
11BE
100
AcDbSymbolTableRecord
100
AcDbBlockTableRecord
  2
*D26
  0
BLOCK_RECORD
  5
146B
100
AcDbSymbolTableRecord
100
AcDbBlockTableRecord
  2
A$C170
  0
BLOCK_RECORD
  5
1BC0
100
AcDbSymbolTableRecord
100
AcDbBlockTableRecord
  2
*D28
  0
BLOCK_RECORD
  5
1E29
100
AcDbSymbolTableRecord
100
AcDbBlockTableRecord
  2
*D30
  0
BLOCK_RECORD
  5
1FE5
100
AcDbSymbolTableRecord
100
AcDbBlockTableRecord
  2
*D34
  0
BLOCK_RECORD
  5
1FF3
100
AcDbSymbolTableRecord
100
AcDbBlockTableRecord
  2
*D35
  0
BLOCK_RECORD
  5
2032
100
AcDbSymbolTableRecord
100
AcDbBlockTableRecord
  2
*D36
  0
BLOCK_RECORD
  5
203B
100
AcDbSymbolTableRecord
100
AcDbBlockTableRecord
  2
*D37
  0
BLOCK_RECORD
  5
2048
100
AcDbSymbolTableRecord
100
AcDbBlockTableRecord
  2
*D38
  0
BLOCK_RECORD
  5
2091
100
AcDbSymbolTableRecord
100
AcDbBlockTableRecord
  2
*D39
  0
BLOCK_RECORD
  5
20AB
100
AcDbSymbolTableRecord
100
AcDbBlockTableRecord
  2
*D40
  0
BLOCK_RECORD
  5
20E9
100
AcDbSymbolTableRecord
100
AcDbBlockTableRecord
  2
*X41
  0
BLOCK_RECORD
  5
218D
100
AcDbSymbolTableRecord
100
AcDbBlockTableRecord
  2
*D42
  0
BLOCK_RECORD
  5
219A
100
AcDbSymbolTableRecord
100
AcDbBlockTableRecord
  2
*D43
  0
BLOCK_RECORD
  5
220E
100
AcDbSymbolTableRecord
100
AcDbBlockTableRecord
  2
*D44
  0
BLOCK_RECORD
  5
2232
100
AcDbSymbolTableRecord
100
AcDbBlockTableRecord
  2
*D45
  0
BLOCK_RECORD
  5
2241
100
AcDbSymbolTableRecord
100
AcDbBlockTableRecord
  2
*D46
  0
BLOCK_RECORD
  5
226C
100
AcDbSymbolTableRecord
100
AcDbBlockTableRecord
  2
*X47
  0
BLOCK_RECORD
  5
231E
100
AcDbSymbolTableRecord
100
AcDbBlockTableRecord
  2
*D48
  0
BLOCK_RECORD
  5
232B
100
AcDbSymbolTableRecord
100
AcDbBlockTableRecord
  2
*D49
  0
ENDTAB
  0
ENDSEC
  0
SECTION
  2
BLOCKS
  0
BLOCK
  5
1A
100
AcDbEntity
  8
0
100
AcDbBlockBegin
  2
*MODEL_SPACE
 70
     0
 10
0.0
 20
0.0
 30
0.0
  3
*MODEL_SPACE
  1

  0
ENDBLK
  5
1B
100
AcDbEntity
  8
0
100
AcDbBlockEnd
  0
BLOCK
  5
17
100
AcDbEntity
 67
     1
  8
0
100
AcDbBlockBegin
  2
*PAPER_SPACE
 70
     0
 10
0.0
 20
0.0
 30
0.0
  3
*PAPER_SPACE
  1

  0
ENDBLK
  5
18
100
AcDbEntity
 67
     1
  8
0
100
AcDbBlockEnd
  0
BLOCK
  5
3A7
100
AcDbEntity
  8
DISEGNO
100
AcDbBlockBegin
  2
RUGOSITA
 70
     2
 10
0.0
 20
0.0
 30
0.0
  3
RUGOSITA
  1

  0
ATTDEF
  5
3A3
100
AcDbEntity
  8
QUOTE
100
AcDbText
 10
-1.071886
 20
3.214106
 30
0.0
 40
1.5
  1
0.8
100
AcDbAttributeDefinition
  3
CHE RUGOSITA ?
  2
RUGOSITA
 70
     0
  0
LINE
  5
3A4
100
AcDbEntity
  8
QUOTE
100
AcDbLine
 10
0.0
 20
0.0
 30
0.0
 11
4.0
 21
6.928203
 31
0.0
  0
LINE
  5
3A5
100
AcDbEntity
  8
QUOTE
100
AcDbLine
 10
0.0
 20
0.0
 30
0.0
 11
-1.75
 21
3.031089
 31
0.0
  0
LINE
  5
3A6
100
AcDbEntity
  8
QUOTE
100
AcDbLine
 10
-1.75
 20
3.031089
 30
0.0
 11
1.75
 21
3.031089
 31
0.0
  0
ENDBLK
  5
3A8
100
AcDbEntity
  8
DISEGNO
100
AcDbBlockEnd
  0
BLOCK
  5
547
100
AcDbEntity
  8
QUOTE
100
AcDbBlockBegin
  2
A$C52B2
 70
     0
 10
0.0
 20
0.0
 30
0.0
  3
A$C52B2
  1

  0
LINE
  5
4A9
100
AcDbEntity
  8
TABELLA
  6
CONTINUOUS
100
AcDbLine
 10
100.781064
 20
5.387067
 30
0.0
 11
103.281064
 21
0.387067
 31
0.0
  0
LINE
  5
4AA
100
AcDbEntity
  8
TABELLA
  6
CONTINUOUS
100
AcDbLine
 10
100.781064
 20
0.387067
 30
0.0
 11
103.281064
 21
0.387067
 31
0.0
  0
LINE
  5
4AB
100
AcDbEntity
  8
TABELLA
  6
CONTINUOUS
100
AcDbLine
 10
103.281064
 20
287.387067
 30
0.0
 11
100.781064
 21
282.387067
 31
0.0
  0
LINE
  5
4AC
100
AcDbEntity
  8
TABELLA
  6
CONTINUOUS
100
AcDbLine
 10
100.781064
 20
287.387067
 30
0.0
 11
103.281064
 21
287.387067
 31
0.0
  0
TEXT
  5
4AD
100
AcDbEntity
  8
TABELLA
  6
CONTINUOUS
100
AcDbText
 10
83.891226
 20
14.123583
 30
0.0
 40
6.0
  1
ROLLERI
100
AcDbText
  0
LINE
  5
4AE
100
AcDbEntity
  8
TABELLA
  6
CONTINUOUS
100
AcDbLine
 10
115.706968
 20
22.612261
 30
0.0
 11
84.107383
 21
22.612261
 31
0.0
1001
ACAD
1000
ASC_BOUNDS
1002
{
1070
    19
1002
}
  0
LINE
  5
4AF
100
AcDbEntity
  8
TABELLA
  6
CONTINUOUS
100
AcDbLine
 10
82.055262
 20
11.456564
 30
0.0
 11
113.654847
 21
11.456564
 31
0.0
1001
ACAD
1000
ASC_BOUNDS
1002
{
1070
    19
1002
}
  0
LINE
  5
4B0
100
AcDbEntity
  8
TABELLA
  6
CONTINUOUS
100
AcDbLine
 10
116.407176
 20
23.612261
 30
0.0
 11
83.407176
 21
23.612261
 31
0.0
1001
ACAD
1000
ASC_BOUNDS
1002
{
1070
    19
1002
}
  0
LINE
  5
4B1
100
AcDbEntity
  8
TABELLA
  6
CONTINUOUS
100
AcDbLine
 10
81.355055
 20
10.456564
 30
0.0
 11
114.355055
 21
10.456564
 31
0.0
1001
ACAD
1000
ASC_BOUNDS
1002
{
1070
    19
1002
}
  0
TEXT
  5
4B2
100
AcDbEntity
  8
TABELLA
  6
CONTINUOUS
100
AcDbText
 10
79.770815
 20
6.679292
 30
0.0
 40
2.0
  1
Vigolzone ( Piacenza ) - ITALIA
100
AcDbText
  0
LINE
  5
4B3
100
AcDbEntity
  8
TABELLA
  6
CONTINUOUS
100
AcDbLine
 10
125.782064
 20
35.387067
 30
0.0
 11
75.782064
 21
35.387067
 31
0.0
  0
LINE
  5
4B4
100
AcDbEntity
  8
TABELLA
  6
CONTINUOUS
100
AcDbLine
 10
195.782064
 20
45.387067
 30
0.0
 11
5.697058
 21
45.395351
 31
0.0
  0
LINE
  5
4B5
100
AcDbEntity
  8
TABELLA
  6
CONTINUOUS
100
AcDbLine
 10
125.782064
 20
25.387067
 30
0.0
 11
75.782064
 21
25.387067
 31
0.0
  0
LINE
  5
4B6
100
AcDbEntity
  8
TABELLA
  6
CONTINUOUS
100
AcDbLine
 10
195.782064
 20
5.387067
 30
0.0
 11
5.782064
 21
5.387067
 31
0.0
  0
LINE
  5
4B7
100
AcDbEntity
  8
TABELLA
  6
CONTINUOUS
100
AcDbLine
 10
5.782064
 20
282.387067
 30
0.0
 11
195.782064
 21
282.387067
 31
0.0
  0
LINE
  5
4B8
100
AcDbEntity
  8
TABELLA
  6
CONTINUOUS
100
AcDbLine
 10
5.782064
 20
143.887067
 30
0.0
 11
0.782064
 21
141.387067
 31
0.0
  0
LINE
  5
4B9
100
AcDbEntity
  8
TABELLA
  6
CONTINUOUS
100
AcDbLine
 10
0.782064
 20
143.887067
 30
0.0
 11
0.782064
 21
141.387067
 31
0.0
  0
LINE
  5
4BA
100
AcDbEntity
  8
TABELLA
  6
CONTINUOUS
100
AcDbLine
 10
5.782064
 20
5.387067
 30
0.0
 11
5.782064
 21
282.387067
 31
0.0
  0
POLYLINE
  5
4BB
100
AcDbEntity
  8
QUOTE
100
AcDb2dPolyline
 66
     1
 10
0.0
 20
0.0
 30
0.0
 70
     1
  0
VERTEX
  5
4BC
100
AcDbEntity
  8
QUOTE
100
AcDbVertex
100
AcDb2dVertex
 10
11.507487
 20
62.582414
 30
0.0
  0
VERTEX
  5
4BD
100
AcDbEntity
  8
QUOTE
100
AcDbVertex
100
AcDb2dVertex
 10
11.507487
 20
49.867806
 30
0.0
  0
VERTEX
  5
4BE
100
AcDbEntity
  8
QUOTE
100
AcDbVertex
100
AcDb2dVertex
 10
52.626527
 20
49.867806
 30
0.0
  0
VERTEX
  5
4BF
100
AcDbEntity
  8
QUOTE
100
AcDbVertex
100
AcDb2dVertex
 10
52.626527
 20
62.582414
 30
0.0
  0
SEQEND
  5
4C0
100
AcDbEntity
  8
QUOTE
  0
TOLERANCE
  5
4C1
100
AcDbEntity
  8
QUOTE
  6
CONTINUOUS
100
AcDbFcf
  3
ISO-25
 10
30.863585
 20
54.182522
 30
0.0
  1
{\Fgdt;u}%%v0.02%%v%%v%%v%%v
1001
ACAD
1000
DSTYLE
1002
{
1070
   140
1040
2.6
1070
    47
1040
0.02
1070
    73
1070
     0
1070
   272
1070
     2
1070
   147
1040
0.53
1070
    42
1040
0.5261
1070
    44
1040
1.0522
1070
    43
1040
3.1566
1070
   271
1070
     2
1070
   141
1040
2.1044
1070
    41
1040
2.6
1002
}
  0
TEXT
  5
4C2
100
AcDbEntity
  8
QUOTE
100
AcDbText
 10
12.101072
 20
58.118453
 30
0.0
 40
2.5
  1
TOLLERANZE AL METRO
 41
1.1
100
AcDbText
  0
TEXT
  5
4C3
100
AcDbEntity
  8
TABELLA
  6
CONTINUOUS
100
AcDbText
 10
7.271803
 20
15.7314
 30
0.0
 40
2.0
  1
- Angoli su superfici lavorate = +/- 30'
100
AcDbText
  0
TEXT
  5
4C4
100
AcDbEntity
  8
TABELLA
  6
CONTINUOUS
100
AcDbText
 10
7.271803
 20
23.3314
 30
0.0
 40
2.0
  1
   da mm 151 a mm 500 = +/- 0.4
100
AcDbText
  0
TEXT
  5
4C5
100
AcDbEntity
  8
TABELLA
  6
CONTINUOUS
100
AcDbText
 10
7.271803
 20
27.1314
 30
0.0
 40
2.0
  1
   da mm 51 a mm 150 = +/- 0.3
100
AcDbText
  0
TEXT
  5
4C6
100
AcDbEntity
  8
TABELLA
  6
CONTINUOUS
100
AcDbText
 10
7.271803
 20
30.9314
 30
0.0
 40
2.0
  1
- Superfici lavorate da mm 1 a mm 50 = +/- 0.2
100
AcDbText
  0
TEXT
  5
4C7
100
AcDbEntity
  8
TABELLA
  6
CONTINUOUS
100
AcDbText
 10
7.271803
 20
34.7314
 30
0.0
 40
2.0
  1
- Parti fuse con spessori >10 mm = +/- 10%
100
AcDbText
  0
TEXT
  5
4C8
100
AcDbEntity
  8
TABELLA
  6
CONTINUOUS
100
AcDbText
 10
7.271803
 20
38.5314
 30
0.0
 40
2.0
  1
- Parti fuse con spessori <10 mm = +/- 1 mm
100
AcDbText
  0
TOLERANCE
  5
4C9
100
AcDbEntity
  8
QUOTE
  6
CONTINUOUS
100
AcDbFcf
  3
ISO-25
 10
15.305627
 20
54.182522
 30
0.0
  1
{\Fgdt;b}%%v0.02%%v%%v%%v%%v
1001
ACAD
1000
DSTYLE
1002
{
1070
   140
1040
2.6
1070
    47
1040
0.02
1070
    73
1070
     0
1070
   272
1070
     2
1070
   147
1040
0.53
1070
    42
1040
0.5261
1070
    44
1040
1.0522
1070
    43
1040
3.1566
1070
   271
1070
     2
1070
   141
1040
2.1044
1070
    41
1040
2.6
1002
}
  0
TEXT
  5
4CA
100
AcDbEntity
  8
TABELLA
  6
CONTINUOUS
100
AcDbText
 10
0.769342
 20
51.259863
 30
0.0
 40
4.0
  1
B
100
AcDbText
  0
TEXT
  5
4CB
100
AcDbEntity
  8
TABELLA
  6
CONTINUOUS
100
AcDbText
 10
0.353187
 20
15.100813
 30
0.0
 40
4.0
  1
A
100
AcDbText
  0
LINE
  5
4CC
100
AcDbEntity
  8
TABELLA
  6
CONTINUOUS
100
AcDbLine
 10
5.782064
 20
36.262067
 30
0.0
 11
0.782064
 21
36.262067
 31
0.0
  0
TEXT
  5
4CD
100
AcDbEntity
  8
TABELLA
  6
CONTINUOUS
100
AcDbText
 10
15.583223
 20
0.138446
 30
0.0
 40
4.0
  1
6
100
AcDbText
  0
LINE
  5
4CE
100
AcDbEntity
  8
TABELLA
  6
CONTINUOUS
100
AcDbLine
 10
34.115064
 20
5.387067
 30
0.0
 11
34.115064
 21
0.387067
 31
0.0
  0
TEXT
  5
4CF
100
AcDbEntity
  8
TABELLA
  6
CONTINUOUS
100
AcDbText
 10
7.271803
 20
11.9314
 30
0.0
 40
2.0
  1
- Interassi fori = +/- 0.25
100
AcDbText
  0
TEXT
  5
4D0
100
AcDbEntity
  8
TABELLA
  6
CONTINUOUS
100
AcDbText
 10
7.271803
 20
19.5314
 30
0.0
 40
2.0
  1
   oltre 500 mm = +/- 0.5
100
AcDbText
  0
TEXT
  5
4D1
100
AcDbEntity
  8
TABELLA
  6
CONTINUOUS
100
AcDbText
 10
7.271803
 20
42.3314
 30
0.0
 40
2.0
  1
TOLLERANZE GENERALI :
100
AcDbText
  0
LINE
  5
4D2
100
AcDbEntity
  8
TABELLA
  6
CONTINUOUS
100
AcDbLine
 10
5.782064
 20
72.137067
 30
0.0
 11
0.782064
 21
72.137067
 31
0.0
  0
TEXT
  5
4D3
100
AcDbEntity
  8
TABELLA
  6
CONTINUOUS
100
AcDbText
 10
0.769342
 20
87.459725
 30
0.0
 40
4.0
  1
C
100
AcDbText
  0
LINE
  5
4D4
100
AcDbEntity
  8
TABELLA
  6
CONTINUOUS
100
AcDbLine
 10
5.782064
 20
108.012067
 30
0.0
 11
0.782064
 21
108.012067
 31
0.0
  0
TEXT
  5
4D5
100
AcDbEntity
  8
TABELLA
  6
CONTINUOUS
100
AcDbText
 10
0.769342
 20
124.034397
 30
0.0
 40
4.0
  1
D
100
AcDbText
  0
LINE
  5
4D6
100
AcDbEntity
  8
TABELLA
  6
CONTINUOUS
100
AcDbLine
 10
65.792444
 20
45.394891
 30
0.0
 11
65.782064
 21
5.389662
 31
0.0
  0
TEXT
  5
4D7
100
AcDbEntity
  8
TABELLA
  6
CONTINUOUS
100
AcDbText
 10
68.438556
 20
7.454028
 30
0.0
 40
1.5
  1
A termine di legge la Rolleri si riserva la
 50
90.0
100
AcDbText
  0
TEXT
  5
4D8
100
AcDbEntity
  8
TABELLA
  6
CONTINUOUS
100
AcDbText
 10
49.29176
 20
0.138446
 30
0.0
 40
4.0
  1
5
100
AcDbText
  0
LINE
  5
4D9
100
AcDbEntity
  8
TABELLA
  6
CONTINUOUS
100
AcDbLine
 10
67.448064
 20
5.387067
 30
0.0
 11
67.448064
 21
0.387067
 31
0.0
  0
LINE
  5
4DA
100
AcDbEntity
  8
TABELLA
  6
CONTINUOUS
100
AcDbLine
 10
75.792442
 20
45.387067
 30
0.0
 11
75.792442
 21
5.387067
 31
0.0
  0
TEXT
  5
4DB
100
AcDbEntity
  8
TABELLA
  6
CONTINUOUS
100
AcDbText
 10
74.138556
 20
7.454028
 30
0.0
 40
1.5
  1
di riprodurlo e di comunicarlo a terzi.
 50
90.0
100
AcDbText
  0
TEXT
  5
4DC
100
AcDbEntity
  8
TABELLA
  6
CONTINUOUS
100
AcDbText
 10
71.288556
 20
7.454028
 30
0.0
 40
1.5
  1
proprietà di questo disegno, con divieto
 50
90.0
100
AcDbText
  0
TEXT
  5
4DD
100
AcDbEntity
  8
TABELLA
  6
CONTINUOUS
100
AcDbText
 10
83.416451
 20
0.554068
 30
0.0
 40
4.0
  1
4
100
AcDbText
  0
LINE
  5
4DE
100
AcDbEntity
  8
TABELLA
  6
CONTINUOUS
100
AcDbLine
 10
98.281064
 20
0.387067
 30
0.0
 11
100.781064
 21
5.387067
 31
0.0
  0
LINE
  5
4DF
100
AcDbEntity
  8
TABELLA
  6
CONTINUOUS
100
AcDbLine
 10
100.781064
 20
5.387067
 30
0.0
 11
100.781064
 21
0.387067
 31
0.0
  0
LINE
  5
4E0
100
AcDbEntity
  8
TABELLA
  6
CONTINUOUS
100
AcDbLine
 10
100.781064
 20
0.387067
 30
0.0
 11
98.281064
 21
0.387067
 31
0.0
  0
TEXT
  5
4E1
100
AcDbEntity
  8
TABELLA
  6
CONTINUOUS
100
AcDbText
 10
77.180326
 20
42.484843
 30
0.0
 40
2.0
  1
Materiale
100
AcDbText
  0
TEXT
  5
4E2
100
AcDbEntity
  8
TABELLA
  6
CONTINUOUS
100
AcDbText
 10
76.949018
 20
32.320687
 30
0.0
 40
2.0
  1
Disegnato da
100
AcDbText
  0
LINE
  5
4E3
100
AcDbEntity
  8
TABELLA
  6
CONTINUOUS
100
AcDbLine
 10
84.107383
 20
22.612261
 30
0.0
 11
81.051152
 21
14.215335
 31
0.0
1001
ACAD
1000
ASC_BOUNDS
1002
{
1070
    19
1002
}
  0
LINE
  5
4E4
100
AcDbEntity
  8
TABELLA
  6
CONTINUOUS
100
AcDbLine
 10
83.407176
 20
23.612261
 30
0.0
 11
79.986974
 21
14.215335
 31
0.0
1001
ACAD
1000
ASC_BOUNDS
1002
{
1070
    19
1002
}
  0
LINE
  5
4E5
100
AcDbEntity
  8
TABELLA
  6
CONTINUOUS
100
AcDbLine
 10
81.051152
 20
14.215335
 30
0.0
 11
82.055262
 21
11.456564
 31
0.0
1001
ACAD
1000
ASC_BOUNDS
1002
{
1070
    19
1002
}
  0
LINE
  5
4E6
100
AcDbEntity
  8
TABELLA
  6
CONTINUOUS
100
AcDbLine
 10
79.986974
 20
14.215335
 30
0.0
 11
81.355055
 21
10.456564
 31
0.0
1001
ACAD
1000
ASC_BOUNDS
1002
{
1070
    19
1002
}
  0
LINE
  5
4E7
100
AcDbEntity
  8
TABELLA
  6
CONTINUOUS
100
AcDbLine
 10
100.782064
 20
35.387067
 30
0.0
 11
100.782064
 21
25.387067
 31
0.0
  0
TEXT
  5
4E8
100
AcDbEntity
  8
TABELLA
  6
CONTINUOUS
100
AcDbText
 10
1.185497
 20
230.800736
 30
0.0
 40
4.0
  1
G
100
AcDbText
  0
LINE
  5
4E9
100
AcDbEntity
  8
TABELLA
  6
CONTINUOUS
100
AcDbLine
 10
0.782064
 20
146.387067
 30
0.0
 11
5.782064
 21
143.887067
 31
0.0
  0
LINE
  5
4EA
100
AcDbEntity
  8
TABELLA
  6
CONTINUOUS
100
AcDbLine
 10
5.782064
 20
143.887067
 30
0.0
 11
0.782064
 21
143.887067
 31
0.0
  0
LINE
  5
4EB
100
AcDbEntity
  8
TABELLA
  6
CONTINUOUS
100
AcDbLine
 10
0.782064
 20
143.887067
 30
0.0
 11
0.782064
 21
146.387067
 31
0.0
  0
TEXT
  5
4EC
100
AcDbEntity
  8
TABELLA
  6
CONTINUOUS
100
AcDbText
 10
1.601651
 20
158.319393
 30
0.0
 40
4.0
  1
E
100
AcDbText
  0
LINE
  5
4ED
100
AcDbEntity
  8
TABELLA
  6
CONTINUOUS
100
AcDbLine
 10
5.782064
 20
179.762067
 30
0.0
 11
0.782064
 21
179.762067
 31
0.0
  0
TEXT
  5
4EE
100
AcDbEntity
  8
TABELLA
  6
CONTINUOUS
100
AcDbText
 10
1.185497
 20
195.309687
 30
0.0
 40
4.0
  1
F
100
AcDbText
  0
LINE
  5
4EF
100
AcDbEntity
  8
TABELLA
  6
CONTINUOUS
100
AcDbLine
 10
5.782064
 20
215.637067
 30
0.0
 11
0.782064
 21
215.637067
 31
0.0
  0
LINE
  5
4F0
100
AcDbEntity
  8
TABELLA
  6
CONTINUOUS
100
AcDbLine
 10
5.782064
 20
251.512067
 30
0.0
 11
0.782064
 21
251.512067
 31
0.0
  0
TEXT
  5
4F1
100
AcDbEntity
  8
TABELLA
  6
CONTINUOUS
100
AcDbText
 10
1.185497
 20
268.206651
 30
0.0
 40
4.0
  1
H
100
AcDbText
  0
TEXT
  5
4F2
100
AcDbEntity
  8
TABELLA
  6
CONTINUOUS
100
AcDbText
 10
15.583224
 20
283.209827
 30
0.0
 40
4.0
  1
6
100
AcDbText
  0
LINE
  5
4F3
100
AcDbEntity
  8
TABELLA
  6
CONTINUOUS
100
AcDbLine
 10
34.115064
 20
282.387067
 30
0.0
 11
34.115064
 21
287.387067
 31
0.0
  0
TEXT
  5
4F4
100
AcDbEntity
  8
TABELLA
  6
CONTINUOUS
100
AcDbText
 10
50.12407
 20
283.250638
 30
0.0
 40
4.0
  1
5
100
AcDbText
  0
LINE
  5
4F5
100
AcDbEntity
  8
TABELLA
  6
CONTINUOUS
100
AcDbLine
 10
67.448064
 20
282.387067
 30
0.0
 11
67.448064
 21
287.387067
 31
0.0
  0
TEXT
  5
4F6
100
AcDbEntity
  8
TABELLA
  6
CONTINUOUS
100
AcDbText
 10
83.832607
 20
283.250638
 30
0.0
 40
4.0
  1
4
100
AcDbText
  0
LINE
  5
4F7
100
AcDbEntity
  8
TABELLA
  6
CONTINUOUS
100
AcDbLine
 10
100.781064
 20
282.387067
 30
0.0
 11
98.281064
 21
287.387067
 31
0.0
  0
LINE
  5
4F8
100
AcDbEntity
  8
TABELLA
  6
CONTINUOUS
100
AcDbLine
 10
100.781064
 20
282.387067
 30
0.0
 11
100.781064
 21
287.387067
 31
0.0
  0
LINE
  5
4F9
100
AcDbEntity
  8
TABELLA
  6
CONTINUOUS
100
AcDbLine
 10
100.781064
 20
287.387067
 30
0.0
 11
98.281064
 21
287.387067
 31
0.0
  0
LINE
  5
4FA
100
AcDbEntity
  8
TABELLA
  6
CONTINUOUS
100
AcDbLine
 10
200.782064
 20
141.387067
 30
0.0
 11
195.782064
 21
143.887067
 31
0.0
  0
LINE
  5
4FB
100
AcDbEntity
  8
TABELLA
  6
CONTINUOUS
100
AcDbLine
 10
200.782064
 20
143.887067
 30
0.0
 11
200.782064
 21
141.387067
 31
0.0
  0
LINE
  5
4FC
100
AcDbEntity
  8
TABELLA
  6
CONTINUOUS
100
AcDbLine
 10
191.781227
 20
165.387241
 30
0.0
 11
191.781227
 21
45.387241
 31
0.0
  0
LINE
  5
4FD
100
AcDbEntity
  8
TABELLA
  6
CONTINUOUS
100
AcDbLine
 10
195.782064
 20
5.387067
 30
0.0
 11
195.782064
 21
282.387067
 31
0.0
  0
TEXT
  5
4FE
100
AcDbEntity
  8
TABELLA
  6
CONTINUOUS
100
AcDbText
 10
147.267168
 20
42.484843
 30
0.0
 40
2.0
  1
Trattamento Termico
100
AcDbText
  0
TEXT
  5
4FF
100
AcDbEntity
  8
TABELLA
  6
CONTINUOUS
100
AcDbText
 10
161.83968
 20
32.089683
 30
0.0
 40
2.0
  1
Scala
100
AcDbText
  0
TEXT
  5
500
100
AcDbEntity
  8
TABELLA
  6
CONTINUOUS
100
AcDbText
 10
162.070991
 20
12.223377
 30
0.0
 40
2.0
  1
Data
100
AcDbText
  0
LINE
  5
501
100
AcDbEntity
  8
TABELLA
  6
CONTINUOUS
100
AcDbLine
 10
125.782064
 20
35.387067
 30
0.0
 11
195.782064
 21
35.387067
 31
0.0
  0
LINE
  5
502
100
AcDbEntity
  8
TABELLA
  6
CONTINUOUS
100
AcDbLine
 10
125.782064
 20
25.387067
 30
0.0
 11
195.782064
 21
25.387067
 31
0.0
  0
LINE
  5
503
100
AcDbEntity
  8
TABELLA
  6
CONTINUOUS
100
AcDbLine
 10
120.666552
 20
15.457427
 30
0.0
 11
195.782064
 21
15.387067
 31
0.0
  0
TEXT
  5
504
100
AcDbEntity
  8
TABELLA
  6
CONTINUOUS
100
AcDbText
 10
116.965597
 20
42.484843
 30
0.0
 40
2.0
  1
Dimensioni di prelievo
100
AcDbText
  0
TEXT
  5
505
100
AcDbEntity
  8
TABELLA
  6
CONTINUOUS
100
AcDbText
 10
126.911915
 20
32.089683
 30
0.0
 40
2.0
  1
Approvato da - data
100
AcDbText
  0
TEXT
  5
506
100
AcDbEntity
  8
TABELLA
  6
CONTINUOUS
100
AcDbText
 10
121.823101
 20
22.387534
 30
0.0
 40
2.0
  1
Particolare
100
AcDbText
  0
LINE
  5
507
100
AcDbEntity
  8
TABELLA
  6
CONTINUOUS
100
AcDbLine
 10
120.782064
 20
15.387067
 30
0.0
 11
120.782064
 21
5.387067
 31
0.0
  0
TEXT
  5
508
100
AcDbEntity
  8
TABELLA
  6
CONTINUOUS
100
AcDbText
 10
116.708833
 20
0.138446
 30
0.0
 40
4.0
  1
3
100
AcDbText
  0
LINE
  5
509
100
AcDbEntity
  8
TABELLA
  6
CONTINUOUS
100
AcDbLine
 10
116.711078
 20
19.853491
 30
0.0
 11
115.706968
 21
22.612261
 31
0.0
1001
ACAD
1000
ASC_BOUNDS
1002
{
1070
    19
1002
}
  0
LINE
  5
50A
100
AcDbEntity
  8
TABELLA
  6
CONTINUOUS
100
AcDbLine
 10
113.654847
 20
11.456564
 30
0.0
 11
116.711078
 21
19.853491
 31
0.0
1001
ACAD
1000
ASC_BOUNDS
1002
{
1070
    19
1002
}
  0
LINE
  5
50B
100
AcDbEntity
  8
TABELLA
  6
CONTINUOUS
100
AcDbLine
 10
114.355055
 20
10.456564
 30
0.0
 11
117.775256
 21
19.853491
 31
0.0
1001
ACAD
1000
ASC_BOUNDS
1002
{
1070
    19
1002
}
  0
TEXT
  5
50C
100
AcDbEntity
  8
TABELLA
  6
CONTINUOUS
100
AcDbText
 10
101.930465
 20
32.089683
 30
0.0
 40
2.0
  1
Controllato da
100
AcDbText
  0
LINE
  5
50D
100
AcDbEntity
  8
TABELLA
  6
CONTINUOUS
100
AcDbLine
 10
115.782064
 20
35.387067
 30
0.0
 11
115.782064
 21
45.387067
 31
0.0
  0
LINE
  5
50E
100
AcDbEntity
  8
TABELLA
  6
CONTINUOUS
100
AcDbLine
 10
125.782064
 20
35.387067
 30
0.0
 11
125.782064
 21
25.387067
 31
0.0
  0
TEXT
  5
50F
100
AcDbEntity
  8
TABELLA
  6
CONTINUOUS
100
AcDbText
 10
121.591791
 20
12.223377
 30
0.0
 40
2.0
  1
Disegno
100
AcDbText
  0
LINE
  5
510
100
AcDbEntity
  8
TABELLA
  6
CONTINUOUS
100
AcDbLine
 10
117.775256
 20
19.853491
 30
0.0
 11
116.407176
 21
23.612261
 31
0.0
1001
ACAD
1000
ASC_BOUNDS
1002
{
1070
    19
1002
}
  0
LINE
  5
511
100
AcDbEntity
  8
TABELLA
  6
CONTINUOUS
100
AcDbLine
 10
120.782064
 20
25.387067
 30
0.0
 11
120.782064
 21
15.387067
 31
0.0
  0
LINE
  5
512
100
AcDbEntity
  8
TABELLA
  6
CONTINUOUS
100
AcDbLine
 10
160.782064
 20
15.387067
 30
0.0
 11
160.782064
 21
5.387067
 31
0.0
  0
LINE
  5
513
100
AcDbEntity
  8
TABELLA
  6
CONTINUOUS
100
AcDbLine
 10
134.114064
 20
5.387067
 30
0.0
 11
134.114064
 21
0.387067
 31
0.0
  0
TEXT
  5
514
100
AcDbEntity
  8
TABELLA
  6
CONTINUOUS
100
AcDbText
 10
150.41737
 20
0.138446
 30
0.0
 40
4.0
  1
2
100
AcDbText
  0
LINE
  5
515
100
AcDbEntity
  8
TABELLA
  6
CONTINUOUS
100
AcDbLine
 10
145.782064
 20
35.387067
 30
0.0
 11
145.782064
 21
45.387067
 31
0.0
  0
LINE
  5
516
100
AcDbEntity
  8
TABELLA
  6
CONTINUOUS
100
AcDbLine
 10
160.782064
 20
35.387067
 30
0.0
 11
160.782064
 21
25.387067
 31
0.0
  0
TEXT
  5
517
100
AcDbEntity
  8
TABELLA
  6
CONTINUOUS
100
AcDbText
 10
197.026704
 20
51.259863
 30
0.0
 40
4.0
  1
B
100
AcDbText
  0
TEXT
  5
518
100
AcDbEntity
  8
TABELLA
  6
CONTINUOUS
100
AcDbText
 10
195.001816
 20
46.303578
 30
0.0
 40
2.0
  1
N° rev.
 50
90.0
100
AcDbText
  0
LINE
  5
519
100
AcDbEntity
  8
TABELLA
  6
CONTINUOUS
100
AcDbLine
 10
176.747411
 20
30.474182
 30
0.0
 11
194.673913
 21
30.474182
 31
0.0
  0
LINE
  5
51A
100
AcDbEntity
  8
TABELLA
  6
CONTINUOUS
100
AcDbLine
 10
180.782064
 20
15.387067
 30
0.0
 11
180.782064
 21
5.387067
 31
0.0
  0
LINE
  5
51B
100
AcDbEntity
  8
TABELLA
  6
CONTINUOUS
100
AcDbLine
 10
167.447064
 20
5.387067
 30
0.0
 11
167.447064
 21
0.387067
 31
0.0
  0
TEXT
  5
51C
100
AcDbEntity
  8
TABELLA
  6
CONTINUOUS
100
AcDbText
 10
184.542061
 20
0.138446
 30
0.0
 40
4.0
  1
1
100
AcDbText
  0
LINE
  5
51D
100
AcDbEntity
  8
TABELLA
  6
CONTINUOUS
100
AcDbLine
 10
176.747411
 20
31.974182
 30
0.0
 11
182.656258
 21
33.016071
 31
0.0
  0
LINE
  5
51E
100
AcDbEntity
  8
TABELLA
  6
CONTINUOUS
100
AcDbLine
 10
176.747411
 20
28.974182
 30
0.0
 11
182.656258
 21
27.932293
 31
0.0
  0
LINE
  5
51F
100
AcDbEntity
  8
TABELLA
  6
CONTINUOUS
100
AcDbLine
 10
176.747411
 20
31.974182
 30
0.0
 11
176.747411
 21
28.974182
 31
0.0
  0
LINE
  5
520
100
AcDbEntity
  8
TABELLA
  6
CONTINUOUS
100
AcDbLine
 10
175.782064
 20
35.387067
 30
0.0
 11
175.782064
 21
25.387067
 31
0.0
  0
CIRCLE
  5
521
100
AcDbEntity
  8
TABELLA
  6
CONTINUOUS
100
AcDbCircle
 10
189.932065
 20
30.474182
 30
0.0
 40
1.5
  0
LINE
  5
522
100
AcDbEntity
  8
TABELLA
  6
CONTINUOUS
100
AcDbLine
 10
189.932065
 20
28.369782
 30
0.0
 11
189.932065
 21
32.578582
 31
0.0
  0
CIRCLE
  5
523
100
AcDbEntity
  8
TABELLA
  6
CONTINUOUS
100
AcDbCircle
 10
189.932065
 20
30.474182
 30
0.0
 40
2.54
  0
LINE
  5
524
100
AcDbEntity
  8
TABELLA
  6
CONTINUOUS
100
AcDbLine
 10
182.656258
 20
33.016071
 30
0.0
 11
182.656258
 21
27.932293
 31
0.0
  0
TEXT
  5
525
100
AcDbEntity
  8
TABELLA
  6
CONTINUOUS
100
AcDbText
 10
181.963625
 20
11.992375
 30
0.0
 40
2.0
  1
Formato
100
AcDbText
  0
LINE
  5
526
100
AcDbEntity
  8
TABELLA
  6
CONTINUOUS
100
AcDbLine
 10
187.827665
 20
30.474182
 30
0.0
 11
192.036465
 21
30.474182
 31
0.0
  0
LINE
  5
527
100
AcDbEntity
  8
TABELLA
  6
CONTINUOUS
100
AcDbLine
 10
195.782064
 20
5.387067
 30
0.0
 11
195.782064
 21
35.387067
 31
0.0
  0
TEXT
  5
528
100
AcDbEntity
  8
TABELLA
  6
CONTINUOUS
100
AcDbText
 10
197.026704
 20
14.685191
 30
0.0
 40
4.0
  1
A
100
AcDbText
  0
LINE
  5
529
100
AcDbEntity
  8
TABELLA
  6
CONTINUOUS
100
AcDbLine
 10
195.782064
 20
36.262067
 30
0.0
 11
200.782064
 21
36.262067
 31
0.0
  0
TEXT
  5
52A
100
AcDbEntity
  8
TABELLA
  6
CONTINUOUS
100
AcDbText
 10
195.209894
 20
130.984517
 30
0.0
 40
2.0
  1
Data
 50
90.0
100
AcDbText
  0
TEXT
  5
52B
100
AcDbEntity
  8
TABELLA
  6
CONTINUOUS
100
AcDbText
 10
195.209894
 20
56.278486
 30
0.0
 40
2.0
  1
Nota di revisione
 50
90.0
100
AcDbText
  0
LINE
  5
52C
100
AcDbEntity
  8
TABELLA
  6
CONTINUOUS
100
AcDbLine
 10
191.781227
 20
55.387241
 30
0.0
 11
195.782064
 21
55.387241
 31
0.0
  0
LINE
  5
52D
100
AcDbEntity
  8
TABELLA
  6
CONTINUOUS
100
AcDbLine
 10
191.781227
 20
130.387241
 30
0.0
 11
195.782064
 21
130.387241
 31
0.0
  0
LINE
  5
52E
100
AcDbEntity
  8
TABELLA
  6
CONTINUOUS
100
AcDbLine
 10
195.782064
 20
72.137067
 30
0.0
 11
200.782064
 21
72.137067
 31
0.0
  0
TEXT
  5
52F
100
AcDbEntity
  8
TABELLA
  6
CONTINUOUS
100
AcDbText
 10
197.442859
 20
87.459725
 30
0.0
 40
4.0
  1
C
100
AcDbText
  0
LINE
  5
530
100
AcDbEntity
  8
TABELLA
  6
CONTINUOUS
100
AcDbLine
 10
195.782064
 20
108.012067
 30
0.0
 11
200.782064
 21
108.012067
 31
0.0
  0
TEXT
  5
531
100
AcDbEntity
  8
TABELLA
  6
CONTINUOUS
100
AcDbText
 10
197.442859
 20
123.618776
 30
0.0
 40
4.0
  1
D
100
AcDbText
  0
TEXT
  5
532
100
AcDbEntity
  8
TABELLA
  6
CONTINUOUS
100
AcDbText
 10
116.708835
 20
283.250638
 30
0.0
 40
4.0
  1
3
100
AcDbText
  0
LINE
  5
533
100
AcDbEntity
  8
TABELLA
  6
CONTINUOUS
100
AcDbLine
 10
134.114064
 20
282.387067
 30
0.0
 11
134.114064
 21
287.387067
 31
0.0
  0
TEXT
  5
534
100
AcDbEntity
  8
TABELLA
  6
CONTINUOUS
100
AcDbText
 10
150.417372
 20
283.250638
 30
0.0
 40
4.0
  1
2
100
AcDbText
  0
TEXT
  5
535
100
AcDbEntity
  8
TABELLA
  6
CONTINUOUS
100
AcDbText
 10
197.026704
 20
230.800736
 30
0.0
 40
4.0
  1
G
100
AcDbText
  0
TEXT
  5
536
100
AcDbEntity
  8
TABELLA
  6
CONTINUOUS
100
AcDbText
 10
195.209894
 20
155.7956
 30
0.0
 40
2.0
  1
Control.
 50
90.0
100
AcDbText
  0
TEXT
  5
537
100
AcDbEntity
  8
TABELLA
  6
CONTINUOUS
100
AcDbText
 10
195.209894
 20
146.028502
 30
0.0
 40
2.0
  1
Firma
 50
90.0
100
AcDbText
  0
LINE
  5
538
100
AcDbEntity
  8
TABELLA
  6
CONTINUOUS
100
AcDbLine
 10
191.781227
 20
145.387241
 30
0.0
 11
195.782064
 21
145.387241
 31
0.0
  0
LINE
  5
539
100
AcDbEntity
  8
TABELLA
  6
CONTINUOUS
100
AcDbLine
 10
191.781227
 20
155.387241
 30
0.0
 11
195.782064
 21
155.387241
 31
0.0
  0
LINE
  5
53A
100
AcDbEntity
  8
TABELLA
  6
CONTINUOUS
100
AcDbLine
 10
191.781227
 20
165.387241
 30
0.0
 11
195.782064
 21
165.387241
 31
0.0
  0
LINE
  5
53B
100
AcDbEntity
  8
TABELLA
  6
CONTINUOUS
100
AcDbLine
 10
195.782064
 20
143.887067
 30
0.0
 11
200.782064
 21
146.387067
 31
0.0
  0
LINE
  5
53C
100
AcDbEntity
  8
TABELLA
  6
CONTINUOUS
100
AcDbLine
 10
195.782064
 20
143.887067
 30
0.0
 11
200.782064
 21
143.887067
 31
0.0
  0
LINE
  5
53D
100
AcDbEntity
  8
TABELLA
  6
CONTINUOUS
100
AcDbLine
 10
200.782064
 20
143.887067
 30
0.0
 11
200.782064
 21
146.387067
 31
0.0
  0
TEXT
  5
53E
100
AcDbEntity
  8
TABELLA
  6
CONTINUOUS
100
AcDbText
 10
197.442859
 20
158.319393
 30
0.0
 40
4.0
  1
E
100
AcDbText
  0
LINE
  5
53F
100
AcDbEntity
  8
TABELLA
  6
CONTINUOUS
100
AcDbLine
 10
195.782064
 20
179.762067
 30
0.0
 11
200.782064
 21
179.762067
 31
0.0
  0
TEXT
  5
540
100
AcDbEntity
  8
TABELLA
  6
CONTINUOUS
100
AcDbText
 10
197.859013
 20
195.309687
 30
0.0
 40
4.0
  1
F
100
AcDbText
  0
LINE
  5
541
100
AcDbEntity
  8
TABELLA
  6
CONTINUOUS
100
AcDbLine
 10
195.782064
 20
215.637067
 30
0.0
 11
200.782064
 21
215.637067
 31
0.0
  0
LINE
  5
542
100
AcDbEntity
  8
TABELLA
  6
CONTINUOUS
100
AcDbLine
 10
167.447064
 20
282.387067
 30
0.0
 11
167.447064
 21
287.387067
 31
0.0
  0
TEXT
  5
543
100
AcDbEntity
  8
TABELLA
  6
CONTINUOUS
100
AcDbText
 10
184.958217
 20
283.250638
 30
0.0
 40
4.0
  1
1
100
AcDbText
  0
LINE
  5
544
100
AcDbEntity
  8
TABELLA
  6
CONTINUOUS
100
AcDbLine
 10
195.782064
 20
282.387067
 30
0.0
 11
195.782064
 21
278.387067
 31
0.0
  0
LINE
  5
545
100
AcDbEntity
  8
TABELLA
  6
CONTINUOUS
100
AcDbLine
 10
195.782064
 20
251.512067
 30
0.0
 11
200.782064
 21
251.512067
 31
0.0
  0
TEXT
  5
546
100
AcDbEntity
  8
TABELLA
  6
CONTINUOUS
100
AcDbText
 10
197.026704
 20
268.206651
 30
0.0
 40
4.0
  1
H
100
AcDbText
  0
ENDBLK
  5
548
100
AcDbEntity
  8
QUOTE
100
AcDbBlockEnd
  0
BLOCK
  5
660
100
AcDbEntity
  8
DISEGNO
100
AcDbBlockBegin
  2
A$C350
 70
     0
 10
0.0
 20
0.0
 30
0.0
  3
A$C350
  1

  0
LINE
  5
62C
100
AcDbEntity
  8
DISEGNO
100
AcDbLine
 10
8.0579
 20
17.260118
 30
0.0
 11
8.0579
 21
20.260118
 31
0.0
  0
LINE
  5
62D
100
AcDbEntity
  8
DISEGNO
100
AcDbLine
 10
16.0579
 20
17.260118
 30
0.0
 11
8.0579
 21
17.260118
 31
0.0
  0
LINE
  5
62E
100
AcDbEntity
  8
DISEGNO
100
AcDbLine
 10
16.0579
 20
20.260118
 30
0.0
 11
16.0579
 21
17.260118
 31
0.0
  0
LINE
  5
62F
100
AcDbEntity
  8
DISEGNO
100
AcDbLine
 10
8.0579
 20
20.260118
 30
0.0
 11
16.0579
 21
20.260118
 31
0.0
  0
LINE
  5
630
100
AcDbEntity
  8
DISEGNO
100
AcDbLine
 10
50.0579
 20
0.260118
 30
0.0
 11
50.0579
 21
24.260118
 31
0.0
  0
LINE
  5
631
100
AcDbEntity
  8
DISEGNO
100
AcDbLine
 10
0.0579
 20
0.260118
 30
0.0
 11
0.0579
 21
24.260118
 31
0.0
  0
LINE
  5
632
100
AcDbEntity
  8
DISEGNO
100
AcDbLine
 10
0.0579
 20
24.260118
 30
0.0
 11
50.0579
 21
24.260118
 31
0.0
  0
LINE
  5
633
100
AcDbEntity
  8
DISEGNO
100
AcDbLine
 10
0.0579
 20
9.260118
 30
0.0
 11
50.0579
 21
9.260118
 31
0.0
  0
LINE
  5
634
100
AcDbEntity
  8
DISEGNO
100
AcDbLine
 10
0.0579
 20
6.260118
 30
0.0
 11
50.0579
 21
6.260118
 31
0.0
  0
LINE
  5
635
100
AcDbEntity
  8
DISEGNO
100
AcDbLine
 10
0.0579
 20
0.260118
 30
0.0
 11
50.0579
 21
0.260118
 31
0.0
  0
ARC
  5
636
100
AcDbEntity
  8
DISEGNO
100
AcDbCircle
 10
100.198804
 20
122.244193
 30
0.0
 40
1.0
100
AcDbArc
 50
195.0
 51
345.0
1001
ACAD
1000
ASC_BOUNDS
1002
{
1070
    19
1005
0
1002
}
  0
LINE
  5
637
100
AcDbEntity
  8
ASSI
100
AcDbLine
 10
100.198804
 20
65.964984
 30
0.0
 11
100.198804
 21
18.126553
 31
0.0
  0
LINE
  5
638
100
AcDbEntity
  8
ASSI
100
AcDbLine
 10
100.198804
 20
11.442606
 30
0.0
 11
100.198804
 21
10.119892
 31
0.0
  0
ARC
  5
639
100
AcDbEntity
  8
DISEGNO
100
AcDbCircle
 10
105.966131
 20
136.040743
 30
0.0
 40
1.0
100
AcDbArc
 50
90.0
 51
165.0
1001
ACAD
1000
ASC_BOUNDS
1002
{
1070
    19
1005
0
1002
}
  0
ARC
  5
63A
100
AcDbEntity
  8
DISEGNO
100
AcDbCircle
 10
94.431477
 20
136.040743
 30
0.0
 40
1.0
100
AcDbArc
 50
15.0
 51
90.0
1001
ACAD
1000
ASC_BOUNDS
1002
{
1070
    19
1005
0
1002
}
  0
LINE
  5
63B
100
AcDbEntity
  8
DISEGNO
100
AcDbLine
 10
111.698804
 20
82.040743
 30
0.0
 11
112.698804
 21
81.040743
 31
0.0
1001
ACAD
1000
ASC_BOUNDS
1002
{
1070
    19
1002
}
  0
LINE
  5
63C
100
AcDbEntity
  8
DISEGNO
100
AcDbLine
 10
87.698804
 20
81.040743
 30
0.0
 11
88.698804
 21
82.040743
 31
0.0
  0
LINE
  5
63D
100
AcDbEntity
  8
ASSI
100
AcDbLine
 10
100.198804
 20
152.302677
 30
0.0
 11
100.198804
 21
149.197785
 31
0.0
  0
LINE
  5
63E
100
AcDbEntity
  8
DISEGNO
100
AcDbLine
 10
105.966131
 20
137.040743
 30
0.0
 11
109.198804
 21
137.040743
 31
0.0
1001
ACAD
1000
ASC_BOUNDS
1002
{
1070
    19
1005
0
1002
}
  0
LINE
  5
63F
100
AcDbEntity
  8
DISEGNO
100
AcDbLine
 10
95.397403
 20
136.299563
 30
0.0
 11
99.232878
 21
121.985374
 31
0.0
1001
ACAD
1000
ASC_BOUNDS
1002
{
1070
    19
1005
0
1002
}
  0
LINE
  5
640
100
AcDbEntity
  8
DISEGNO
100
AcDbLine
 10
105.000205
 20
136.299563
 30
0.0
 11
101.16473
 21
121.985374
 31
0.0
1001
ACAD
1000
ASC_BOUNDS
1002
{
1070
    19
1005
0
1002
}
  0
LINE
  5
641
100
AcDbEntity
  8
DISEGNO
100
AcDbLine
 10
91.198804
 20
137.040743
 30
0.0
 11
94.431477
 21
137.040743
 31
0.0
1001
ACAD
1000
ASC_BOUNDS
1002
{
1070
    19
1005
0
1002
}
  0
LINE
  5
642
100
AcDbEntity
  8
DISEGNO
100
AcDbLine
 10
90.198804
 20
82.040743
 30
0.0
 11
88.698804
 21
82.040743
 31
0.0
  0
LINE
  5
643
100
AcDbEntity
  8
DISEGNO
100
AcDbLine
 10
87.698804
 20
81.040743
 30
0.0
 11
87.698804
 21
76.540743
 31
0.0
1001
ACAD
1000
ASC_BOUNDS
1002
{
1070
    19
1002
}
  0
LINE
  5
644
100
AcDbEntity
  8
DISEGNO
100
AcDbLine
 10
110.198804
 20
82.040743
 30
0.0
 11
110.198804
 21
136.040743
 31
0.0
1001
ACAD
1000
ASC_BOUNDS
1002
{
1070
    19
1005
0
1002
}
  0
LINE
  5
645
100
AcDbEntity
  8
DISEGNO
100
AcDbLine
 10
111.698804
 20
82.040743
 30
0.0
 11
110.198804
 21
82.040743
 31
0.0
  0
LINE
  5
646
100
AcDbEntity
  8
DISEGNO
100
AcDbLine
 10
109.198804
 20
137.040743
 30
0.0
 11
110.198804
 21
136.040743
 31
0.0
1001
ACAD
1000
ASC_BOUNDS
1002
{
1070
    19
1005
0
1002
}
  0
LINE
  5
647
100
AcDbEntity
  8
DISEGNO
100
AcDbLine
 10
90.198804
 20
136.040743
 30
0.0
 11
91.198804
 21
137.040743
 31
0.0
1001
ACAD
1000
ASC_BOUNDS
1002
{
1070
    19
1005
0
1002
}
  0
LINE
  5
648
100
AcDbEntity
  8
DISEGNO
100
AcDbLine
 10
87.698804
 20
68.040743
 30
0.0
 11
88.698804
 21
67.040743
 31
0.0
  0
LINE
  5
649
100
AcDbEntity
  8
DISEGNO
100
AcDbLine
 10
111.698804
 20
67.040743
 30
0.0
 11
112.698804
 21
68.040743
 31
0.0
  0
LINE
  5
64A
100
AcDbEntity
  8
DISEGNO
100
AcDbLine
 10
105.698804
 20
47.040743
 30
0.0
 11
106.698804
 21
48.040743
 31
0.0
  0
LINE
  5
64B
100
AcDbEntity
  8
DISEGNO
100
AcDbLine
 10
93.698804
 20
48.040743
 30
0.0
 11
94.698804
 21
47.040743
 31
0.0
  0
LINE
  5
64C
100
AcDbEntity
  8
ASSI
100
AcDbLine
 10
75.396992
 20
75.040743
 30
0.0
 11
74.902374
 21
75.040743
 31
0.0
  0
LINE
  5
64D
100
AcDbEntity
  8
DISEGNO
100
AcDbLine
 10
87.698804
 20
73.540743
 30
0.0
 11
87.698804
 21
68.040743
 31
0.0
  0
LINE
  5
64E
100
AcDbEntity
  8
DISEGNO
100
AcDbLine
 10
87.698804
 20
73.540743
 30
0.0
 11
89.198804
 21
75.040743
 31
0.0
  0
LINE
  5
64F
100
AcDbEntity
  8
DISEGNO
100
AcDbLine
 10
87.698804
 20
76.540743
 30
0.0
 11
89.198804
 21
75.040743
 31
0.0
  0
LINE
  5
650
100
AcDbEntity
  8
ASSI
100
AcDbLine
 10
94.698804
 20
75.040743
 30
0.0
 11
79.697732
 21
75.040743
 31
0.0
  0
LINE
  5
651
100
AcDbEntity
  8
DISEGNO
100
AcDbLine
 10
105.638144
 20
66.68719
 30
0.0
 11
107.052358
 21
68.101404
 31
0.0
  0
LINE
  5
652
100
AcDbEntity
  8
DISEGNO
100
AcDbLine
 10
108.113018
 20
67.040743
 30
0.0
 11
107.052358
 21
68.101404
 31
0.0
  0
LINE
  5
653
100
AcDbEntity
  8
DISEGNO
100
AcDbLine
 10
106.698804
 20
65.62653
 30
0.0
 11
105.638144
 21
66.68719
 31
0.0
  0
LINE
  5
654
100
AcDbEntity
  8
DISEGNO
100
AcDbLine
 10
94.759464
 20
66.68719
 30
0.0
 11
93.345251
 21
68.101404
 31
0.0
  0
LINE
  5
655
100
AcDbEntity
  8
DISEGNO
100
AcDbLine
 10
93.698804
 20
65.62653
 30
0.0
 11
94.759464
 21
66.68719
 31
0.0
  0
LINE
  5
656
100
AcDbEntity
  8
DISEGNO
100
AcDbLine
 10
92.284591
 20
67.040743
 30
0.0
 11
93.345251
 21
68.101404
 31
0.0
  0
LINE
  5
657
100
AcDbEntity
  8
ASSI
100
AcDbLine
 10
100.198804
 20
141.638559
 30
0.0
 11
100.198804
 21
74.55863
 31
0.0
  0
LINE
  5
658
100
AcDbEntity
  8
DISEGNO
100
AcDbLine
 10
93.698804
 20
65.62653
 30
0.0
 11
93.698804
 21
48.040743
 31
0.0
  0
LINE
  5
659
100
AcDbEntity
  8
DISEGNO
100
AcDbLine
 10
88.698804
 20
67.040743
 30
0.0
 11
92.284591
 21
67.040743
 31
0.0
  0
LINE
  5
65A
100
AcDbEntity
  8
DISEGNO
100
AcDbLine
 10
90.198804
 20
136.040743
 30
0.0
 11
90.198804
 21
82.040743
 31
0.0
1001
ACAD
1000
ASC_BOUNDS
1002
{
1070
    19
1005
0
1002
}
  0
LINE
  5
65B
100
AcDbEntity
  8
DISEGNO
100
AcDbLine
 10
112.698804
 20
68.040743
 30
0.0
 11
112.698804
 21
81.040743
 31
0.0
1001
ACAD
1000
ASC_BOUNDS
1002
{
1070
    19
1002
}
  0
LINE
  5
65C
100
AcDbEntity
  8
DISEGNO
100
AcDbLine
 10
108.113018
 20
67.040743
 30
0.0
 11
111.698804
 21
67.040743
 31
0.0
  0
LINE
  5
65D
100
AcDbEntity
  8
DISEGNO
100
AcDbLine
 10
106.698804
 20
48.040743
 30
0.0
 11
106.698804
 21
65.62653
 31
0.0
  0
LINE
  5
65E
100
AcDbEntity
  8
DISEGNO
100
AcDbLine
 10
94.698804
 20
47.040743
 30
0.0
 11
105.698804
 21
47.040743
 31
0.0
  0
LINE
  5
65F
100
AcDbEntity
  8
ASSI
100
AcDbLine
 10
100.198804
 20
165.803287
 30
0.0
 11
100.198804
 21
159.62319
 31
0.0
  0
ENDBLK
  5
661
100
AcDbEntity
  8
DISEGNO
100
AcDbBlockEnd
  0
BLOCK
  5
1BCD
100
AcDbEntity
  8
0
100
AcDbBlockBegin
  2
*D3
 70
    65
 10
0.0
 20
0.0
 30
0.0
  3
*D3
  1

  0
LINE
  5
1BCE
100
AcDbEntity
  8
0
  6
BYBLOCK
 62
     0
100
AcDbLine
 10
-1806.221673
 20
-1524.645768
 30
0.0
 11
-1806.221673
 21
-1541.808641
 31
0.0
  0
LINE
  5
1BCF
100
AcDbEntity
  8
0
  6
BYBLOCK
 62
     0
100
AcDbLine
 10
-1819.221673
 20
-1524.645768
 30
0.0
 11
-1819.221673
 21
-1541.808641
 31
0.0
  0
LINE
  5
1BD0
100
AcDbEntity
  8
0
  6
BYBLOCK
 62
     0
100
AcDbLine
 10
-1816.721673
 20
-1540.558641
 30
0.0
 11
-1808.721673
 21
-1540.558641
 31
0.0
  0
LINE
  5
1BD1
100
AcDbEntity
  8
0
  6
BYBLOCK
 62
     0
100
AcDbLine
 10
-1806.221673
 20
-1540.558641
 30
0.0
 11
-1769.899246
 21
-1540.558641
 31
0.0
  0
SOLID
  5
1BD2
100
AcDbEntity
  8
0
  6
BYBLOCK
 62
     0
100
AcDbTrace
 10
-1816.721673
 20
-1540.141974
 30
0.0
 11
-1816.721673
 21
-1540.975307
 31
0.0
 12
-1819.221673
 22
-1540.558641
 32
0.0
 13
-1819.221673
 23
-1540.558641
 33
0.0
  0
SOLID
  5
1BD3
100
AcDbEntity
  8
0
  6
BYBLOCK
 62
     0
100
AcDbTrace
 10
-1808.721673
 20
-1540.141974
 30
0.0
 11
-1808.721673
 21
-1540.975307
 31
0.0
 12
-1806.221673
 22
-1540.558641
 32
0.0
 13
-1806.221673
 23
-1540.558641
 33
0.0
  0
MTEXT
  5
1BD4
100
AcDbEntity
  8
0
  6
BYBLOCK
 62
     0
100
AcDbMText
 10
-1776.838246
 20
-1538.183641
 30
0.0
 40
3.5
 41
0.0
 71
     5
 72
     1
  1
\A2;13{\H2.800000;±0.01}
  0
POINT
  5
1BD5
100
AcDbEntity
  8
DEFPOINTS
  6
BYBLOCK
 62
     0
100
AcDbPoint
 10
-1806.221673
 20
-1524.020768
 30
0.0
  0
POINT
  5
1BD6
100
AcDbEntity
  8
DEFPOINTS
  6
BYBLOCK
 62
     0
100
AcDbPoint
 10
-1819.221673
 20
-1524.020768
 30
0.0
  0
POINT
  5
1BD7
100
AcDbEntity
  8
DEFPOINTS
  6
BYBLOCK
 62
     0
100
AcDbPoint
 10
-1819.221673
 20
-1540.558641
 30
0.0
  0
ENDBLK
  5
1BD8
100
AcDbEntity
  8
0
100
AcDbBlockEnd
  0
BLOCK
  5
2055
100
AcDbEntity
  8
0
100
AcDbBlockBegin
  2
*D4
 70
    65
 10
0.0
 20
0.0
 30
0.0
  3
*D4
  1

  0
LINE
  5
2056
100
AcDbEntity
  8
0
  6
BYBLOCK
 62
     0
100
AcDbLine
 10
-1788.096673
 20
-1505.020768
 30
0.0
 11
-1773.995034
 21
-1505.020768
 31
0.0
  0
LINE
  5
2057
100
AcDbEntity
  8
0
  6
BYBLOCK
 62
     0
100
AcDbLine
 10
-1806.596673
 20
-1525.020768
 30
0.0
 11
-1773.995034
 21
-1525.020768
 31
0.0
  0
LINE
  5
2058
100
AcDbEntity
  8
0
  6
BYBLOCK
 62
     0
100
AcDbLine
 10
-1775.245034
 20
-1507.520768
 30
0.0
 11
-1775.245034
 21
-1522.520768
 31
0.0
  0
SOLID
  5
2059
100
AcDbEntity
  8
0
  6
BYBLOCK
 62
     0
100
AcDbTrace
 10
-1775.6617
 20
-1507.520768
 30
0.0
 11
-1774.828367
 21
-1507.520768
 31
0.0
 12
-1775.245034
 22
-1505.020768
 32
0.0
 13
-1775.245034
 23
-1505.020768
 33
0.0
  0
SOLID
  5
205A
100
AcDbEntity
  8
0
  6
BYBLOCK
 62
     0
100
AcDbTrace
 10
-1775.6617
 20
-1522.520768
 30
0.0
 11
-1774.828367
 21
-1522.520768
 31
0.0
 12
-1775.245034
 22
-1525.020768
 32
0.0
 13
-1775.245034
 23
-1525.020768
 33
0.0
  0
MTEXT
  5
205B
100
AcDbEntity
  8
0
  6
BYBLOCK
 62
     0
100
AcDbMText
 10
-1777.620034
 20
-1515.020768
 30
0.0
 40
3.5
 41
0.0
 71
     5
 72
     1
  1
\A1;20
 11
0.0
 21
1.0
 31
0.0
  0
POINT
  5
205C
100
AcDbEntity
  8
DEFPOINTS
  6
BYBLOCK
 62
     0
100
AcDbPoint
 10
-1788.721673
 20
-1505.020768
 30
0.0
  0
POINT
  5
205D
100
AcDbEntity
  8
DEFPOINTS
  6
BYBLOCK
 62
     0
100
AcDbPoint
 10
-1807.221673
 20
-1525.020768
 30
0.0
  0
POINT
  5
205E
100
AcDbEntity
  8
DEFPOINTS
  6
BYBLOCK
 62
     0
100
AcDbPoint
 10
-1775.245034
 20
-1525.020768
 30
0.0
  0
ENDBLK
  5
205F
100
AcDbEntity
  8
0
100
AcDbBlockEnd
  0
BLOCK
  5
724
100
AcDbEntity
  8
0
100
AcDbBlockBegin
  2
*D5
 70
    65
 10
0.0
 20
0.0
 30
0.0
  3
*D5
  1

  0
LINE
  5
725
100
AcDbEntity
  8
0
  6
BYBLOCK
 62
     0
100
AcDbLine
 10
-1820.193945
 20
-1505.462709
 30
0.0
 11
-1819.425308
 21
-1506.231347
 31
0.0
  0
LINE
  5
726
100
AcDbEntity
  8
0
  6
BYBLOCK
 62
     0
100
AcDbLine
 10
-1819.133285
 20
-1504.402049
 30
0.0
 11
-1818.364648
 21
-1505.170687
 31
0.0
  0
LINE
  5
727
100
AcDbEntity
  8
0
  6
BYBLOCK
 62
     0
100
AcDbLine
 10
-1822.076958
 20
-1507.11523
 30
0.0
 11
-1823.844725
 21
-1508.882997
 31
0.0
  0
LINE
  5
728
100
AcDbEntity
  8
0
  6
BYBLOCK
 62
     0
100
AcDbLine
 10
-1817.480764
 20
-1502.519036
 30
0.0
 11
-1811.449516
 21
-1496.487789
 31
0.0
  0
SOLID
  5
729
100
AcDbEntity
  8
0
  6
BYBLOCK
 62
     0
100
AcDbTrace
 10
-1822.371586
 20
-1506.820602
 30
0.0
 11
-1821.78233
 21
-1507.409858
 31
0.0
 12
-1820.309191
 22
-1505.347463
 32
0.0
 13
-1820.309191
 23
-1505.347463
 33
0.0
  0
SOLID
  5
72A
100
AcDbEntity
  8
0
  6
BYBLOCK
 62
     0
100
AcDbTrace
 10
-1817.775392
 20
-1502.224408
 30
0.0
 11
-1817.186136
 21
-1502.813664
 31
0.0
 12
-1819.248531
 22
-1504.286803
 32
0.0
 13
-1819.248531
 23
-1504.286803
 33
0.0
  0
MTEXT
  5
72B
100
AcDbEntity
  8
0
  6
BYBLOCK
 62
     0
100
AcDbMText
 10
-1815.260635
 20
-1496.94015
 30
0.0
 40
3.5
 41
0.0
 71
     5
 72
     1
  1
\A1;1.5
 11
0.707107
 21
0.707107
 31
0.0
  0
POINT
  5
72C
100
AcDbEntity
  8
DEFPOINTS
  6
BYBLOCK
 62
     0
100
AcDbPoint
 10
-1820.635887
 20
-1505.020768
 30
0.0
  0
POINT
  5
72D
100
AcDbEntity
  8
DEFPOINTS
  6
BYBLOCK
 62
     0
100
AcDbPoint
 10
-1819.575227
 20
-1503.960107
 30
0.0
  0
POINT
  5
72E
100
AcDbEntity
  8
DEFPOINTS
  6
BYBLOCK
 62
     0
100
AcDbPoint
 10
-1819.248531
 20
-1504.286803
 30
0.0
  0
ENDBLK
  5
72F
100
AcDbEntity
  8
0
100
AcDbBlockEnd
  0
BLOCK
  5
732
100
AcDbEntity
  8
0
100
AcDbBlockBegin
  2
*D6
 70
    65
 10
0.0
 20
0.0
 30
0.0
  3
*D6
  1

  0
LINE
  5
733
100
AcDbEntity
  8
0
  6
BYBLOCK
 62
     0
100
AcDbLine
 10
-1807.724275
 20
-1504.932379
 30
0.0
 11
-1809.499717
 21
-1503.156938
 31
0.0
  0
LINE
  5
734
100
AcDbEntity
  8
0
  6
BYBLOCK
 62
     0
100
AcDbLine
 10
-1806.310062
 20
-1503.518166
 30
0.0
 11
-1808.085503
 21
-1501.742724
 31
0.0
  0
LINE
  5
735
100
AcDbEntity
  8
0
  6
BYBLOCK
 62
     0
100
AcDbLine
 10
-1810.3836
 20
-1505.808588
 30
0.0
 11
-1812.151367
 21
-1507.576355
 31
0.0
  0
LINE
  5
736
100
AcDbEntity
  8
0
  6
BYBLOCK
 62
     0
100
AcDbLine
 10
-1805.433853
 20
-1500.858841
 30
0.0
 11
-1801.460625
 21
-1496.885613
 31
0.0
  0
SOLID
  5
737
100
AcDbEntity
  8
0
  6
BYBLOCK
 62
     0
100
AcDbTrace
 10
-1810.678228
 20
-1505.51396
 30
0.0
 11
-1810.088972
 21
-1506.103216
 31
0.0
 12
-1808.615833
 22
-1504.040821
 32
0.0
 13
-1808.615833
 23
-1504.040821
 33
0.0
  0
SOLID
  5
738
100
AcDbEntity
  8
0
  6
BYBLOCK
 62
     0
100
AcDbTrace
 10
-1805.728481
 20
-1500.564213
 30
0.0
 11
-1805.139225
 21
-1501.153468
 31
0.0
 12
-1807.20162
 22
-1502.626608
 32
0.0
 13
-1807.20162
 23
-1502.626608
 33
0.0
  0
MTEXT
  5
739
100
AcDbEntity
  8
0
  6
BYBLOCK
 62
     0
100
AcDbMText
 10
-1804.242977
 20
-1496.308721
 30
0.0
 40
3.5
 41
0.0
 71
     5
 72
     1
  1
\A1;2
 11
0.707107
 21
0.707107
 31
0.0
  0
POINT
  5
73A
100
AcDbEntity
  8
DEFPOINTS
  6
BYBLOCK
 62
     0
100
AcDbPoint
 10
-1807.282333
 20
-1505.374321
 30
0.0
  0
POINT
  5
73B
100
AcDbEntity
  8
DEFPOINTS
  6
BYBLOCK
 62
     0
100
AcDbPoint
 10
-1805.86812
 20
-1503.960107
 30
0.0
  0
POINT
  5
73C
100
AcDbEntity
  8
DEFPOINTS
  6
BYBLOCK
 62
     0
100
AcDbPoint
 10
-1807.20162
 20
-1502.626608
 30
0.0
  0
ENDBLK
  5
73D
100
AcDbEntity
  8
0
100
AcDbBlockEnd
  0
BLOCK
  5
7FC
100
AcDbEntity
  8
0
100
AcDbBlockBegin
  2
*D7
 70
    65
 10
0.0
 20
0.0
 30
0.0
  3
*D7
  1

  0
LINE
  5
7FD
100
AcDbEntity
  8
0
  6
BYBLOCK
 62
     0
100
AcDbLine
 10
-1862.862577
 20
-1572.426394
 30
0.0
 11
-1862.862577
 21
-1584.164194
 31
0.0
  0
LINE
  5
7FE
100
AcDbEntity
  8
0
  6
BYBLOCK
 62
     0
100
AcDbLine
 10
-1912.862577
 20
-1572.426394
 30
0.0
 11
-1912.862577
 21
-1584.164194
 31
0.0
  0
LINE
  5
7FF
100
AcDbEntity
  8
0
  6
BYBLOCK
 62
     0
100
AcDbLine
 10
-1865.362577
 20
-1582.914194
 30
0.0
 11
-1910.362577
 21
-1582.914194
 31
0.0
  0
SOLID
  5
800
100
AcDbEntity
  8
0
  6
BYBLOCK
 62
     0
100
AcDbTrace
 10
-1865.362577
 20
-1582.497527
 30
0.0
 11
-1865.362577
 21
-1583.330861
 31
0.0
 12
-1862.862577
 22
-1582.914194
 32
0.0
 13
-1862.862577
 23
-1582.914194
 33
0.0
  0
SOLID
  5
801
100
AcDbEntity
  8
0
  6
BYBLOCK
 62
     0
100
AcDbTrace
 10
-1910.362577
 20
-1582.497527
 30
0.0
 11
-1910.362577
 21
-1583.330861
 31
0.0
 12
-1912.862577
 22
-1582.914194
 32
0.0
 13
-1912.862577
 23
-1582.914194
 33
0.0
  0
MTEXT
  5
802
100
AcDbEntity
  8
0
  6
BYBLOCK
 62
     0
100
AcDbMText
 10
-1887.862577
 20
-1580.539194
 30
0.0
 40
3.5
 41
0.0
 71
     5
 72
     1
  1
\A1;{1000 +/- 0,1}
  0
POINT
  5
803
100
AcDbEntity
  8
DEFPOINTS
  6
BYBLOCK
 62
     0
100
AcDbPoint
 10
-1862.862577
 20
-1571.801394
 30
0.0
  0
POINT
  5
804
100
AcDbEntity
  8
DEFPOINTS
  6
BYBLOCK
 62
     0
100
AcDbPoint
 10
-1912.862577
 20
-1571.801394
 30
0.0
  0
POINT
  5
805
100
AcDbEntity
  8
DEFPOINTS
  6
BYBLOCK
 62
     0
100
AcDbPoint
 10
-1912.862577
 20
-1582.914194
 30
0.0
  0
ENDBLK
  5
806
100
AcDbEntity
  8
0
100
AcDbBlockEnd
  0
BLOCK
  5
830
100
AcDbEntity
  8
0
100
AcDbBlockBegin
  2
*D8
 70
    65
 10
0.0
 20
0.0
 30
0.0
  3
*D8
  1

  0
LINE
  5
831
100
AcDbEntity
  8
0
  6
BYBLOCK
 62
     0
100
AcDbLine
 10
-1862.237577
 20
-1571.801394
 30
0.0
 11
-1855.846704
 21
-1571.801394
 31
0.0
  0
ARC
  5
832
100
AcDbEntity
  8
0
  6
BYBLOCK
 62
     0
100
AcDbCircle
 10
-1862.862577
 20
-1571.801394
 30
0.0
 40
5.765874
100
AcDbArc
 50
25.041459
 51
64.958541
  0
SOLID
  5
833
100
AcDbEntity
  8
0
  6
BYBLOCK
 62
     0
100
AcDbTrace
 10
-1857.231928
 20
-1569.270519
 30
0.0
 11
-1858.045443
 21
-1569.45118
 31
0.0
 12
-1857.096704
 22
-1571.801394
 32
0.0
 13
-1857.096704
 23
-1571.801394
 33
0.0
  0
SOLID
  5
834
100
AcDbEntity
  8
0
  6
BYBLOCK
 62
     0
100
AcDbTrace
 10
-1860.512363
 20
-1566.984259
 30
0.0
 11
-1860.331703
 21
-1566.170745
 31
0.0
 12
-1862.862577
 22
-1566.03552
 32
0.0
 13
-1862.862577
 23
-1566.03552
 33
0.0
  0
MTEXT
  5
835
100
AcDbEntity
  8
0
  6
BYBLOCK
 62
     0
100
AcDbMText
 10
-1855.78581
 20
-1565.331761
 30
0.0
 40
3.5
 41
0.0
 71
     5
 72
     1
  1
\A2;90°{\H2.800000;\S-0°2'^  0°0';}
 11
0.674738
 21
-0.738058
 31
0.0
  0
POINT
  5
836
100
AcDbEntity
  8
DEFPOINTS
  6
BYBLOCK
 62
     0
100
AcDbPoint
 10
-1859.97964
 20
-1566.808001
 30
0.0
  0
POINT
  5
837
100
AcDbEntity
  8
DEFPOINTS
  6
BYBLOCK
 62
     0
100
AcDbPoint
 10
-1912.862577
 20
-1571.801394
 30
0.0
  0
POINT
  5
838
100
AcDbEntity
  8
DEFPOINTS
  6
BYBLOCK
 62
     0
100
AcDbPoint
 10
-1862.862577
 20
-1571.801394
 30
0.0
  0
POINT
  5
839
100
AcDbEntity
  8
DEFPOINTS
  6
BYBLOCK
 62
     0
100
AcDbPoint
 10
-1862.862577
 20
-1547.801394
 30
0.0
  0
POINT
  5
83A
100
AcDbEntity
  8
DEFPOINTS
  6
BYBLOCK
 62
     0
100
AcDbPoint
 10
-1862.862577
 20
-1571.801394
 30
0.0
  0
ENDBLK
  5
83B
100
AcDbEntity
  8
0
100
AcDbBlockEnd
  0
BLOCK
  5
855
100
AcDbEntity
  8
0
100
AcDbBlockBegin
  2
*D9
 70
    65
 10
0.0
 20
0.0
 30
0.0
  3
*D9
  1

  0
LINE
  5
856
100
AcDbEntity
  8
0
  6
BYBLOCK
 62
     0
100
AcDbLine
 10
-1913.487577
 20
-1571.801394
 30
0.0
 11
-1919.170275
 21
-1571.801394
 31
0.0
  0
ARC
  5
857
100
AcDbEntity
  8
0
  6
BYBLOCK
 62
     0
100
AcDbCircle
 10
-1912.862577
 20
-1571.801394
 30
0.0
 40
5.057697
100
AcDbArc
 50
118.617624
 51
151.382376
  0
SOLID
  5
858
100
AcDbEntity
  8
0
  6
BYBLOCK
 62
     0
100
AcDbTrace
 10
-1915.388
 20
-1566.957825
 30
0.0
 11
-1915.182043
 21
-1567.765307
 31
0.0
 12
-1912.862577
 22
-1566.743696
 32
0.0
 13
-1912.862577
 23
-1566.743696
 33
0.0
  0
SOLID
  5
859
100
AcDbEntity
  8
0
  6
BYBLOCK
 62
     0
100
AcDbTrace
 10
-1916.898664
 20
-1569.481928
 30
0.0
 11
-1917.706145
 21
-1569.275971
 31
0.0
 12
-1917.920275
 22
-1571.801394
 32
0.0
 13
-1917.920275
 23
-1571.801394
 33
0.0
  0
MTEXT
  5
85A
100
AcDbEntity
  8
0
  6
BYBLOCK
 62
     0
100
AcDbMText
 10
-1920.044252
 20
-1566.57824
 30
0.0
 40
3.5
 41
0.0
 71
     5
 72
     1
  1
\A2;90°{\H2.800000;\S-0°2'^  0°0';}
 11
0.58818
 21
0.80873
 31
0.0
  0
POINT
  5
85B
100
AcDbEntity
  8
DEFPOINTS
  6
BYBLOCK
 62
     0
100
AcDbPoint
 10
-1915.391426
 20
-1567.421299
 30
0.0
  0
POINT
  5
85C
100
AcDbEntity
  8
DEFPOINTS
  6
BYBLOCK
 62
     0
100
AcDbPoint
 10
-1912.862577
 20
-1571.801394
 30
0.0
  0
POINT
  5
85D
100
AcDbEntity
  8
DEFPOINTS
  6
BYBLOCK
 62
     0
100
AcDbPoint
 10
-1912.862577
 20
-1571.801394
 30
0.0
  0
POINT
  5
85E
100
AcDbEntity
  8
DEFPOINTS
  6
BYBLOCK
 62
     0
100
AcDbPoint
 10
-1912.862577
 20
-1547.801394
 30
0.0
  0
POINT
  5
85F
100
AcDbEntity
  8
DEFPOINTS
  6
BYBLOCK
 62
     0
100
AcDbPoint
 10
-1862.862577
 20
-1571.801394
 30
0.0
  0
ENDBLK
  5
860
100
AcDbEntity
  8
0
100
AcDbBlockEnd
  0
BLOCK
  5
886
100
AcDbEntity
  8
0
100
AcDbBlockBegin
  2
*D10
 70
    65
 10
0.0
 20
0.0
 30
0.0
  3
*D10
  1

  0
LINE
  5
887
100
AcDbEntity
  8
0
  6
BYBLOCK
 62
     0
100
AcDbLine
 10
-1904.862577
 20
-1551.176394
 30
0.0
 11
-1904.862577
 21
-1537.971706
 31
0.0
  0
LINE
  5
888
100
AcDbEntity
  8
0
  6
BYBLOCK
 62
     0
100
AcDbLine
 10
-1912.862577
 20
-1547.176394
 30
0.0
 11
-1912.862577
 21
-1537.971706
 31
0.0
  0
LINE
  5
889
100
AcDbEntity
  8
0
  6
BYBLOCK
 62
     0
100
AcDbLine
 10
-1902.362577
 20
-1539.221706
 30
0.0
 11
-1899.862577
 21
-1539.221706
 31
0.0
  0
LINE
  5
88A
100
AcDbEntity
  8
0
  6
BYBLOCK
 62
     0
100
AcDbLine
 10
-1915.362577
 20
-1539.221706
 30
0.0
 11
-1917.862577
 21
-1539.221706
 31
0.0
  0
SOLID
  5
88B
100
AcDbEntity
  8
0
  6
BYBLOCK
 62
     0
100
AcDbTrace
 10
-1902.362577
 20
-1538.805039
 30
0.0
 11
-1902.362577
 21
-1539.638373
 31
0.0
 12
-1904.862577
 22
-1539.221706
 32
0.0
 13
-1904.862577
 23
-1539.221706
 33
0.0
  0
SOLID
  5
88C
100
AcDbEntity
  8
0
  6
BYBLOCK
 62
     0
100
AcDbTrace
 10
-1915.362577
 20
-1538.805039
 30
0.0
 11
-1915.362577
 21
-1539.638373
 31
0.0
 12
-1912.862577
 22
-1539.221706
 32
0.0
 13
-1912.862577
 23
-1539.221706
 33
0.0
  0
MTEXT
  5
88D
100
AcDbEntity
  8
0
  6
BYBLOCK
 62
     0
100
AcDbMText
 10
-1908.862577
 20
-1536.846706
 30
0.0
 40
3.5
 41
0.0
 71
     5
 72
     1
  1
\A1;{50}
  0
POINT
  5
88E
100
AcDbEntity
  8
DEFPOINTS
  6
BYBLOCK
 62
     0
100
AcDbPoint
 10
-1904.862577
 20
-1551.801394
 30
0.0
  0
POINT
  5
88F
100
AcDbEntity
  8
DEFPOINTS
  6
BYBLOCK
 62
     0
100
AcDbPoint
 10
-1912.862577
 20
-1547.801394
 30
0.0
  0
POINT
  5
890
100
AcDbEntity
  8
DEFPOINTS
  6
BYBLOCK
 62
     0
100
AcDbPoint
 10
-1912.862577
 20
-1539.221706
 30
0.0
  0
ENDBLK
  5
891
100
AcDbEntity
  8
0
100
AcDbBlockEnd
  0
BLOCK
  5
8B8
100
AcDbEntity
  8
0
100
AcDbBlockBegin
  2
*D11
 70
    65
 10
0.0
 20
0.0
 30
0.0
  3
*D11
  1

  0
LINE
  5
8B9
100
AcDbEntity
  8
0
  6
BYBLOCK
 62
     0
100
AcDbLine
 10
-1896.237577
 20
-1551.801394
 30
0.0
 11
-1883.016989
 21
-1551.801394
 31
0.0
  0
LINE
  5
8BA
100
AcDbEntity
  8
0
  6
BYBLOCK
 62
     0
100
AcDbLine
 10
-1884.281038
 20
-1547.801394
 30
0.0
 11
-1885.516989
 21
-1547.801394
 31
0.0
  0
LINE
  5
8BB
100
AcDbEntity
  8
0
  6
BYBLOCK
 62
     0
100
AcDbLine
 10
-1884.266989
 20
-1554.301394
 30
0.0
 11
-1884.266989
 21
-1556.801394
 31
0.0
  0
LINE
  5
8BC
100
AcDbEntity
  8
0
  6
BYBLOCK
 62
     0
100
AcDbLine
 10
-1884.266989
 20
-1545.301394
 30
0.0
 11
-1884.266989
 21
-1537.310331
 31
0.0
  0
SOLID
  5
8BD
100
AcDbEntity
  8
0
  6
BYBLOCK
 62
     0
100
AcDbTrace
 10
-1884.683656
 20
-1554.301394
 30
0.0
 11
-1883.850323
 21
-1554.301394
 31
0.0
 12
-1884.266989
 22
-1551.801394
 32
0.0
 13
-1884.266989
 23
-1551.801394
 33
0.0
  0
SOLID
  5
8BE
100
AcDbEntity
  8
0
  6
BYBLOCK
 62
     0
100
AcDbTrace
 10
-1884.683656
 20
-1545.301394
 30
0.0
 11
-1883.850323
 21
-1545.301394
 31
0.0
 12
-1884.266989
 22
-1547.801394
 32
0.0
 13
-1884.266989
 23
-1547.801394
 33
0.0
  0
MTEXT
  5
8BF
100
AcDbEntity
  8
0
  6
BYBLOCK
 62
     0
100
AcDbMText
 10
-1886.641989
 20
-1540.055862
 30
0.0
 40
3.5
 41
0.0
 71
     5
 72
     1
  1
\A1;{20}
 11
0.0
 21
1.0
 31
0.0
  0
POINT
  5
8C0
100
AcDbEntity
  8
DEFPOINTS
  6
BYBLOCK
 62
     0
100
AcDbPoint
 10
-1896.862577
 20
-1551.801394
 30
0.0
  0
POINT
  5
8C1
100
AcDbEntity
  8
DEFPOINTS
  6
BYBLOCK
 62
     0
100
AcDbPoint
 10
-1883.656038
 20
-1547.801394
 30
0.0
  0
POINT
  5
8C2
100
AcDbEntity
  8
DEFPOINTS
  6
BYBLOCK
 62
     0
100
AcDbPoint
 10
-1884.266989
 20
-1547.801394
 30
0.0
  0
ENDBLK
  5
8C3
100
AcDbEntity
  8
0
100
AcDbBlockEnd
  0
BLOCK
  5
927
100
AcDbEntity
  8
0
100
AcDbBlockBegin
  2
*D12
 70
    65
 10
0.0
 20
0.0
 30
0.0
  3
*D12
  1

  0
LINE
  5
928
100
AcDbEntity
  8
0
  6
BYBLOCK
 62
     0
100
AcDbLine
 10
-1838.643103
 20
-1497.020768
 30
0.0
 11
-1847.959048
 21
-1497.020768
 31
0.0
  0
LINE
  5
929
100
AcDbEntity
  8
0
  6
BYBLOCK
 62
     0
100
AcDbLine
 10
-1824.846673
 20
-1505.020768
 30
0.0
 11
-1847.959048
 21
-1505.020768
 31
0.0
  0
LINE
  5
92A
100
AcDbEntity
  8
0
  6
BYBLOCK
 62
     0
100
AcDbLine
 10
-1846.709048
 20
-1499.520768
 30
0.0
 11
-1846.709048
 21
-1502.520768
 31
0.0
  0
SOLID
  5
92B
100
AcDbEntity
  8
0
  6
BYBLOCK
 62
     0
100
AcDbTrace
 10
-1847.125715
 20
-1499.520768
 30
0.0
 11
-1846.292381
 21
-1499.520768
 31
0.0
 12
-1846.709048
 22
-1497.020768
 32
0.0
 13
-1846.709048
 23
-1497.020768
 33
0.0
  0
SOLID
  5
92C
100
AcDbEntity
  8
0
  6
BYBLOCK
 62
     0
100
AcDbTrace
 10
-1847.125715
 20
-1502.520768
 30
0.0
 11
-1846.292381
 21
-1502.520768
 31
0.0
 12
-1846.709048
 22
-1505.020768
 32
0.0
 13
-1846.709048
 23
-1505.020768
 33
0.0
  0
MTEXT
  5
92D
100
AcDbEntity
  8
0
  6
BYBLOCK
 62
     0
100
AcDbMText
 10
-1849.084048
 20
-1501.020768
 30
0.0
 40
3.5
 41
0.0
 71
     5
 72
     1
  1
\A1;8
 11
0.0
 21
1.0
 31
0.0
  0
POINT
  5
92E
100
AcDbEntity
  8
DEFPOINTS
  6
BYBLOCK
 62
     0
100
AcDbPoint
 10
-1838.018103
 20
-1497.020768
 30
0.0
  0
POINT
  5
92F
100
AcDbEntity
  8
DEFPOINTS
  6
BYBLOCK
 62
     0
100
AcDbPoint
 10
-1824.221673
 20
-1505.020768
 30
0.0
  0
POINT
  5
930
100
AcDbEntity
  8
DEFPOINTS
  6
BYBLOCK
 62
     0
100
AcDbPoint
 10
-1846.709048
 20
-1505.020768
 30
0.0
  0
ENDBLK
  5
931
100
AcDbEntity
  8
0
100
AcDbBlockEnd
  0
BLOCK
  5
934
100
AcDbEntity
  8
0
100
AcDbBlockBegin
  2
*D13
 70
    65
 10
0.0
 20
0.0
 30
0.0
  3
*D13
  1

  0
LINE
  5
935
100
AcDbEntity
  8
0
  6
BYBLOCK
 62
     0
100
AcDbLine
 10
-1825.846673
 20
-1495.520768
 30
0.0
 11
-1834.059904
 21
-1495.520768
 31
0.0
  0
LINE
  5
936
100
AcDbEntity
  8
0
  6
BYBLOCK
 62
     0
100
AcDbLine
 10
-1825.846673
 20
-1498.520768
 30
0.0
 11
-1834.059904
 21
-1498.520768
 31
0.0
  0
LINE
  5
937
100
AcDbEntity
  8
0
  6
BYBLOCK
 62
     0
100
AcDbLine
 10
-1832.809904
 20
-1493.020768
 30
0.0
 11
-1832.809904
 21
-1490.520768
 31
0.0
  0
LINE
  5
938
100
AcDbEntity
  8
0
  6
BYBLOCK
 62
     0
100
AcDbLine
 10
-1832.809904
 20
-1501.020768
 30
0.0
 11
-1832.809904
 21
-1503.520768
 31
0.0
  0
SOLID
  5
939
100
AcDbEntity
  8
0
  6
BYBLOCK
 62
     0
100
AcDbTrace
 10
-1833.22657
 20
-1493.020768
 30
0.0
 11
-1832.393237
 21
-1493.020768
 31
0.0
 12
-1832.809904
 22
-1495.520768
 32
0.0
 13
-1832.809904
 23
-1495.520768
 33
0.0
  0
SOLID
  5
93A
100
AcDbEntity
  8
0
  6
BYBLOCK
 62
     0
100
AcDbTrace
 10
-1833.22657
 20
-1501.020768
 30
0.0
 11
-1832.393237
 21
-1501.020768
 31
0.0
 12
-1832.809904
 22
-1498.520768
 32
0.0
 13
-1832.809904
 23
-1498.520768
 33
0.0
  0
MTEXT
  5
93B
100
AcDbEntity
  8
0
  6
BYBLOCK
 62
     0
100
AcDbMText
 10
-1835.184904
 20
-1497.020768
 30
0.0
 40
3.5
 41
0.0
 71
     5
 72
     1
  1
\A1;3
 11
0.0
 21
1.0
 31
0.0
  0
POINT
  5
93C
100
AcDbEntity
  8
DEFPOINTS
  6
BYBLOCK
 62
     0
100
AcDbPoint
 10
-1825.221673
 20
-1495.520768
 30
0.0
  0
POINT
  5
93D
100
AcDbEntity
  8
DEFPOINTS
  6
BYBLOCK
 62
     0
100
AcDbPoint
 10
-1825.221673
 20
-1498.520768
 30
0.0
  0
POINT
  5
93E
100
AcDbEntity
  8
DEFPOINTS
  6
BYBLOCK
 62
     0
100
AcDbPoint
 10
-1832.809904
 20
-1498.520768
 30
0.0
  0
ENDBLK
  5
93F
100
AcDbEntity
  8
0
100
AcDbBlockEnd
  0
BLOCK
  5
942
100
AcDbEntity
  8
0
100
AcDbBlockBegin
  2
*D14
 70
    65
 10
0.0
 20
0.0
 30
0.0
  3
*D14
  1

  0
LINE
  5
943
100
AcDbEntity
  8
0
  6
BYBLOCK
 62
     0
100
AcDbLine
 10
-1825.663615
 20
-1495.078826
 30
0.0
 11
-1845.101867
 21
-1475.640574
 31
0.0
  0
LINE
  5
944
100
AcDbEntity
  8
0
  6
BYBLOCK
 62
     0
100
AcDbLine
 10
-1825.663615
 20
-1498.962709
 30
0.0
 11
-1845.101867
 21
-1518.400961
 31
0.0
  0
ARC
  5
945
100
AcDbEntity
  8
0
  6
BYBLOCK
 62
     0
100
AcDbCircle
 10
-1823.721673
 20
-1497.020768
 30
0.0
 40
28.98616
100
AcDbArc
 50
139.943183
 51
220.056817
  0
SOLID
  5
946
100
AcDbEntity
  8
0
  6
BYBLOCK
 62
     0
100
AcDbTrace
 10
-1846.214932
 20
-1478.085165
 30
0.0
 11
-1845.600813
 21
-1478.648462
 31
0.0
 12
-1844.217983
 22
-1476.524458
 32
0.0
 13
-1844.217983
 23
-1476.524458
 33
0.0
  0
SOLID
  5
947
100
AcDbEntity
  8
0
  6
BYBLOCK
 62
     0
100
AcDbTrace
 10
-1845.600813
 20
-1515.393074
 30
0.0
 11
-1846.214932
 21
-1515.95637
 31
0.0
 12
-1844.217983
 22
-1517.517078
 32
0.0
 13
-1844.217983
 23
-1517.517078
 33
0.0
  0
MTEXT
  5
948
100
AcDbEntity
  8
0
  6
BYBLOCK
 62
     0
100
AcDbMText
 10
-1855.082833
 20
-1497.020768
 30
0.0
 40
3.5
 41
0.0
 71
     5
 72
     1
  1
\A1;90°
 11
0.0
 21
1.0
 31
0.0
  0
POINT
  5
949
100
AcDbEntity
  8
DEFPOINTS
  6
BYBLOCK
 62
     0
100
AcDbPoint
 10
-1851.720153
 20
-1489.518598
 30
0.0
  0
POINT
  5
94A
100
AcDbEntity
  8
DEFPOINTS
  6
BYBLOCK
 62
     0
100
AcDbPoint
 10
-1825.221673
 20
-1495.520768
 30
0.0
  0
POINT
  5
94B
100
AcDbEntity
  8
DEFPOINTS
  6
BYBLOCK
 62
     0
100
AcDbPoint
 10
-1825.221673
 20
-1498.520768
 30
0.0
  0
POINT
  5
94C
100
AcDbEntity
  8
DEFPOINTS
  6
BYBLOCK
 62
     0
100
AcDbPoint
 10
-1823.721673
 20
-1497.020768
 30
0.0
  0
POINT
  5
94D
100
AcDbEntity
  8
DEFPOINTS
  6
BYBLOCK
 62
     0
100
AcDbPoint
 10
-1823.721673
 20
-1497.020768
 30
0.0
  0
ENDBLK
  5
94E
100
AcDbEntity
  8
0
100
AcDbBlockEnd
  0
BLOCK
  5
AE1
100
AcDbEntity
  8
0
100
AcDbBlockBegin
  2
*D15
 70
    65
 10
0.0
 20
0.0
 30
0.0
  3
*D15
  1

  0
LINE
  5
AE2
100
AcDbEntity
  8
0
  6
BYBLOCK
 62
     0
100
AcDbLine
 10
-1862.862577
 20
-1572.426394
 30
0.0
 11
-1862.862577
 21
-1584.164194
 31
0.0
  0
LINE
  5
AE3
100
AcDbEntity
  8
0
  6
BYBLOCK
 62
     0
100
AcDbLine
 10
-1912.862577
 20
-1572.426394
 30
0.0
 11
-1912.862577
 21
-1584.164194
 31
0.0
  0
LINE
  5
AE4
100
AcDbEntity
  8
0
  6
BYBLOCK
 62
     0
100
AcDbLine
 10
-1865.362577
 20
-1582.914194
 30
0.0
 11
-1910.362577
 21
-1582.914194
 31
0.0
  0
SOLID
  5
AE5
100
AcDbEntity
  8
0
  6
BYBLOCK
 62
     0
100
AcDbTrace
 10
-1865.362577
 20
-1582.497527
 30
0.0
 11
-1865.362577
 21
-1583.330861
 31
0.0
 12
-1862.862577
 22
-1582.914194
 32
0.0
 13
-1862.862577
 23
-1582.914194
 33
0.0
  0
SOLID
  5
AE6
100
AcDbEntity
  8
0
  6
BYBLOCK
 62
     0
100
AcDbTrace
 10
-1910.362577
 20
-1582.497527
 30
0.0
 11
-1910.362577
 21
-1583.330861
 31
0.0
 12
-1912.862577
 22
-1582.914194
 32
0.0
 13
-1912.862577
 23
-1582.914194
 33
0.0
  0
MTEXT
  5
AE7
100
AcDbEntity
  8
0
  6
BYBLOCK
 62
     0
100
AcDbMText
 10
-1887.862577
 20
-1580.539194
 30
0.0
 40
3.5
 41
0.0
 71
     5
 72
     1
  1
\A1;{1000 +/- 0,1}
  0
POINT
  5
AE8
100
AcDbEntity
  8
DEFPOINTS
  6
BYBLOCK
 62
     0
100
AcDbPoint
 10
-1862.862577
 20
-1571.801394
 30
0.0
  0
POINT
  5
AE9
100
AcDbEntity
  8
DEFPOINTS
  6
BYBLOCK
 62
     0
100
AcDbPoint
 10
-1912.862577
 20
-1571.801394
 30
0.0
  0
POINT
  5
AEA
100
AcDbEntity
  8
DEFPOINTS
  6
BYBLOCK
 62
     0
100
AcDbPoint
 10
-1912.862577
 20
-1582.914194
 30
0.0
  0
ENDBLK
  5
AEB
100
AcDbEntity
  8
0
100
AcDbBlockEnd
  0
BLOCK
  5
AED
100
AcDbEntity
  8
0
100
AcDbBlockBegin
  2
*D16
 70
    65
 10
0.0
 20
0.0
 30
0.0
  3
*D16
  1

  0
LINE
  5
AEE
100
AcDbEntity
  8
0
  6
BYBLOCK
 62
     0
100
AcDbLine
 10
-1862.237577
 20
-1571.801394
 30
0.0
 11
-1855.846704
 21
-1571.801394
 31
0.0
  0
ARC
  5
AEF
100
AcDbEntity
  8
0
  6
BYBLOCK
 62
     0
100
AcDbCircle
 10
-1862.862577
 20
-1571.801394
 30
0.0
 40
5.765874
100
AcDbArc
 50
25.041459
 51
64.958541
  0
SOLID
  5
AF0
100
AcDbEntity
  8
0
  6
BYBLOCK
 62
     0
100
AcDbTrace
 10
-1857.231928
 20
-1569.270519
 30
0.0
 11
-1858.045443
 21
-1569.45118
 31
0.0
 12
-1857.096704
 22
-1571.801394
 32
0.0
 13
-1857.096704
 23
-1571.801394
 33
0.0
  0
SOLID
  5
AF1
100
AcDbEntity
  8
0
  6
BYBLOCK
 62
     0
100
AcDbTrace
 10
-1860.512363
 20
-1566.984259
 30
0.0
 11
-1860.331703
 21
-1566.170745
 31
0.0
 12
-1862.862577
 22
-1566.03552
 32
0.0
 13
-1862.862577
 23
-1566.03552
 33
0.0
  0
MTEXT
  5
AF2
100
AcDbEntity
  8
0
  6
BYBLOCK
 62
     0
100
AcDbMText
 10
-1855.78581
 20
-1565.331761
 30
0.0
 40
3.5
 41
0.0
 71
     5
 72
     1
  1
\A2;90°{\H2.800000;\S-0°2'^  0°0';}
 11
0.674738
 21
-0.738058
 31
0.0
  0
POINT
  5
AF3
100
AcDbEntity
  8
DEFPOINTS
  6
BYBLOCK
 62
     0
100
AcDbPoint
 10
-1859.97964
 20
-1566.808001
 30
0.0
  0
POINT
  5
AF4
100
AcDbEntity
  8
DEFPOINTS
  6
BYBLOCK
 62
     0
100
AcDbPoint
 10
-1912.862577
 20
-1571.801394
 30
0.0
  0
POINT
  5
AF5
100
AcDbEntity
  8
DEFPOINTS
  6
BYBLOCK
 62
     0
100
AcDbPoint
 10
-1862.862577
 20
-1571.801394
 30
0.0
  0
POINT
  5
AF6
100
AcDbEntity
  8
DEFPOINTS
  6
BYBLOCK
 62
     0
100
AcDbPoint
 10
-1862.862577
 20
-1547.801394
 30
0.0
  0
POINT
  5
AF7
100
AcDbEntity
  8
DEFPOINTS
  6
BYBLOCK
 62
     0
100
AcDbPoint
 10
-1862.862577
 20
-1571.801394
 30
0.0
  0
ENDBLK
  5
AF8
100
AcDbEntity
  8
0
100
AcDbBlockEnd
  0
BLOCK
  5
AFA
100
AcDbEntity
  8
0
100
AcDbBlockBegin
  2
*D17
 70
    65
 10
0.0
 20
0.0
 30
0.0
  3
*D17
  1

  0
LINE
  5
AFB
100
AcDbEntity
  8
0
  6
BYBLOCK
 62
     0
100
AcDbLine
 10
-1913.487577
 20
-1571.801394
 30
0.0
 11
-1919.170275
 21
-1571.801394
 31
0.0
  0
ARC
  5
AFC
100
AcDbEntity
  8
0
  6
BYBLOCK
 62
     0
100
AcDbCircle
 10
-1912.862577
 20
-1571.801394
 30
0.0
 40
5.057697
100
AcDbArc
 50
118.617624
 51
151.382376
  0
SOLID
  5
AFD
100
AcDbEntity
  8
0
  6
BYBLOCK
 62
     0
100
AcDbTrace
 10
-1915.388
 20
-1566.957825
 30
0.0
 11
-1915.182043
 21
-1567.765307
 31
0.0
 12
-1912.862577
 22
-1566.743696
 32
0.0
 13
-1912.862577
 23
-1566.743696
 33
0.0
  0
SOLID
  5
AFE
100
AcDbEntity
  8
0
  6
BYBLOCK
 62
     0
100
AcDbTrace
 10
-1916.898664
 20
-1569.481928
 30
0.0
 11
-1917.706145
 21
-1569.275971
 31
0.0
 12
-1917.920275
 22
-1571.801394
 32
0.0
 13
-1917.920275
 23
-1571.801394
 33
0.0
  0
MTEXT
  5
AFF
100
AcDbEntity
  8
0
  6
BYBLOCK
 62
     0
100
AcDbMText
 10
-1920.044252
 20
-1566.57824
 30
0.0
 40
3.5
 41
0.0
 71
     5
 72
     1
  1
\A2;90°{\H2.800000;\S-0°2'^  0°0';}
 11
0.58818
 21
0.80873
 31
0.0
  0
POINT
  5
B00
100
AcDbEntity
  8
DEFPOINTS
  6
BYBLOCK
 62
     0
100
AcDbPoint
 10
-1915.391426
 20
-1567.421299
 30
0.0
  0
POINT
  5
B01
100
AcDbEntity
  8
DEFPOINTS
  6
BYBLOCK
 62
     0
100
AcDbPoint
 10
-1912.862577
 20
-1571.801394
 30
0.0
  0
POINT
  5
B02
100
AcDbEntity
  8
DEFPOINTS
  6
BYBLOCK
 62
     0
100
AcDbPoint
 10
-1912.862577
 20
-1571.801394
 30
0.0
  0
POINT
  5
B03
100
AcDbEntity
  8
DEFPOINTS
  6
BYBLOCK
 62
     0
100
AcDbPoint
 10
-1912.862577
 20
-1547.801394
 30
0.0
  0
POINT
  5
B04
100
AcDbEntity
  8
DEFPOINTS
  6
BYBLOCK
 62
     0
100
AcDbPoint
 10
-1862.862577
 20
-1571.801394
 30
0.0
  0
ENDBLK
  5
B05
100
AcDbEntity
  8
0
100
AcDbBlockEnd
  0
BLOCK
  5
21DF
100
AcDbEntity
  8
0
100
AcDbBlockBegin
  2
*D18
 70
    65
 10
0.0
 20
0.0
 30
0.0
  3
*D18
  1

  0
LINE
  5
21E0
100
AcDbEntity
  8
0
  6
BYBLOCK
 62
     0
100
AcDbLine
 10
-1555.125628
 20
-1505.320768
 30
0.0
 11
-1526.173868
 21
-1505.320768
 31
0.0
  0
LINE
  5
21E1
100
AcDbEntity
  8
0
  6
BYBLOCK
 62
     0
100
AcDbLine
 10
-1568.625628
 20
-1525.320768
 30
0.0
 11
-1526.173868
 21
-1525.320768
 31
0.0
  0
LINE
  5
21E2
100
AcDbEntity
  8
0
  6
BYBLOCK
 62
     0
100
AcDbLine
 10
-1527.423868
 20
-1507.820768
 30
0.0
 11
-1527.423868
 21
-1522.820768
 31
0.0
  0
SOLID
  5
21E3
100
AcDbEntity
  8
0
  6
BYBLOCK
 62
     0
100
AcDbTrace
 10
-1527.840535
 20
-1507.820768
 30
0.0
 11
-1527.007202
 21
-1507.820768
 31
0.0
 12
-1527.423868
 22
-1505.320768
 32
0.0
 13
-1527.423868
 23
-1505.320768
 33
0.0
  0
SOLID
  5
21E4
100
AcDbEntity
  8
0
  6
BYBLOCK
 62
     0
100
AcDbTrace
 10
-1527.840535
 20
-1522.820768
 30
0.0
 11
-1527.007202
 21
-1522.820768
 31
0.0
 12
-1527.423868
 22
-1525.320768
 32
0.0
 13
-1527.423868
 23
-1525.320768
 33
0.0
  0
MTEXT
  5
21E5
100
AcDbEntity
  8
0
  6
BYBLOCK
 62
     0
100
AcDbMText
 10
-1529.798868
 20
-1515.320768
 30
0.0
 40
3.5
 41
0.0
 71
     5
 72
     1
  1
\A1;20
 11
0.0
 21
1.0
 31
0.0
  0
POINT
  5
21E6
100
AcDbEntity
  8
DEFPOINTS
  6
BYBLOCK
 62
     0
100
AcDbPoint
 10
-1555.750628
 20
-1505.320768
 30
0.0
  0
POINT
  5
21E7
100
AcDbEntity
  8
DEFPOINTS
  6
BYBLOCK
 62
     0
100
AcDbPoint
 10
-1569.250628
 20
-1525.320768
 30
0.0
  0
POINT
  5
21E8
100
AcDbEntity
  8
DEFPOINTS
  6
BYBLOCK
 62
     0
100
AcDbPoint
 10
-1527.423868
 20
-1525.320768
 30
0.0
  0
ENDBLK
  5
21E9
100
AcDbEntity
  8
0
100
AcDbBlockEnd
  0
BLOCK
  5
21F5
100
AcDbEntity
  8
0
100
AcDbBlockBegin
  2
*D19
 70
    65
 10
0.0
 20
0.0
 30
0.0
  3
*D19
  1

  0
LINE
  5
21F6
100
AcDbEntity
  8
0
  6
BYBLOCK
 62
     0
100
AcDbLine
 10
-1567.700628
 20
-1524.395768
 30
0.0
 11
-1567.700628
 21
-1540.584044
 31
0.0
  0
LINE
  5
21F7
100
AcDbEntity
  8
0
  6
BYBLOCK
 62
     0
100
AcDbLine
 10
-1581.200628
 20
-1524.395768
 30
0.0
 11
-1581.200628
 21
-1540.584044
 31
0.0
  0
LINE
  5
21F8
100
AcDbEntity
  8
0
  6
BYBLOCK
 62
     0
100
AcDbLine
 10
-1578.700628
 20
-1539.334044
 30
0.0
 11
-1570.200628
 21
-1539.334044
 31
0.0
  0
LINE
  5
21F9
100
AcDbEntity
  8
0
  6
BYBLOCK
 62
     0
100
AcDbLine
 10
-1567.700628
 20
-1539.334044
 30
0.0
 11
-1527.959151
 21
-1539.334044
 31
0.0
  0
SOLID
  5
21FA
100
AcDbEntity
  8
0
  6
BYBLOCK
 62
     0
100
AcDbTrace
 10
-1578.700628
 20
-1538.917377
 30
0.0
 11
-1578.700628
 21
-1539.75071
 31
0.0
 12
-1581.200628
 22
-1539.334044
 32
0.0
 13
-1581.200628
 23
-1539.334044
 33
0.0
  0
SOLID
  5
21FB
100
AcDbEntity
  8
0
  6
BYBLOCK
 62
     0
100
AcDbTrace
 10
-1570.200628
 20
-1538.917377
 30
0.0
 11
-1570.200628
 21
-1539.75071
 31
0.0
 12
-1567.700628
 22
-1539.334044
 32
0.0
 13
-1567.700628
 23
-1539.334044
 33
0.0
  0
MTEXT
  5
21FC
100
AcDbEntity
  8
0
  6
BYBLOCK
 62
     0
100
AcDbMText
 10
-1536.207151
 20
-1535.581275
 30
0.0
 40
3.5
 41
0.0
 71
     5
 72
     1
  1
\A2;13.5{\H2.800000;\S+0.1^  0;}
  0
POINT
  5
21FD
100
AcDbEntity
  8
DEFPOINTS
  6
BYBLOCK
 62
     0
100
AcDbPoint
 10
-1567.700628
 20
-1523.770768
 30
0.0
  0
POINT
  5
21FE
100
AcDbEntity
  8
DEFPOINTS
  6
BYBLOCK
 62
     0
100
AcDbPoint
 10
-1581.200628
 20
-1523.770768
 30
0.0
  0
POINT
  5
21FF
100
AcDbEntity
  8
DEFPOINTS
  6
BYBLOCK
 62
     0
100
AcDbPoint
 10
-1581.200628
 20
-1539.334044
 30
0.0
  0
ENDBLK
  5
2200
100
AcDbEntity
  8
0
100
AcDbBlockEnd
  0
BLOCK
  5
1045
100
AcDbEntity
  8
0
100
AcDbBlockBegin
  2
*D20
 70
    65
 10
0.0
 20
0.0
 30
0.0
  3
*D20
  1

  0
LINE
  5
1046
100
AcDbEntity
  8
0
  6
BYBLOCK
 62
     0
100
AcDbLine
 10
-1600.372058
 20
-1497.020768
 30
0.0
 11
-1606.057728
 21
-1497.020768
 31
0.0
  0
LINE
  5
1047
100
AcDbEntity
  8
0
  6
BYBLOCK
 62
     0
100
AcDbLine
 10
-1586.275628
 20
-1505.320768
 30
0.0
 11
-1606.057728
 21
-1505.320768
 31
0.0
  0
LINE
  5
1048
100
AcDbEntity
  8
0
  6
BYBLOCK
 62
     0
100
AcDbLine
 10
-1604.807728
 20
-1499.520768
 30
0.0
 11
-1604.807728
 21
-1502.820768
 31
0.0
  0
LINE
  5
1049
100
AcDbEntity
  8
0
  6
BYBLOCK
 62
     0
100
AcDbLine
 10
-1604.807728
 20
-1505.320768
 30
0.0
 11
-1604.807728
 21
-1539.976883
 31
0.0
  0
SOLID
  5
104A
100
AcDbEntity
  8
0
  6
BYBLOCK
 62
     0
100
AcDbTrace
 10
-1605.224395
 20
-1499.520768
 30
0.0
 11
-1604.391061
 21
-1499.520768
 31
0.0
 12
-1604.807728
 22
-1497.020768
 32
0.0
 13
-1604.807728
 23
-1497.020768
 33
0.0
  0
SOLID
  5
104B
100
AcDbEntity
  8
0
  6
BYBLOCK
 62
     0
100
AcDbTrace
 10
-1605.224395
 20
-1502.820768
 30
0.0
 11
-1604.391061
 21
-1502.820768
 31
0.0
 12
-1604.807728
 22
-1505.320768
 32
0.0
 13
-1604.807728
 23
-1505.320768
 33
0.0
  0
MTEXT
  5
104C
100
AcDbEntity
  8
0
  6
BYBLOCK
 62
     0
100
AcDbMText
 10
-1607.182728
 20
-1533.153383
 30
0.0
 40
3.5
 41
0.0
 71
     5
 72
     1
  1
\A2;8.3{\H2.800000;±0.1}
 11
0.0
 21
1.0
 31
0.0
  0
POINT
  5
104D
100
AcDbEntity
  8
DEFPOINTS
  6
BYBLOCK
 62
     0
100
AcDbPoint
 10
-1599.747058
 20
-1497.020768
 30
0.0
  0
POINT
  5
104E
100
AcDbEntity
  8
DEFPOINTS
  6
BYBLOCK
 62
     0
100
AcDbPoint
 10
-1585.650628
 20
-1505.320768
 30
0.0
  0
POINT
  5
104F
100
AcDbEntity
  8
DEFPOINTS
  6
BYBLOCK
 62
     0
100
AcDbPoint
 10
-1604.807728
 20
-1505.320768
 30
0.0
  0
ENDBLK
  5
1050
100
AcDbEntity
  8
0
100
AcDbBlockEnd
  0
BLOCK
  5
BDD
100
AcDbEntity
  8
0
100
AcDbBlockBegin
  2
*D21
 70
    65
 10
0.0
 20
0.0
 30
0.0
  3
*D21
  1

  0
LINE
  5
BDE
100
AcDbEntity
  8
0
  6
BYBLOCK
 62
     0
100
AcDbLine
 10
-1587.64257
 20
-1494.828826
 30
0.0
 11
-1607.429074
 21
-1475.042322
 31
0.0
  0
LINE
  5
BDF
100
AcDbEntity
  8
0
  6
BYBLOCK
 62
     0
100
AcDbLine
 10
-1587.64257
 20
-1499.212709
 30
0.0
 11
-1607.429074
 21
-1518.999213
 31
0.0
  0
ARC
  5
BE0
100
AcDbEntity
  8
0
  6
BYBLOCK
 62
     0
100
AcDbCircle
 10
-1585.450628
 20
-1497.020768
 30
0.0
 40
29.832216
100
AcDbArc
 50
139.802908
 51
220.197092
  0
SOLID
  5
BE1
100
AcDbEntity
  8
0
  6
BYBLOCK
 62
     0
100
AcDbTrace
 10
-1608.544048
 20
-1477.484467
 30
0.0
 11
-1607.930619
 21
-1478.048515
 31
0.0
 12
-1606.54519
 22
-1475.926205
 32
0.0
 13
-1606.54519
 23
-1475.926205
 33
0.0
  0
SOLID
  5
BE2
100
AcDbEntity
  8
0
  6
BYBLOCK
 62
     0
100
AcDbTrace
 10
-1607.930619
 20
-1515.99302
 30
0.0
 11
-1608.544048
 21
-1516.557068
 31
0.0
 12
-1606.54519
 22
-1518.11533
 32
0.0
 13
-1606.54519
 23
-1518.11533
 33
0.0
  0
MTEXT
  5
BE3
100
AcDbEntity
  8
0
  6
BYBLOCK
 62
     0
100
AcDbMText
 10
-1617.657844
 20
-1497.020768
 30
0.0
 40
3.5
 41
0.0
 71
     5
 72
     1
  1
\A1;90°
 11
0.0
 21
1.0
 31
0.0
  0
POINT
  5
BE4
100
AcDbEntity
  8
DEFPOINTS
  6
BYBLOCK
 62
     0
100
AcDbPoint
 10
-1614.266336
 20
-1489.299622
 30
0.0
  0
POINT
  5
BE5
100
AcDbEntity
  8
DEFPOINTS
  6
BYBLOCK
 62
     0
100
AcDbPoint
 10
-1587.200628
 20
-1495.270768
 30
0.0
  0
POINT
  5
BE6
100
AcDbEntity
  8
DEFPOINTS
  6
BYBLOCK
 62
     0
100
AcDbPoint
 10
-1587.200628
 20
-1498.770768
 30
0.0
  0
POINT
  5
BE7
100
AcDbEntity
  8
DEFPOINTS
  6
BYBLOCK
 62
     0
100
AcDbPoint
 10
-1585.450628
 20
-1497.020768
 30
0.0
  0
POINT
  5
BE8
100
AcDbEntity
  8
DEFPOINTS
  6
BYBLOCK
 62
     0
100
AcDbPoint
 10
-1585.450628
 20
-1497.020768
 30
0.0
  0
ENDBLK
  5
BE9
100
AcDbEntity
  8
0
100
AcDbBlockEnd
  0
BLOCK
  5
BF8
100
AcDbEntity
  8
0
100
AcDbBlockBegin
  2
*D22
 70
    65
 10
0.0
 20
0.0
 30
0.0
  3
*D22
  1

  0
LINE
  5
BF9
100
AcDbEntity
  8
0
  6
BYBLOCK
 62
     0
100
AcDbLine
 10
-1587.825628
 20
-1495.270768
 30
0.0
 11
-1600.933948
 21
-1495.270768
 31
0.0
  0
LINE
  5
BFA
100
AcDbEntity
  8
0
  6
BYBLOCK
 62
     0
100
AcDbLine
 10
-1587.825628
 20
-1498.770768
 30
0.0
 11
-1600.933948
 21
-1498.770768
 31
0.0
  0
LINE
  5
BFB
100
AcDbEntity
  8
0
  6
BYBLOCK
 62
     0
100
AcDbLine
 10
-1599.683948
 20
-1501.270768
 30
0.0
 11
-1599.683948
 21
-1503.770768
 31
0.0
  0
LINE
  5
BFC
100
AcDbEntity
  8
0
  6
BYBLOCK
 62
     0
100
AcDbLine
 10
-1599.683948
 20
-1492.770768
 30
0.0
 11
-1599.683948
 21
-1471.673381
 31
0.0
  0
SOLID
  5
BFD
100
AcDbEntity
  8
0
  6
BYBLOCK
 62
     0
100
AcDbTrace
 10
-1600.100614
 20
-1501.270768
 30
0.0
 11
-1599.267281
 21
-1501.270768
 31
0.0
 12
-1599.683948
 22
-1498.770768
 32
0.0
 13
-1599.683948
 23
-1498.770768
 33
0.0
  0
SOLID
  5
BFE
100
AcDbEntity
  8
0
  6
BYBLOCK
 62
     0
100
AcDbTrace
 10
-1600.100614
 20
-1492.770768
 30
0.0
 11
-1599.267281
 21
-1492.770768
 31
0.0
 12
-1599.683948
 22
-1495.270768
 32
0.0
 13
-1599.683948
 23
-1495.270768
 33
0.0
  0
MTEXT
  5
BFF
100
AcDbEntity
  8
0
  6
BYBLOCK
 62
     0
100
AcDbMText
 10
-1602.058948
 20
-1475.073117
 30
0.0
 40
3.5
 41
0.0
 71
     5
 72
     1
  1
\A1;3.5
 11
0.0
 21
1.0
 31
0.0
  0
POINT
  5
C00
100
AcDbEntity
  8
DEFPOINTS
  6
BYBLOCK
 62
     0
100
AcDbPoint
 10
-1587.200628
 20
-1495.270768
 30
0.0
  0
POINT
  5
C01
100
AcDbEntity
  8
DEFPOINTS
  6
BYBLOCK
 62
     0
100
AcDbPoint
 10
-1587.200628
 20
-1498.770768
 30
0.0
  0
POINT
  5
C02
100
AcDbEntity
  8
DEFPOINTS
  6
BYBLOCK
 62
     0
100
AcDbPoint
 10
-1599.683948
 20
-1498.770768
 30
0.0
  0
ENDBLK
  5
C03
100
AcDbEntity
  8
0
100
AcDbBlockEnd
  0
BLOCK
  5
C06
100
AcDbEntity
  8
0
100
AcDbBlockBegin
  2
*D23
 70
    65
 10
0.0
 20
0.0
 30
0.0
  3
*D23
  1

  0
LINE
  5
C07
100
AcDbEntity
  8
0
  6
BYBLOCK
 62
     0
100
AcDbLine
 10
-1583.106783
 20
-1504.878826
 30
0.0
 11
-1584.928911
 21
-1503.056699
 31
0.0
  0
LINE
  5
C08
100
AcDbEntity
  8
0
  6
BYBLOCK
 62
     0
100
AcDbLine
 10
-1581.746123
 20
-1503.518166
 30
0.0
 11
-1583.56825
 21
-1501.696038
 31
0.0
  0
LINE
  5
C09
100
AcDbEntity
  8
0
  6
BYBLOCK
 62
     0
100
AcDbLine
 10
-1585.812794
 20
-1505.708349
 30
0.0
 11
-1587.580561
 21
-1507.476116
 31
0.0
  0
LINE
  5
C0A
100
AcDbEntity
  8
0
  6
BYBLOCK
 62
     0
100
AcDbLine
 10
-1580.9166
 20
-1500.812155
 30
0.0
 11
-1572.850317
 21
-1492.745872
 31
0.0
  0
SOLID
  5
C0B
100
AcDbEntity
  8
0
  6
BYBLOCK
 62
     0
100
AcDbTrace
 10
-1586.107422
 20
-1505.413721
 30
0.0
 11
-1585.518166
 21
-1506.002977
 31
0.0
 12
-1584.045027
 22
-1503.940582
 32
0.0
 13
-1584.045027
 23
-1503.940582
 33
0.0
  0
SOLID
  5
C0C
100
AcDbEntity
  8
0
  6
BYBLOCK
 62
     0
100
AcDbTrace
 10
-1581.211228
 20
-1500.517527
 30
0.0
 11
-1580.621972
 21
-1501.106783
 31
0.0
 12
-1582.684367
 22
-1502.579922
 32
0.0
 13
-1582.684367
 23
-1502.579922
 33
0.0
  0
MTEXT
  5
C0D
100
AcDbEntity
  8
0
  6
BYBLOCK
 62
     0
100
AcDbMText
 10
-1577.679197
 20
-1494.215508
 30
0.0
 40
3.5
 41
0.0
 71
     5
 72
     1
  1
\A1;1.92
 11
0.707107
 21
0.707107
 31
0.0
  0
POINT
  5
C0E
100
AcDbEntity
  8
DEFPOINTS
  6
BYBLOCK
 62
     0
100
AcDbPoint
 10
-1582.664841
 20
-1505.320768
 30
0.0
  0
POINT
  5
C0F
100
AcDbEntity
  8
DEFPOINTS
  6
BYBLOCK
 62
     0
100
AcDbPoint
 10
-1581.304181
 20
-1503.960107
 30
0.0
  0
POINT
  5
C10
100
AcDbEntity
  8
DEFPOINTS
  6
BYBLOCK
 62
     0
100
AcDbPoint
 10
-1582.684367
 20
-1502.579922
 30
0.0
  0
ENDBLK
  5
C11
100
AcDbEntity
  8
0
100
AcDbBlockEnd
  0
BLOCK
  5
C14
100
AcDbEntity
  8
0
100
AcDbBlockBegin
  2
*D24
 70
    65
 10
0.0
 20
0.0
 30
0.0
  3
*D24
  1

  0
LINE
  5
C15
100
AcDbEntity
  8
0
  6
BYBLOCK
 62
     0
100
AcDbLine
 10
-1569.45323
 20
-1504.932379
 30
0.0
 11
-1572.095563
 21
-1502.290047
 31
0.0
  0
LINE
  5
C16
100
AcDbEntity
  8
0
  6
BYBLOCK
 62
     0
100
AcDbLine
 10
-1568.039016
 20
-1503.518166
 30
0.0
 11
-1570.681349
 21
-1500.875833
 31
0.0
  0
LINE
  5
C17
100
AcDbEntity
  8
0
  6
BYBLOCK
 62
     0
100
AcDbLine
 10
-1572.979446
 20
-1504.941697
 30
0.0
 11
-1574.747213
 21
-1506.709464
 31
0.0
  0
LINE
  5
C18
100
AcDbEntity
  8
0
  6
BYBLOCK
 62
     0
100
AcDbLine
 10
-1568.029699
 20
-1499.99195
 30
0.0
 11
-1564.05647
 21
-1496.018721
 31
0.0
  0
SOLID
  5
C19
100
AcDbEntity
  8
0
  6
BYBLOCK
 62
     0
100
AcDbTrace
 10
-1573.274074
 20
-1504.647069
 30
0.0
 11
-1572.684818
 21
-1505.236325
 31
0.0
 12
-1571.211679
 22
-1503.17393
 32
0.0
 13
-1571.211679
 23
-1503.17393
 33
0.0
  0
SOLID
  5
C1A
100
AcDbEntity
  8
0
  6
BYBLOCK
 62
     0
100
AcDbTrace
 10
-1568.324326
 20
-1499.697322
 30
0.0
 11
-1567.735071
 21
-1500.286577
 31
0.0
 12
-1569.797466
 22
-1501.759716
 32
0.0
 13
-1569.797466
 23
-1501.759716
 33
0.0
  0
MTEXT
  5
C1B
100
AcDbEntity
  8
0
  6
BYBLOCK
 62
     0
100
AcDbMText
 10
-1566.838823
 20
-1495.44183
 30
0.0
 40
3.5
 41
0.0
 71
     5
 72
     1
  1
\A1;2
 11
0.707107
 21
0.707107
 31
0.0
  0
POINT
  5
C1C
100
AcDbEntity
  8
DEFPOINTS
  6
BYBLOCK
 62
     0
100
AcDbPoint
 10
-1569.011288
 20
-1505.374321
 30
0.0
  0
POINT
  5
C1D
100
AcDbEntity
  8
DEFPOINTS
  6
BYBLOCK
 62
     0
100
AcDbPoint
 10
-1567.597075
 20
-1503.960107
 30
0.0
  0
POINT
  5
C1E
100
AcDbEntity
  8
DEFPOINTS
  6
BYBLOCK
 62
     0
100
AcDbPoint
 10
-1569.797466
 20
-1501.759716
 30
0.0
  0
ENDBLK
  5
C1F
100
AcDbEntity
  8
0
100
AcDbBlockEnd
  0
BLOCK
  5
11EC
100
AcDbEntity
  8
0
100
AcDbBlockBegin
  2
*D25
 70
    65
 10
0.0
 20
0.0
 30
0.0
  3
*D25
  1

  0
LINE
  5
11ED
100
AcDbEntity
  8
0
  6
BYBLOCK
 62
     0
100
AcDbLine
 10
-1564.375628
 20
-1449.520768
 30
0.0
 11
-1541.029576
 21
-1449.520768
 31
0.0
  0
LINE
  5
11EE
100
AcDbEntity
  8
0
  6
BYBLOCK
 62
     0
100
AcDbLine
 10
-1562.625628
 20
-1505.320768
 30
0.0
 11
-1541.029576
 21
-1505.320768
 31
0.0
  0
LINE
  5
11EF
100
AcDbEntity
  8
0
  6
BYBLOCK
 62
     0
100
AcDbLine
 10
-1542.279576
 20
-1452.020768
 30
0.0
 11
-1542.279576
 21
-1502.820768
 31
0.0
  0
SOLID
  5
11F0
100
AcDbEntity
  8
0
  6
BYBLOCK
 62
     0
100
AcDbTrace
 10
-1542.696242
 20
-1452.020768
 30
0.0
 11
-1541.862909
 21
-1452.020768
 31
0.0
 12
-1542.279576
 22
-1449.520768
 32
0.0
 13
-1542.279576
 23
-1449.520768
 33
0.0
  0
SOLID
  5
11F1
100
AcDbEntity
  8
0
  6
BYBLOCK
 62
     0
100
AcDbTrace
 10
-1542.696242
 20
-1502.820768
 30
0.0
 11
-1541.862909
 21
-1502.820768
 31
0.0
 12
-1542.279576
 22
-1505.320768
 32
0.0
 13
-1542.279576
 23
-1505.320768
 33
0.0
  0
MTEXT
  5
11F2
100
AcDbEntity
  8
0
  6
BYBLOCK
 62
     0
100
AcDbMText
 10
-1546.032345
 20
-1477.420768
 30
0.0
 40
3.5
 41
0.0
 71
     5
 72
     1
  1
\A2;55.8{\H2.800000;\S+0.1^  0;}
 11
0.0
 21
1.0
 31
0.0
  0
POINT
  5
11F3
100
AcDbEntity
  8
DEFPOINTS
  6
BYBLOCK
 62
     0
100
AcDbPoint
 10
-1565.000628
 20
-1449.520768
 30
0.0
  0
POINT
  5
11F4
100
AcDbEntity
  8
DEFPOINTS
  6
BYBLOCK
 62
     0
100
AcDbPoint
 10
-1563.250628
 20
-1505.320768
 30
0.0
  0
POINT
  5
11F5
100
AcDbEntity
  8
DEFPOINTS
  6
BYBLOCK
 62
     0
100
AcDbPoint
 10
-1542.279576
 20
-1505.320768
 30
0.0
  0
ENDBLK
  5
11F6
100
AcDbEntity
  8
0
100
AcDbBlockEnd
  0
BLOCK
  5
11D6
100
AcDbEntity
  8
0
100
AcDbBlockBegin
  2
*D26
 70
    65
 10
0.0
 20
0.0
 30
0.0
  3
*D26
  1

  0
LINE
  5
11D7
100
AcDbEntity
  8
0
  6
BYBLOCK
 62
     0
100
AcDbLine
 10
-1564.375628
 20
-1449.520768
 30
0.0
 11
-1528.810548
 21
-1449.520768
 31
0.0
  0
LINE
  5
11D8
100
AcDbEntity
  8
0
  6
BYBLOCK
 62
     0
100
AcDbLine
 10
-1568.625628
 20
-1525.320768
 30
0.0
 11
-1528.810548
 21
-1525.320768
 31
0.0
  0
LINE
  5
11D9
100
AcDbEntity
  8
0
  6
BYBLOCK
 62
     0
100
AcDbLine
 10
-1530.060548
 20
-1452.020768
 30
0.0
 11
-1530.060548
 21
-1522.820768
 31
0.0
  0
SOLID
  5
11DA
100
AcDbEntity
  8
0
  6
BYBLOCK
 62
     0
100
AcDbTrace
 10
-1530.477215
 20
-1452.020768
 30
0.0
 11
-1529.643881
 21
-1452.020768
 31
0.0
 12
-1530.060548
 22
-1449.520768
 32
0.0
 13
-1530.060548
 23
-1449.520768
 33
0.0
  0
SOLID
  5
11DB
100
AcDbEntity
  8
0
  6
BYBLOCK
 62
     0
100
AcDbTrace
 10
-1530.477215
 20
-1522.820768
 30
0.0
 11
-1529.643881
 21
-1522.820768
 31
0.0
 12
-1530.060548
 22
-1525.320768
 32
0.0
 13
-1530.060548
 23
-1525.320768
 33
0.0
  0
MTEXT
  5
11DC
100
AcDbEntity
  8
0
  6
BYBLOCK
 62
     0
100
AcDbMText
 10
-1533.813317
 20
-1487.420768
 30
0.0
 40
3.5
 41
0.0
 71
     5
 72
     1
  1
\A2;75.8{\H2.800000;\S+0.1^  0;}
 11
0.0
 21
1.0
 31
0.0
  0
POINT
  5
11DD
100
AcDbEntity
  8
DEFPOINTS
  6
BYBLOCK
 62
     0
100
AcDbPoint
 10
-1565.000628
 20
-1449.520768
 30
0.0
  0
POINT
  5
11DE
100
AcDbEntity
  8
DEFPOINTS
  6
BYBLOCK
 62
     0
100
AcDbPoint
 10
-1569.250628
 20
-1525.320768
 30
0.0
  0
POINT
  5
11DF
100
AcDbEntity
  8
DEFPOINTS
  6
BYBLOCK
 62
     0
100
AcDbPoint
 10
-1530.060548
 20
-1525.320768
 30
0.0
  0
ENDBLK
  5
11E0
100
AcDbEntity
  8
0
100
AcDbBlockEnd
  0
BLOCK
  5
146D
100
AcDbEntity
  8
QUOTE
100
AcDbBlockBegin
  2
A$C170
 70
     0
 10
0.0
 20
0.0
 30
0.0
  3
A$C170
  1

  0
TEXT
  5
146C
100
AcDbEntity
  8
MARCATURA
100
AcDbText
 10
-0.234398
 20
0.048995
 30
0.0
 40
3.0
  1
MAX 100 T/m
 41
1.1
  7
STYLE3
100
AcDbText
  0
ENDBLK
  5
146E
100
AcDbEntity
  8
QUOTE
100
AcDbBlockEnd
  0
BLOCK
  5
1FB4
100
AcDbEntity
  8
0
100
AcDbBlockBegin
  2
*D28
 70
    65
 10
0.0
 20
0.0
 30
0.0
  3
*D28
  1

  0
LINE
  5
1FB5
100
AcDbEntity
  8
0
  6
BYBLOCK
 62
     0
100
AcDbLine
 10
-1787.721673
 20
-1504.645768
 30
0.0
 11
-1787.721673
 21
-1559.976479
 31
0.0
  0
LINE
  5
1FB6
100
AcDbEntity
  8
0
  6
BYBLOCK
 62
     0
100
AcDbLine
 10
-1837.721673
 20
-1504.645768
 30
0.0
 11
-1837.721673
 21
-1559.976479
 31
0.0
  0
LINE
  5
1FB7
100
AcDbEntity
  8
0
  6
BYBLOCK
 62
     0
100
AcDbLine
 10
-1790.221673
 20
-1558.726479
 30
0.0
 11
-1835.221673
 21
-1558.726479
 31
0.0
  0
SOLID
  5
1FB8
100
AcDbEntity
  8
0
  6
BYBLOCK
 62
     0
100
AcDbTrace
 10
-1790.221673
 20
-1558.309812
 30
0.0
 11
-1790.221673
 21
-1559.143145
 31
0.0
 12
-1787.721673
 22
-1558.726479
 32
0.0
 13
-1787.721673
 23
-1558.726479
 33
0.0
  0
SOLID
  5
1FB9
100
AcDbEntity
  8
0
  6
BYBLOCK
 62
     0
100
AcDbTrace
 10
-1835.221673
 20
-1558.309812
 30
0.0
 11
-1835.221673
 21
-1559.143145
 31
0.0
 12
-1837.721673
 22
-1558.726479
 32
0.0
 13
-1837.721673
 23
-1558.726479
 33
0.0
  0
MTEXT
  5
1FBA
100
AcDbEntity
  8
0
  6
BYBLOCK
 62
     0
100
AcDbMText
 10
-1812.721673
 20
-1556.351479
 30
0.0
 40
3.5
 41
0.0
 71
     5
 72
     1
  1
\A2;50{\H2.800000;±0.01}
  0
POINT
  5
1FBB
100
AcDbEntity
  8
DEFPOINTS
  6
BYBLOCK
 62
     0
100
AcDbPoint
 10
-1787.721673
 20
-1504.020768
 30
0.0
  0
POINT
  5
1FBC
100
AcDbEntity
  8
DEFPOINTS
  6
BYBLOCK
 62
     0
100
AcDbPoint
 10
-1837.721673
 20
-1504.020768
 30
0.0
  0
POINT
  5
1FBD
100
AcDbEntity
  8
DEFPOINTS
  6
BYBLOCK
 62
     0
100
AcDbPoint
 10
-1837.721673
 20
-1558.726479
 30
0.0
  0
ENDBLK
  5
1FBE
100
AcDbEntity
  8
0
100
AcDbBlockEnd
  0
BLOCK
  5
21EA
100
AcDbEntity
  8
0
100
AcDbBlockBegin
  2
*D30
 70
    65
 10
0.0
 20
0.0
 30
0.0
  3
*D30
  1

  0
LINE
  5
21EB
100
AcDbEntity
  8
0
  6
BYBLOCK
 62
     0
100
AcDbLine
 10
-1549.200628
 20
-1504.395768
 30
0.0
 11
-1549.200628
 21
-1560.043673
 31
0.0
  0
LINE
  5
21EC
100
AcDbEntity
  8
0
  6
BYBLOCK
 62
     0
100
AcDbLine
 10
-1599.700628
 20
-1504.395768
 30
0.0
 11
-1599.700628
 21
-1560.043673
 31
0.0
  0
LINE
  5
21ED
100
AcDbEntity
  8
0
  6
BYBLOCK
 62
     0
100
AcDbLine
 10
-1551.700628
 20
-1558.793673
 30
0.0
 11
-1597.200628
 21
-1558.793673
 31
0.0
  0
SOLID
  5
21EE
100
AcDbEntity
  8
0
  6
BYBLOCK
 62
     0
100
AcDbTrace
 10
-1551.700628
 20
-1558.377006
 30
0.0
 11
-1551.700628
 21
-1559.21034
 31
0.0
 12
-1549.200628
 22
-1558.793673
 32
0.0
 13
-1549.200628
 23
-1558.793673
 33
0.0
  0
SOLID
  5
21EF
100
AcDbEntity
  8
0
  6
BYBLOCK
 62
     0
100
AcDbTrace
 10
-1597.200628
 20
-1558.377006
 30
0.0
 11
-1597.200628
 21
-1559.21034
 31
0.0
 12
-1599.700628
 22
-1558.793673
 32
0.0
 13
-1599.700628
 23
-1558.793673
 33
0.0
  0
MTEXT
  5
21F0
100
AcDbEntity
  8
0
  6
BYBLOCK
 62
     0
100
AcDbMText
 10
-1574.450628
 20
-1555.040904
 30
0.0
 40
3.5
 41
0.0
 71
     5
 72
     1
  1
\A2;50.5{\H2.800000;\S+0.1^  0;}
  0
POINT
  5
21F1
100
AcDbEntity
  8
DEFPOINTS
  6
BYBLOCK
 62
     0
100
AcDbPoint
 10
-1549.200628
 20
-1503.770768
 30
0.0
  0
POINT
  5
21F2
100
AcDbEntity
  8
DEFPOINTS
  6
BYBLOCK
 62
     0
100
AcDbPoint
 10
-1599.700628
 20
-1503.770768
 30
0.0
  0
POINT
  5
21F3
100
AcDbEntity
  8
DEFPOINTS
  6
BYBLOCK
 62
     0
100
AcDbPoint
 10
-1599.700628
 20
-1558.793673
 30
0.0
  0
ENDBLK
  5
21F4
100
AcDbEntity
  8
0
100
AcDbBlockEnd
  0
BLOCK
  5
200D
100
AcDbEntity
  8
0
100
AcDbBlockBegin
  2
*D34
 70
    65
 10
0.0
 20
0.0
 30
0.0
  3
*D34
  1

  0
LINE
  5
200E
100
AcDbEntity
  8
0
  6
BYBLOCK
 62
     0
100
AcDbLine
 10
-1796.721673
 20
-1449.395768
 30
0.0
 11
-1796.721673
 21
-1430.313874
 31
0.0
  0
LINE
  5
200F
100
AcDbEntity
  8
0
  6
BYBLOCK
 62
     0
100
AcDbLine
 10
-1828.721673
 20
-1449.395768
 30
0.0
 11
-1828.721673
 21
-1430.313874
 31
0.0
  0
LINE
  5
2010
100
AcDbEntity
  8
0
  6
BYBLOCK
 62
     0
100
AcDbLine
 10
-1799.221673
 20
-1431.563874
 30
0.0
 11
-1826.221673
 21
-1431.563874
 31
0.0
  0
SOLID
  5
2011
100
AcDbEntity
  8
0
  6
BYBLOCK
 62
     0
100
AcDbTrace
 10
-1799.221673
 20
-1431.147207
 30
0.0
 11
-1799.221673
 21
-1431.98054
 31
0.0
 12
-1796.721673
 22
-1431.563874
 32
0.0
 13
-1796.721673
 23
-1431.563874
 33
0.0
  0
SOLID
  5
2012
100
AcDbEntity
  8
0
  6
BYBLOCK
 62
     0
100
AcDbTrace
 10
-1826.221673
 20
-1431.147207
 30
0.0
 11
-1826.221673
 21
-1431.98054
 31
0.0
 12
-1828.721673
 22
-1431.563874
 32
0.0
 13
-1828.721673
 23
-1431.563874
 33
0.0
  0
MTEXT
  5
2013
100
AcDbEntity
  8
0
  6
BYBLOCK
 62
     0
100
AcDbMText
 10
-1812.721673
 20
-1429.188529
 30
0.0
 40
3.5
 41
0.0
 71
     5
 72
     1
  1
\A2;32{\H2.800000;±0.01}
  0
POINT
  5
2014
100
AcDbEntity
  8
DEFPOINTS
  6
BYBLOCK
 62
     0
100
AcDbPoint
 10
-1796.721673
 20
-1450.020768
 30
0.0
  0
POINT
  5
2015
100
AcDbEntity
  8
DEFPOINTS
  6
BYBLOCK
 62
     0
100
AcDbPoint
 10
-1828.721673
 20
-1450.020768
 30
0.0
  0
POINT
  5
2016
100
AcDbEntity
  8
DEFPOINTS
  6
BYBLOCK
 62
     0
100
AcDbPoint
 10
-1828.721673
 20
-1431.563874
 30
0.0
  0
ENDBLK
  5
2017
100
AcDbEntity
  8
0
100
AcDbBlockEnd
  0
BLOCK
  5
2025
100
AcDbEntity
  8
0
100
AcDbBlockBegin
  2
*D35
 70
    65
 10
0.0
 20
0.0
 30
0.0
  3
*D35
  1

  0
LINE
  5
2026
100
AcDbEntity
  8
0
  6
BYBLOCK
 62
     0
100
AcDbLine
 10
-1796.299429
 20
-1449.559969
 30
0.0
 11
-1779.327158
 21
-1431.037985
 31
0.0
  0
LINE
  5
2027
100
AcDbEntity
  8
0
  6
BYBLOCK
 62
     0
100
AcDbLine
 10
-1829.143917
 20
-1449.559969
 30
0.0
 11
-1846.116189
 21
-1431.037985
 31
0.0
  0
ARC
  5
2028
100
AcDbEntity
  8
0
  6
BYBLOCK
 62
     0
100
AcDbCircle
 10
-1812.721673
 20
-1467.481704
 30
0.0
 40
48.180135
100
AcDbArc
 50
50.473332
 51
129.526668
  0
SOLID
  5
2029
100
AcDbEntity
  8
0
  6
BYBLOCK
 62
     0
100
AcDbTrace
 10
-1781.784607
 20
-1430.004596
 30
0.0
 11
-1782.331469
 21
-1430.633394
 31
0.0
 12
-1780.171646
 22
-1431.959582
 32
0.0
 13
-1780.171646
 23
-1431.959582
 33
0.0
  0
SOLID
  5
202A
100
AcDbEntity
  8
0
  6
BYBLOCK
 62
     0
100
AcDbTrace
 10
-1843.111878
 20
-1430.633394
 30
0.0
 11
-1843.65874
 21
-1430.004597
 31
0.0
 12
-1845.271701
 22
-1431.959582
 32
0.0
 13
-1845.271701
 23
-1431.959582
 33
0.0
  0
MTEXT
  5
202B
100
AcDbEntity
  8
0
  6
BYBLOCK
 62
     0
100
AcDbMText
 10
-1812.721673
 20
-1416.926568
 30
0.0
 40
3.5
 41
0.0
 71
     5
 72
     1
  1
\A2;85°{\H2.800000;±0°5'}
  0
POINT
  5
202C
100
AcDbEntity
  8
DEFPOINTS
  6
BYBLOCK
 62
     0
100
AcDbPoint
 10
-1824.513441
 20
-1420.766828
 30
0.0
  0
POINT
  5
202D
100
AcDbEntity
  8
DEFPOINTS
  6
BYBLOCK
 62
     0
100
AcDbPoint
 10
-1828.721673
 20
-1450.020768
 30
0.0
  0
POINT
  5
202E
100
AcDbEntity
  8
DEFPOINTS
  6
BYBLOCK
 62
     0
100
AcDbPoint
 10
-1796.721673
 20
-1450.020768
 30
0.0
  0
POINT
  5
202F
100
AcDbEntity
  8
DEFPOINTS
  6
BYBLOCK
 62
     0
100
AcDbPoint
 10
-1810.509841
 20
-1465.067913
 30
0.0
  0
POINT
  5
2030
100
AcDbEntity
  8
DEFPOINTS
  6
BYBLOCK
 62
     0
100
AcDbPoint
 10
-1814.933505
 20
-1465.067913
 30
0.0
  0
ENDBLK
  5
2031
100
AcDbEntity
  8
0
100
AcDbBlockEnd
  0
BLOCK
  5
2033
100
AcDbEntity
  8
0
100
AcDbBlockBegin
  2
*D36
 70
    65
 10
0.0
 20
0.0
 30
0.0
  3
*D36
  1

  0
LINE
  5
2034
100
AcDbEntity
  8
0
  6
BYBLOCK
 62
     0
100
AcDbLine
 10
-1815.186413
 20
-1467.957956
 30
0.0
 11
-1819.008764
 21
-1475.583015
 31
0.0
  0
SOLID
  5
2035
100
AcDbEntity
  8
0
  6
BYBLOCK
 62
     0
100
AcDbTrace
 10
-1815.558899
 20
-1467.771233
 30
0.0
 11
-1814.813927
 21
-1468.144678
 31
0.0
 12
-1814.066077
 22
-1465.72304
 32
0.0
 13
-1814.066077
 23
-1465.72304
 33
0.0
  0
MTEXT
  5
2036
100
AcDbEntity
  8
0
  6
BYBLOCK
 62
     0
100
AcDbMText
 10
-1819.780927
 20
-1471.823623
 30
0.0
 40
3.5
 41
0.0
 71
     5
 72
     1
  1
\A1;R3
 11
0.448135
 21
0.893966
 31
0.0
  0
POINT
  5
2037
100
AcDbEntity
  8
DEFPOINTS
  6
BYBLOCK
 62
     0
100
AcDbPoint
 10
-1814.066077
 20
-1465.72304
 30
0.0
  0
POINT
  5
2038
100
AcDbEntity
  8
DEFPOINTS
  6
BYBLOCK
 62
     0
100
AcDbPoint
 10
-1812.721673
 20
-1463.041142
 30
0.0
  0
ENDBLK
  5
2039
100
AcDbEntity
  8
0
100
AcDbBlockEnd
  0
BLOCK
  5
2082
100
AcDbEntity
  8
0
100
AcDbBlockBegin
  2
*D37
 70
    65
 10
0.0
 20
0.0
 30
0.0
  3
*D37
  1

  0
LINE
  5
2083
100
AcDbEntity
  8
0
  6
BYBLOCK
 62
     0
100
AcDbLine
 10
-1788.096673
 20
-1450.020768
 30
0.0
 11
-1762.70843
 21
-1450.020768
 31
0.0
  0
LINE
  5
2084
100
AcDbEntity
  8
0
  6
BYBLOCK
 62
     0
100
AcDbLine
 10
-1806.596673
 20
-1525.020768
 30
0.0
 11
-1762.70843
 21
-1525.020768
 31
0.0
  0
LINE
  5
2085
100
AcDbEntity
  8
0
  6
BYBLOCK
 62
     0
100
AcDbLine
 10
-1763.95843
 20
-1452.520768
 30
0.0
 11
-1763.95843
 21
-1522.520768
 31
0.0
  0
SOLID
  5
2086
100
AcDbEntity
  8
0
  6
BYBLOCK
 62
     0
100
AcDbTrace
 10
-1764.375097
 20
-1452.520768
 30
0.0
 11
-1763.541763
 21
-1452.520768
 31
0.0
 12
-1763.95843
 22
-1450.020768
 32
0.0
 13
-1763.95843
 23
-1450.020768
 33
0.0
  0
SOLID
  5
2087
100
AcDbEntity
  8
0
  6
BYBLOCK
 62
     0
100
AcDbTrace
 10
-1764.375097
 20
-1522.520768
 30
0.0
 11
-1763.541763
 21
-1522.520768
 31
0.0
 12
-1763.95843
 22
-1525.020768
 32
0.0
 13
-1763.95843
 23
-1525.020768
 33
0.0
  0
MTEXT
  5
2088
100
AcDbEntity
  8
0
  6
BYBLOCK
 62
     0
100
AcDbMText
 10
-1766.33343
 20
-1487.520768
 30
0.0
 40
3.5
 41
0.0
 71
     5
 72
     1
  1
\A2;75{\H2.800000;±0.01}
 11
0.0
 21
1.0
 31
0.0
  0
POINT
  5
2089
100
AcDbEntity
  8
DEFPOINTS
  6
BYBLOCK
 62
     0
100
AcDbPoint
 10
-1788.721673
 20
-1450.020768
 30
0.0
  0
POINT
  5
208A
100
AcDbEntity
  8
DEFPOINTS
  6
BYBLOCK
 62
     0
100
AcDbPoint
 10
-1807.221673
 20
-1525.020768
 30
0.0
  0
POINT
  5
208B
100
AcDbEntity
  8
DEFPOINTS
  6
BYBLOCK
 62
     0
100
AcDbPoint
 10
-1763.95843
 20
-1525.020768
 30
0.0
  0
ENDBLK
  5
208C
100
AcDbEntity
  8
0
100
AcDbBlockEnd
  0
BLOCK
  5
206C
100
AcDbEntity
  8
0
100
AcDbBlockBegin
  2
*D38
 70
    65
 10
0.0
 20
0.0
 30
0.0
  3
*D38
  1

  0
LINE
  5
206D
100
AcDbEntity
  8
0
  6
BYBLOCK
 62
     0
100
AcDbLine
 10
-1788.096673
 20
-1450.020768
 30
0.0
 11
-1773.995034
 21
-1450.020768
 31
0.0
  0
LINE
  5
206E
100
AcDbEntity
  8
0
  6
BYBLOCK
 62
     0
100
AcDbLine
 10
-1788.096673
 20
-1505.020768
 30
0.0
 11
-1773.995034
 21
-1505.020768
 31
0.0
  0
LINE
  5
206F
100
AcDbEntity
  8
0
  6
BYBLOCK
 62
     0
100
AcDbLine
 10
-1775.245034
 20
-1452.520768
 30
0.0
 11
-1775.245034
 21
-1502.520768
 31
0.0
  0
SOLID
  5
2070
100
AcDbEntity
  8
0
  6
BYBLOCK
 62
     0
100
AcDbTrace
 10
-1775.6617
 20
-1452.520768
 30
0.0
 11
-1774.828367
 21
-1452.520768
 31
0.0
 12
-1775.245034
 22
-1450.020768
 32
0.0
 13
-1775.245034
 23
-1450.020768
 33
0.0
  0
SOLID
  5
2071
100
AcDbEntity
  8
0
  6
BYBLOCK
 62
     0
100
AcDbTrace
 10
-1775.6617
 20
-1502.520768
 30
0.0
 11
-1774.828367
 21
-1502.520768
 31
0.0
 12
-1775.245034
 22
-1505.020768
 32
0.0
 13
-1775.245034
 23
-1505.020768
 33
0.0
  0
MTEXT
  5
2072
100
AcDbEntity
  8
0
  6
BYBLOCK
 62
     0
100
AcDbMText
 10
-1777.620034
 20
-1477.520768
 30
0.0
 40
3.5
 41
0.0
 71
     5
 72
     1
  1
\A2;55{\H2.800000;±0.01}
 11
0.0
 21
1.0
 31
0.0
  0
POINT
  5
2073
100
AcDbEntity
  8
DEFPOINTS
  6
BYBLOCK
 62
     0
100
AcDbPoint
 10
-1788.721673
 20
-1450.020768
 30
0.0
  0
POINT
  5
2074
100
AcDbEntity
  8
DEFPOINTS
  6
BYBLOCK
 62
     0
100
AcDbPoint
 10
-1788.721673
 20
-1505.020768
 30
0.0
  0
POINT
  5
2075
100
AcDbEntity
  8
DEFPOINTS
  6
BYBLOCK
 62
     0
100
AcDbPoint
 10
-1775.245034
 20
-1505.020768
 30
0.0
  0
ENDBLK
  5
2076
100
AcDbEntity
  8
0
100
AcDbBlockEnd
  0
BLOCK
  5
20A3
100
AcDbEntity
  8
0
100
AcDbBlockBegin
  2
*D39
 70
    65
 10
0.0
 20
0.0
 30
0.0
  3
*D39
  1

  0
LINE
  5
20A4
100
AcDbEntity
  8
0
  6
BYBLOCK
 62
     0
100
AcDbLine
 10
-1830.481715
 20
-1454.020768
 30
0.0
 11
-1829.383643
 21
-1452.998889
 31
0.0
  0
LINE
  5
20A5
100
AcDbEntity
  8
0
  6
BYBLOCK
 62
     0
100
AcDbLine
 10
-1827.553522
 20
-1451.295757
 30
0.0
 11
-1813.793068
 21
-1438.490116
 31
0.0
  0
SOLID
  5
20A6
100
AcDbEntity
  8
0
  6
BYBLOCK
 62
     0
100
AcDbTrace
 10
-1829.667498
 20
-1452.693868
 30
0.0
 11
-1829.099788
 21
-1453.303909
 31
0.0
 12
-1827.553522
 22
-1451.295757
 32
0.0
 13
-1827.553522
 23
-1451.295757
 33
0.0
  0
MTEXT
  5
20A7
100
AcDbEntity
  8
0
  6
BYBLOCK
 62
     0
100
AcDbMText
 10
-1821.37621
 20
-1442.302756
 30
0.0
 40
3.5
 41
0.0
 71
     5
 72
     1
  1
\A2;R4{\H2.800000;±0.02}
 11
0.732048
 21
0.681253
 31
0.0
  0
POINT
  5
20A8
100
AcDbEntity
  8
DEFPOINTS
  6
BYBLOCK
 62
     0
100
AcDbPoint
 10
-1827.553522
 20
-1451.295757
 30
0.0
  0
POINT
  5
20A9
100
AcDbEntity
  8
DEFPOINTS
  6
BYBLOCK
 62
     0
100
AcDbPoint
 10
-1830.481715
 20
-1454.020768
 30
0.0
  0
ENDBLK
  5
20AA
100
AcDbEntity
  8
0
100
AcDbBlockEnd
  0
BLOCK
  5
20BD
100
AcDbEntity
  8
0
100
AcDbBlockBegin
  2
*D40
 70
    65
 10
0.0
 20
0.0
 30
0.0
  3
*D40
  1

  0
LINE
  5
20BE
100
AcDbEntity
  8
0
  6
BYBLOCK
 62
     0
100
AcDbLine
 10
-1794.961631
 20
-1454.020768
 30
0.0
 11
-1795.976137
 21
-1452.91588
 31
0.0
  0
LINE
  5
20BF
100
AcDbEntity
  8
0
  6
BYBLOCK
 62
     0
100
AcDbLine
 10
-1797.666981
 20
-1451.0744
 30
0.0
 11
-1810.38023
 21
-1437.228541
 31
0.0
  0
SOLID
  5
20C0
100
AcDbEntity
  8
0
  6
BYBLOCK
 62
     0
100
AcDbTrace
 10
-1795.669224
 20
-1452.634073
 30
0.0
 11
-1796.283051
 21
-1453.197687
 31
0.0
 12
-1797.666981
 22
-1451.0744
 32
0.0
 13
-1797.666981
 23
-1451.0744
 33
0.0
  0
MTEXT
  5
20C1
100
AcDbEntity
  8
0
  6
BYBLOCK
 62
     0
100
AcDbMText
 10
-1803.119622
 20
-1441.624429
 30
0.0
 40
3.5
 41
0.0
 71
     5
 72
     1
  1
\A2;R4{\H2.800000;±0.02}
 11
0.676338
 21
-0.736592
 31
0.0
  0
POINT
  5
20C2
100
AcDbEntity
  8
DEFPOINTS
  6
BYBLOCK
 62
     0
100
AcDbPoint
 10
-1797.666981
 20
-1451.0744
 30
0.0
  0
POINT
  5
20C3
100
AcDbEntity
  8
DEFPOINTS
  6
BYBLOCK
 62
     0
100
AcDbPoint
 10
-1794.961631
 20
-1454.020768
 30
0.0
  0
ENDBLK
  5
20C4
100
AcDbEntity
  8
0
100
AcDbBlockEnd
  0
BLOCK
  5
20EA
100
AcDbEntity
  8
0
100
AcDbBlockBegin
  2
*X41
 70
    65
 10
0.0
 20
0.0
 30
0.0
  3
*X41
  1

  0
LINE
  5
20EC
100
AcDbEntity
  8
0
 62
     0
100
AcDbLine
 10
-1820.265058
 20
-1459.258762
 30
0.0
 11
-1820.26065
 21
-1459.254354
 31
0.0
  0
LINE
  5
20ED
100
AcDbEntity
  8
0
 62
     0
100
AcDbLine
 10
-1820.43995
 20
-1459.164246
 30
0.0
 11
-1820.389473
 21
-1459.113769
 31
0.0
  0
LINE
  5
20EE
100
AcDbEntity
  8
0
 62
     0
100
AcDbLine
 10
-1820.60754
 20
-1459.062428
 30
0.0
 11
-1820.518295
 21
-1458.973184
 31
0.0
  0
LINE
  5
20EF
100
AcDbEntity
  8
0
 62
     0
100
AcDbLine
 10
-1820.767841
 20
-1458.953322
 30
0.0
 11
-1820.647118
 21
-1458.832599
 31
0.0
  0
LINE
  5
20F0
100
AcDbEntity
  8
0
 62
     0
100
AcDbLine
 10
-1820.920881
 20
-1458.836954
 30
0.0
 11
-1820.77594
 21
-1458.692014
 31
0.0
  0
LINE
  5
20F1
100
AcDbEntity
  8
0
 62
     0
100
AcDbLine
 10
-1821.066706
 20
-1458.713371
 30
0.0
 11
-1820.904763
 21
-1458.551428
 31
0.0
  0
LINE
  5
20F2
100
AcDbEntity
  8
0
 62
     0
100
AcDbLine
 10
-1821.205375
 20
-1458.582633
 30
0.0
 11
-1821.033585
 21
-1458.410843
 31
0.0
  0
LINE
  5
20F3
100
AcDbEntity
  8
0
 62
     0
100
AcDbLine
 10
-1821.337243
 20
-1458.445093
 30
0.0
 11
-1821.162408
 21
-1458.270258
 31
0.0
  0
LINE
  5
20F4
100
AcDbEntity
  8
0
 62
     0
100
AcDbLine
 10
-1821.463461
 20
-1458.301904
 30
0.0
 11
-1821.291231
 21
-1458.129673
 31
0.0
  0
LINE
  5
20F5
100
AcDbEntity
  8
0
 62
     0
100
AcDbLine
 10
-1821.585215
 20
-1458.15425
 30
0.0
 11
-1821.420053
 21
-1457.989088
 31
0.0
  0
LINE
  5
20F6
100
AcDbEntity
  8
0
 62
     0
100
AcDbLine
 10
-1821.703589
 20
-1458.003216
 30
0.0
 11
-1821.548876
 21
-1457.848503
 31
0.0
  0
LINE
  5
20F7
100
AcDbEntity
  8
0
 62
     0
100
AcDbLine
 10
-1821.819598
 20
-1457.849817
 30
0.0
 11
-1821.677698
 21
-1457.707918
 31
0.0
  0
LINE
  5
20F8
100
AcDbEntity
  8
0
 62
     0
100
AcDbLine
 10
-1821.934213
 20
-1457.695025
 30
0.0
 11
-1821.806521
 21
-1457.567332
 31
0.0
  0
LINE
  5
20F9
100
AcDbEntity
  8
0
 62
     0
100
AcDbLine
 10
-1822.048381
 20
-1457.539785
 30
0.0
 11
-1821.935343
 21
-1457.426747
 31
0.0
  0
LINE
  5
20FA
100
AcDbEntity
  8
0
 62
     0
100
AcDbLine
 10
-1822.163048
 20
-1457.385044
 30
0.0
 11
-1822.064166
 21
-1457.286162
 31
0.0
  0
LINE
  5
20FB
100
AcDbEntity
  8
0
 62
     0
100
AcDbLine
 10
-1822.279178
 20
-1457.231766
 30
0.0
 11
-1822.192988
 21
-1457.145577
 31
0.0
  0
LINE
  5
20FC
100
AcDbEntity
  8
0
 62
     0
100
AcDbLine
 10
-1822.397777
 20
-1457.080958
 30
0.0
 11
-1822.321811
 21
-1457.004992
 31
0.0
  0
LINE
  5
20FD
100
AcDbEntity
  8
0
 62
     0
100
AcDbLine
 10
-1822.519918
 20
-1456.933691
 30
0.0
 11
-1822.450633
 21
-1456.864407
 31
0.0
  0
LINE
  5
20FE
100
AcDbEntity
  8
0
 62
     0
100
AcDbLine
 10
-1822.64677
 20
-1456.791136
 30
0.0
 11
-1822.579456
 21
-1456.723822
 31
0.0
  0
LINE
  5
20FF
100
AcDbEntity
  8
0
 62
     0
100
AcDbLine
 10
-1822.779635
 20
-1456.654593
 30
0.0
 11
-1822.708279
 21
-1456.583236
 31
0.0
  0
LINE
  5
2100
100
AcDbEntity
  8
0
 62
     0
100
AcDbLine
 10
-1822.919998
 20
-1456.525549
 30
0.0
 11
-1822.837101
 21
-1456.442651
 31
0.0
  0
LINE
  5
2101
100
AcDbEntity
  8
0
 62
     0
100
AcDbLine
 10
-1823.069589
 20
-1456.405732
 30
0.0
 11
-1822.965924
 21
-1456.302066
 31
0.0
  0
LINE
  5
2102
100
AcDbEntity
  8
0
 62
     0
100
AcDbLine
 10
-1823.23014
 20
-1456.296875
 30
0.0
 11
-1823.094746
 21
-1456.161481
 31
0.0
  0
LINE
  5
2103
100
AcDbEntity
  8
0
 62
     0
100
AcDbLine
 10
-1823.402209
 20
-1456.199536
 30
0.0
 11
-1823.223569
 21
-1456.020896
 31
0.0
  0
LINE
  5
2104
100
AcDbEntity
  8
0
 62
     0
100
AcDbLine
 10
-1823.585945
 20
-1456.113865
 30
0.0
 11
-1823.352391
 21
-1455.880311
 31
0.0
  0
LINE
  5
2105
100
AcDbEntity
  8
0
 62
     0
100
AcDbLine
 10
-1823.781411
 20
-1456.039923
 30
0.0
 11
-1823.481214
 21
-1455.739726
 31
0.0
  0
LINE
  5
2106
100
AcDbEntity
  8
0
 62
     0
100
AcDbLine
 10
-1823.988561
 20
-1455.977666
 30
0.0
 11
-1823.610036
 21
-1455.59914
 31
0.0
  0
LINE
  5
2107
100
AcDbEntity
  8
0
 62
     0
100
AcDbLine
 10
-1824.207224
 20
-1455.92692
 30
0.0
 11
-1823.738859
 21
-1455.458555
 31
0.0
  0
LINE
  5
2108
100
AcDbEntity
  8
0
 62
     0
100
AcDbLine
 10
-1824.437076
 20
-1455.887365
 30
0.0
 11
-1823.867681
 21
-1455.31797
 31
0.0
  0
LINE
  5
2109
100
AcDbEntity
  8
0
 62
     0
100
AcDbLine
 10
-1824.677628
 20
-1455.858509
 30
0.0
 11
-1823.996504
 21
-1455.177385
 31
0.0
  0
LINE
  5
210A
100
AcDbEntity
  8
0
 62
     0
100
AcDbLine
 10
-1824.928206
 20
-1455.839679
 30
0.0
 11
-1824.125327
 21
-1455.0368
 31
0.0
  0
LINE
  5
210B
100
AcDbEntity
  8
0
 62
     0
100
AcDbLine
 10
-1825.18794
 20
-1455.830006
 30
0.0
 11
-1824.254149
 21
-1454.896215
 31
0.0
  0
LINE
  5
210C
100
AcDbEntity
  8
0
 62
     0
100
AcDbLine
 10
-1825.455768
 20
-1455.828426
 30
0.0
 11
-1824.382972
 21
-1454.75563
 31
0.0
  0
LINE
  5
210D
100
AcDbEntity
  8
0
 62
     0
100
AcDbLine
 10
-1825.730439
 20
-1455.83369
 30
0.0
 11
-1824.511794
 21
-1454.615045
 31
0.0
  0
LINE
  5
210E
100
AcDbEntity
  8
0
 62
     0
100
AcDbLine
 10
-1826.010537
 20
-1455.84438
 30
0.0
 11
-1824.640617
 21
-1454.474459
 31
0.0
  0
LINE
  5
210F
100
AcDbEntity
  8
0
 62
     0
100
AcDbLine
 10
-1826.29451
 20
-1455.858945
 30
0.0
 11
-1824.769439
 21
-1454.333874
 31
0.0
  0
LINE
  5
2110
100
AcDbEntity
  8
0
 62
     0
100
AcDbLine
 10
-1826.580712
 20
-1455.875739
 30
0.0
 11
-1824.898262
 21
-1454.193289
 31
0.0
  0
LINE
  5
2111
100
AcDbEntity
  8
0
 62
     0
100
AcDbLine
 10
-1826.867454
 20
-1455.893073
 30
0.0
 11
-1825.027084
 21
-1454.052704
 31
0.0
  0
LINE
  5
2112
100
AcDbEntity
  8
0
 62
     0
100
AcDbLine
 10
-1827.153053
 20
-1455.909265
 30
0.0
 11
-1825.155907
 21
-1453.912119
 31
0.0
  0
LINE
  5
2113
100
AcDbEntity
  8
0
 62
     0
100
AcDbLine
 10
-1827.435884
 20
-1455.922688
 30
0.0
 11
-1825.284729
 21
-1453.771534
 31
0.0
  0
LINE
  5
2114
100
AcDbEntity
  8
0
 62
     0
100
AcDbLine
 10
-1827.714427
 20
-1455.931824
 30
0.0
 11
-1825.413552
 21
-1453.630949
 31
0.0
  0
LINE
  5
2115
100
AcDbEntity
  8
0
 62
     0
100
AcDbLine
 10
-1827.987428
 20
-1455.935417
 30
0.0
 11
-1825.542375
 21
-1453.490363
 31
0.0
  0
LINE
  5
2116
100
AcDbEntity
  8
0
 62
     0
100
AcDbLine
 10
-1828.254751
 20
-1455.933332
 30
0.0
 11
-1825.671197
 21
-1453.349778
 31
0.0
  0
LINE
  5
2117
100
AcDbEntity
  8
0
 62
     0
100
AcDbLine
 10
-1828.51674
 20
-1455.925913
 30
0.0
 11
-1825.80002
 21
-1453.209193
 31
0.0
  0
LINE
  5
2118
100
AcDbEntity
  8
0
 62
     0
100
AcDbLine
 10
-1828.773711
 20
-1455.913477
 30
0.0
 11
-1825.928842
 21
-1453.068608
 31
0.0
  0
LINE
  5
2119
100
AcDbEntity
  8
0
 62
     0
100
AcDbLine
 10
-1829.025958
 20
-1455.896316
 30
0.0
 11
-1826.057665
 21
-1452.928023
 31
0.0
  0
LINE
  5
211A
100
AcDbEntity
  8
0
 62
     0
100
AcDbLine
 10
-1829.27375
 20
-1455.8747
 30
0.0
 11
-1826.186487
 21
-1452.787438
 31
0.0
  0
LINE
  5
211B
100
AcDbEntity
  8
0
 62
     0
100
AcDbLine
 10
-1829.517336
 20
-1455.848879
 30
0.0
 11
-1826.31531
 21
-1452.646853
 31
0.0
  0
LINE
  5
211C
100
AcDbEntity
  8
0
 62
     0
100
AcDbLine
 10
-1829.756949
 20
-1455.819084
 30
0.0
 11
-1826.444132
 21
-1452.506267
 31
0.0
  0
LINE
  5
211D
100
AcDbEntity
  8
0
 62
     0
100
AcDbLine
 10
-1829.992803
 20
-1455.78553
 30
0.0
 11
-1826.572955
 21
-1452.365682
 31
0.0
  0
LINE
  5
211E
100
AcDbEntity
  8
0
 62
     0
100
AcDbLine
 10
-1830.2251
 20
-1455.74842
 30
0.0
 11
-1826.701777
 21
-1452.225097
 31
0.0
  0
LINE
  5
211F
100
AcDbEntity
  8
0
 62
     0
100
AcDbLine
 10
-1830.454027
 20
-1455.707939
 30
0.0
 11
-1826.8306
 21
-1452.084512
 31
0.0
  0
LINE
  5
2120
100
AcDbEntity
  8
0
 62
     0
100
AcDbLine
 10
-1830.679761
 20
-1455.664266
 30
0.0
 11
-1826.959423
 21
-1451.943927
 31
0.0
  0
LINE
  5
2121
100
AcDbEntity
  8
0
 62
     0
100
AcDbLine
 10
-1830.902468
 20
-1455.617565
 30
0.0
 11
-1827.088245
 21
-1451.803342
 31
0.0
  0
LINE
  5
2122
100
AcDbEntity
  8
0
 62
     0
100
AcDbLine
 10
-1831.122302
 20
-1455.567991
 30
0.0
 11
-1827.217068
 21
-1451.662757
 31
0.0
  0
LINE
  5
2123
100
AcDbEntity
  8
0
 62
     0
100
AcDbLine
 10
-1831.339412
 20
-1455.515693
 30
0.0
 11
-1827.34589
 21
-1451.522171
 31
0.0
  0
LINE
  5
2124
100
AcDbEntity
  8
0
 62
     0
100
AcDbLine
 10
-1831.553935
 20
-1455.460809
 30
0.0
 11
-1827.474713
 21
-1451.381586
 31
0.0
  0
LINE
  5
2125
100
AcDbEntity
  8
0
 62
     0
100
AcDbLine
 10
-1831.766004
 20
-1455.40347
 30
0.0
 11
-1827.604509
 21
-1451.241975
 31
0.0
  0
LINE
  5
2126
100
AcDbEntity
  8
0
 62
     0
100
AcDbLine
 10
-1831.975743
 20
-1455.343801
 30
0.0
 11
-1827.740078
 21
-1451.108136
 31
0.0
  0
LINE
  5
2127
100
AcDbEntity
  8
0
 62
     0
100
AcDbLine
 10
-1832.18327
 20
-1455.281921
 30
0.0
 11
-1827.882074
 21
-1450.980724
 31
0.0
  0
LINE
  5
2128
100
AcDbEntity
  8
0
 62
     0
100
AcDbLine
 10
-1832.388699
 20
-1455.217942
 30
0.0
 11
-1828.030548
 21
-1450.859791
 31
0.0
  0
LINE
  5
2129
100
AcDbEntity
  8
0
 62
     0
100
AcDbLine
 10
-1832.592138
 20
-1455.151973
 30
0.0
 11
-1828.185595
 21
-1450.745431
 31
0.0
  0
LINE
  5
212A
100
AcDbEntity
  8
0
 62
     0
100
AcDbLine
 10
-1832.793689
 20
-1455.084117
 30
0.0
 11
-1828.347362
 21
-1450.63779
 31
0.0
  0
LINE
  5
212B
100
AcDbEntity
  8
0
 62
     0
100
AcDbLine
 10
-1832.993451
 20
-1455.014471
 30
0.0
 11
-1828.516049
 21
-1450.537069
 31
0.0
  0
LINE
  5
212C
100
AcDbEntity
  8
0
 62
     0
100
AcDbLine
 10
-1833.191519
 20
-1454.943131
 30
0.0
 11
-1828.691918
 21
-1450.44353
 31
0.0
  0
LINE
  5
212D
100
AcDbEntity
  8
0
 62
     0
100
AcDbLine
 10
-1833.387982
 20
-1454.870187
 30
0.0
 11
-1828.875306
 21
-1450.357511
 31
0.0
  0
LINE
  5
212E
100
AcDbEntity
  8
0
 62
     0
100
AcDbLine
 10
-1833.582929
 20
-1454.795726
 30
0.0
 11
-1829.066639
 21
-1450.279436
 31
0.0
  0
LINE
  5
212F
100
AcDbEntity
  8
0
 62
     0
100
AcDbLine
 10
-1833.776444
 20
-1454.719833
 30
0.0
 11
-1829.266455
 21
-1450.209844
 31
0.0
  0
LINE
  5
2130
100
AcDbEntity
  8
0
 62
     0
100
AcDbLine
 10
-1833.968607
 20
-1454.642588
 30
0.0
 11
-1829.475431
 21
-1450.149412
 31
0.0
  0
LINE
  5
2131
100
AcDbEntity
  8
0
 62
     0
100
AcDbLine
 10
-1834.159497
 20
-1454.564071
 30
0.0
 11
-1829.694435
 21
-1450.099009
 31
0.0
  0
LINE
  5
2132
100
AcDbEntity
  8
0
 62
     0
100
AcDbLine
 10
-1834.349191
 20
-1454.484357
 30
0.0
 11
-1829.92459
 21
-1450.059756
 31
0.0
  0
LINE
  5
2133
100
AcDbEntity
  8
0
 62
     0
100
AcDbLine
 10
-1834.537761
 20
-1454.403519
 30
0.0
 11
-1830.167379
 21
-1450.033138
 31
0.0
  0
LINE
  5
2134
100
AcDbEntity
  8
0
 62
     0
100
AcDbLine
 10
-1834.725279
 20
-1454.32163
 30
0.0
 11
-1830.424822
 21
-1450.021172
 31
0.0
  0
LINE
  5
2135
100
AcDbEntity
  8
0
 62
     0
100
AcDbLine
 10
-1834.911816
 20
-1454.238759
 30
0.0
 11
-1830.693825
 21
-1450.020768
 31
0.0
  0
LINE
  5
2136
100
AcDbEntity
  8
0
 62
     0
100
AcDbLine
 10
-1835.097438
 20
-1454.154973
 30
0.0
 11
-1830.963232
 21
-1450.020768
 31
0.0
  0
LINE
  5
2137
100
AcDbEntity
  8
0
 62
     0
100
AcDbLine
 10
-1835.282211
 20
-1454.070339
 30
0.0
 11
-1831.23264
 21
-1450.020768
 31
0.0
  0
LINE
  5
2138
100
AcDbEntity
  8
0
 62
     0
100
AcDbLine
 10
-1835.466201
 20
-1453.984921
 30
0.0
 11
-1831.502048
 21
-1450.020768
 31
0.0
  0
LINE
  5
2139
100
AcDbEntity
  8
0
 62
     0
100
AcDbLine
 10
-1835.649471
 20
-1453.898783
 30
0.0
 11
-1831.771455
 21
-1450.020768
 31
0.0
  0
LINE
  5
213A
100
AcDbEntity
  8
0
 62
     0
100
AcDbLine
 10
-1835.832082
 20
-1453.811987
 30
0.0
 11
-1832.040863
 21
-1450.020768
 31
0.0
  0
LINE
  5
213B
100
AcDbEntity
  8
0
 62
     0
100
AcDbLine
 10
-1836.014097
 20
-1453.724593
 30
0.0
 11
-1832.310271
 21
-1450.020768
 31
0.0
  0
LINE
  5
213C
100
AcDbEntity
  8
0
 62
     0
100
AcDbLine
 10
-1836.195573
 20
-1453.636662
 30
0.0
 11
-1832.579678
 21
-1450.020768
 31
0.0
  0
LINE
  5
213D
100
AcDbEntity
  8
0
 62
     0
100
AcDbLine
 10
-1836.376571
 20
-1453.548253
 30
0.0
 11
-1832.849086
 21
-1450.020768
 31
0.0
  0
LINE
  5
213E
100
AcDbEntity
  8
0
 62
     0
100
AcDbLine
 10
-1836.557149
 20
-1453.459423
 30
0.0
 11
-1833.118494
 21
-1450.020768
 31
0.0
  0
LINE
  5
213F
100
AcDbEntity
  8
0
 62
     0
100
AcDbLine
 10
-1836.737364
 20
-1453.37023
 30
0.0
 11
-1833.387901
 21
-1450.020768
 31
0.0
  0
LINE
  5
2140
100
AcDbEntity
  8
0
 62
     0
100
AcDbLine
 10
-1836.917273
 20
-1453.280732
 30
0.0
 11
-1833.657309
 21
-1450.020768
 31
0.0
  0
LINE
  5
2141
100
AcDbEntity
  8
0
 62
     0
100
AcDbLine
 10
-1837.096933
 20
-1453.190984
 30
0.0
 11
-1833.926717
 21
-1450.020768
 31
0.0
  0
LINE
  5
2142
100
AcDbEntity
  8
0
 62
     0
100
AcDbLine
 10
-1837.276399
 20
-1453.101043
 30
0.0
 11
-1834.196125
 21
-1450.020768
 31
0.0
  0
LINE
  5
2143
100
AcDbEntity
  8
0
 62
     0
100
AcDbLine
 10
-1837.455728
 20
-1453.010964
 30
0.0
 11
-1834.465532
 21
-1450.020768
 31
0.0
  0
LINE
  5
2144
100
AcDbEntity
  8
0
 62
     0
100
AcDbLine
 10
-1837.634975
 20
-1452.920803
 30
0.0
 11
-1834.73494
 21
-1450.020768
 31
0.0
  0
LINE
  5
2145
100
AcDbEntity
  8
0
 62
     0
100
AcDbLine
 10
-1837.721673
 20
-1452.738093
 30
0.0
 11
-1835.004348
 21
-1450.020768
 31
0.0
  0
LINE
  5
2146
100
AcDbEntity
  8
0
 62
     0
100
AcDbLine
 10
-1837.721673
 20
-1452.468686
 30
0.0
 11
-1835.273755
 21
-1450.020768
 31
0.0
  0
LINE
  5
2147
100
AcDbEntity
  8
0
 62
     0
100
AcDbLine
 10
-1837.721673
 20
-1452.199278
 30
0.0
 11
-1835.543163
 21
-1450.020768
 31
0.0
  0
LINE
  5
2148
100
AcDbEntity
  8
0
 62
     0
100
AcDbLine
 10
-1837.721673
 20
-1451.92987
 30
0.0
 11
-1835.812571
 21
-1450.020768
 31
0.0
  0
LINE
  5
2149
100
AcDbEntity
  8
0
 62
     0
100
AcDbLine
 10
-1837.721673
 20
-1451.660463
 30
0.0
 11
-1836.081978
 21
-1450.020768
 31
0.0
  0
LINE
  5
214A
100
AcDbEntity
  8
0
 62
     0
100
AcDbLine
 10
-1837.721673
 20
-1451.391055
 30
0.0
 11
-1836.351386
 21
-1450.020768
 31
0.0
  0
LINE
  5
214B
100
AcDbEntity
  8
0
 62
     0
100
AcDbLine
 10
-1837.721673
 20
-1451.121647
 30
0.0
 11
-1836.620794
 21
-1450.020768
 31
0.0
  0
LINE
  5
214C
100
AcDbEntity
  8
0
 62
     0
100
AcDbLine
 10
-1799.378868
 20
-1452.920587
 30
0.0
 11
-1797.09622
 21
-1450.637939
 31
0.0
  0
LINE
  5
214D
100
AcDbEntity
  8
0
 62
     0
100
AcDbLine
 10
-1802.329389
 20
-1456.140516
 30
0.0
 11
-1796.529891
 21
-1450.341017
 31
0.0
  0
LINE
  5
214E
100
AcDbEntity
  8
0
 62
     0
100
AcDbLine
 10
-1805.175314
 20
-1459.255848
 30
0.0
 11
-1803.197726
 21
-1457.27826
 31
0.0
  0
LINE
  5
214F
100
AcDbEntity
  8
0
 62
     0
100
AcDbLine
 10
-1802.218899
 20
-1456.299433
 30
0.0
 11
-1796.108033
 21
-1450.188567
 31
0.0
  0
LINE
  5
2150
100
AcDbEntity
  8
0
 62
     0
100
AcDbLine
 10
-1801.697533
 20
-1456.047475
 30
0.0
 11
-1795.749106
 21
-1450.099048
 31
0.0
  0
LINE
  5
2151
100
AcDbEntity
  8
0
 62
     0
100
AcDbLine
 10
-1801.317392
 20
-1455.936741
 30
0.0
 11
-1795.428792
 21
-1450.048141
 31
0.0
  0
LINE
  5
2152
100
AcDbEntity
  8
0
 62
     0
100
AcDbLine
 10
-1800.986225
 20
-1455.874982
 30
0.0
 11
-1795.135804
 21
-1450.024561
 31
0.0
  0
LINE
  5
2153
100
AcDbEntity
  8
0
 62
     0
100
AcDbLine
 10
-1800.68168
 20
-1455.839845
 30
0.0
 11
-1794.862603
 21
-1450.020768
 31
0.0
  0
LINE
  5
2154
100
AcDbEntity
  8
0
 62
     0
100
AcDbLine
 10
-1800.394024
 20
-1455.821596
 30
0.0
 11
-1794.593195
 21
-1450.020768
 31
0.0
  0
LINE
  5
2155
100
AcDbEntity
  8
0
 62
     0
100
AcDbLine
 10
-1800.117923
 20
-1455.814903
 30
0.0
 11
-1794.323787
 21
-1450.020768
 31
0.0
  0
LINE
  5
2156
100
AcDbEntity
  8
0
 62
     0
100
AcDbLine
 10
-1799.850034
 20
-1455.816422
 30
0.0
 11
-1794.05438
 21
-1450.020768
 31
0.0
  0
LINE
  5
2157
100
AcDbEntity
  8
0
 62
     0
100
AcDbLine
 10
-1799.588052
 20
-1455.823848
 30
0.0
 11
-1793.784972
 21
-1450.020768
 31
0.0
  0
LINE
  5
2158
100
AcDbEntity
  8
0
 62
     0
100
AcDbLine
 10
-1799.330267
 20
-1455.835471
 30
0.0
 11
-1793.515564
 21
-1450.020768
 31
0.0
  0
LINE
  5
2159
100
AcDbEntity
  8
0
 62
     0
100
AcDbLine
 10
-1799.075322
 20
-1455.849933
 30
0.0
 11
-1793.246157
 21
-1450.020768
 31
0.0
  0
LINE
  5
215A
100
AcDbEntity
  8
0
 62
     0
100
AcDbLine
 10
-1798.822072
 20
-1455.866091
 30
0.0
 11
-1792.976749
 21
-1450.020768
 31
0.0
  0
LINE
  5
215B
100
AcDbEntity
  8
0
 62
     0
100
AcDbLine
 10
-1798.569493
 20
-1455.88292
 30
0.0
 11
-1792.707341
 21
-1450.020768
 31
0.0
  0
LINE
  5
215C
100
AcDbEntity
  8
0
 62
     0
100
AcDbLine
 10
-1798.316613
 20
-1455.899447
 30
0.0
 11
-1792.437934
 21
-1450.020768
 31
0.0
  0
LINE
  5
215D
100
AcDbEntity
  8
0
 62
     0
100
AcDbLine
 10
-1798.062448
 20
-1455.91469
 30
0.0
 11
-1792.168526
 21
-1450.020768
 31
0.0
  0
LINE
  5
215E
100
AcDbEntity
  8
0
 62
     0
100
AcDbLine
 10
-1797.805947
 20
-1455.927597
 30
0.0
 11
-1791.899118
 21
-1450.020768
 31
0.0
  0
LINE
  5
215F
100
AcDbEntity
  8
0
 62
     0
100
AcDbLine
 10
-1797.545937
 20
-1455.936994
 30
0.0
 11
-1791.62971
 21
-1450.020768
 31
0.0
  0
LINE
  5
2160
100
AcDbEntity
  8
0
 62
     0
100
AcDbLine
 10
-1797.281628
 20
-1455.942093
 30
0.0
 11
-1791.360303
 21
-1450.020768
 31
0.0
  0
LINE
  5
2161
100
AcDbEntity
  8
0
 62
     0
100
AcDbLine
 10
-1797.012784
 20
-1455.942656
 30
0.0
 11
-1791.090895
 21
-1450.020768
 31
0.0
  0
LINE
  5
2162
100
AcDbEntity
  8
0
 62
     0
100
AcDbLine
 10
-1796.739187
 20
-1455.938467
 30
0.0
 11
-1790.821487
 21
-1450.020768
 31
0.0
  0
LINE
  5
2163
100
AcDbEntity
  8
0
 62
     0
100
AcDbLine
 10
-1796.460607
 20
-1455.929295
 30
0.0
 11
-1790.55208
 21
-1450.020768
 31
0.0
  0
LINE
  5
2164
100
AcDbEntity
  8
0
 62
     0
100
AcDbLine
 10
-1796.176803
 20
-1455.914899
 30
0.0
 11
-1790.282672
 21
-1450.020768
 31
0.0
  0
LINE
  5
2165
100
AcDbEntity
  8
0
 62
     0
100
AcDbLine
 10
-1795.887521
 20
-1455.895024
 30
0.0
 11
-1790.013264
 21
-1450.020768
 31
0.0
  0
LINE
  5
2166
100
AcDbEntity
  8
0
 62
     0
100
AcDbLine
 10
-1795.592496
 20
-1455.869407
 30
0.0
 11
-1789.743857
 21
-1450.020768
 31
0.0
  0
LINE
  5
2167
100
AcDbEntity
  8
0
 62
     0
100
AcDbLine
 10
-1795.291452
 20
-1455.83777
 30
0.0
 11
-1789.474449
 21
-1450.020768
 31
0.0
  0
LINE
  5
2168
100
AcDbEntity
  8
0
 62
     0
100
AcDbLine
 10
-1794.984105
 20
-1455.799831
 30
0.0
 11
-1789.205041
 21
-1450.020768
 31
0.0
  0
LINE
  5
2169
100
AcDbEntity
  8
0
 62
     0
100
AcDbLine
 10
-1794.670162
 20
-1455.755296
 30
0.0
 11
-1788.935634
 21
-1450.020768
 31
0.0
  0
LINE
  5
216A
100
AcDbEntity
  8
0
 62
     0
100
AcDbLine
 10
-1794.349328
 20
-1455.70387
 30
0.0
 11
-1788.69395
 21
-1450.048491
 31
0.0
  0
LINE
  5
216B
100
AcDbEntity
  8
0
 62
     0
100
AcDbLine
 10
-1794.021307
 20
-1455.645257
 30
0.0
 11
-1788.559246
 21
-1450.183195
 31
0.0
  0
LINE
  5
216C
100
AcDbEntity
  8
0
 62
     0
100
AcDbLine
 10
-1793.685811
 20
-1455.579168
 30
0.0
 11
-1788.424542
 21
-1450.317899
 31
0.0
  0
LINE
  5
216D
100
AcDbEntity
  8
0
 62
     0
100
AcDbLine
 10
-1793.342562
 20
-1455.505327
 30
0.0
 11
-1788.289838
 21
-1450.452603
 31
0.0
  0
LINE
  5
216E
100
AcDbEntity
  8
0
 62
     0
100
AcDbLine
 10
-1792.991311
 20
-1455.423483
 30
0.0
 11
-1788.155134
 21
-1450.587307
 31
0.0
  0
LINE
  5
216F
100
AcDbEntity
  8
0
 62
     0
100
AcDbLine
 10
-1792.631839
 20
-1455.33342
 30
0.0
 11
-1788.02043
 21
-1450.722011
 31
0.0
  0
LINE
  5
2170
100
AcDbEntity
  8
0
 62
     0
100
AcDbLine
 10
-1792.263984
 20
-1455.234971
 30
0.0
 11
-1787.885727
 21
-1450.856714
 31
0.0
  0
LINE
  5
2171
100
AcDbEntity
  8
0
 62
     0
100
AcDbLine
 10
-1791.887647
 20
-1455.128043
 30
0.0
 11
-1787.751023
 21
-1450.991418
 31
0.0
  0
LINE
  5
2172
100
AcDbEntity
  8
0
 62
     0
100
AcDbLine
 10
-1791.502825
 20
-1455.012628
 30
0.0
 11
-1787.721673
 21
-1451.231476
 31
0.0
  0
LINE
  5
2173
100
AcDbEntity
  8
0
 62
     0
100
AcDbLine
 10
-1791.109624
 20
-1454.888834
 30
0.0
 11
-1787.721673
 21
-1451.500884
 31
0.0
  0
LINE
  5
2174
100
AcDbEntity
  8
0
 62
     0
100
AcDbLine
 10
-1790.708287
 20
-1454.756906
 30
0.0
 11
-1787.721673
 21
-1451.770292
 31
0.0
  0
LINE
  5
2175
100
AcDbEntity
  8
0
 62
     0
100
AcDbLine
 10
-1790.29922
 20
-1454.617246
 30
0.0
 11
-1787.721673
 21
-1452.039699
 31
0.0
  0
LINE
  5
2176
100
AcDbEntity
  8
0
 62
     0
100
AcDbLine
 10
-1789.883006
 20
-1454.47044
 30
0.0
 11
-1787.721673
 21
-1452.309107
 31
0.0
  0
LINE
  5
2177
100
AcDbEntity
  8
0
 62
     0
100
AcDbLine
 10
-1789.460421
 20
-1454.317263
 30
0.0
 11
-1787.721673
 21
-1452.578515
 31
0.0
  0
LINE
  5
2178
100
AcDbEntity
  8
0
 62
     0
100
AcDbLine
 10
-1789.032437
 20
-1454.158686
 30
0.0
 11
-1787.721673
 21
-1452.847923
 31
0.0
  0
LINE
  5
2179
100
AcDbEntity
  8
0
 62
     0
100
AcDbLine
 10
-1788.600206
 20
-1453.995863
 30
0.0
 11
-1787.721673
 21
-1453.11733
 31
0.0
  0
LINE
  5
217A
100
AcDbEntity
  8
0
 62
     0
100
AcDbLine
 10
-1788.16504
 20
-1453.830104
 30
0.0
 11
-1787.721673
 21
-1453.386738
 31
0.0
  0
LINE
  5
217B
100
AcDbEntity
  8
0
 62
     0
100
AcDbLine
 10
-1787.728363
 20
-1453.662836
 30
0.0
 11
-1787.721673
 21
-1453.656146
 31
0.0
  0
ENDBLK
  5
217C
100
AcDbEntity
  8
0
100
AcDbBlockEnd
  0
BLOCK
  5
21C7
100
AcDbEntity
  8
0
100
AcDbBlockBegin
  2
*D42
 70
    65
 10
0.0
 20
0.0
 30
0.0
  3
*D42
  1

  0
LINE
  5
21C8
100
AcDbEntity
  8
0
  6
BYBLOCK
 62
     0
100
AcDbLine
 10
-1900.190823
 20
-1433.22694
 30
0.0
 11
-1928.79418
 21
-1433.22694
 31
0.0
  0
LINE
  5
21C9
100
AcDbEntity
  8
0
  6
BYBLOCK
 62
     0
100
AcDbLine
 10
-1924.190823
 20
-1465.369459
 30
0.0
 11
-1928.79418
 21
-1465.369459
 31
0.0
  0
LINE
  5
21CA
100
AcDbEntity
  8
0
  6
BYBLOCK
 62
     0
100
AcDbLine
 10
-1927.54418
 20
-1435.72694
 30
0.0
 11
-1927.54418
 21
-1462.869459
 31
0.0
  0
SOLID
  5
21CB
100
AcDbEntity
  8
0
  6
BYBLOCK
 62
     0
100
AcDbTrace
 10
-1927.960847
 20
-1435.72694
 30
0.0
 11
-1927.127514
 21
-1435.72694
 31
0.0
 12
-1927.54418
 22
-1433.22694
 32
0.0
 13
-1927.54418
 23
-1433.22694
 33
0.0
  0
SOLID
  5
21CC
100
AcDbEntity
  8
0
  6
BYBLOCK
 62
     0
100
AcDbTrace
 10
-1927.960847
 20
-1462.869459
 30
0.0
 11
-1927.127514
 21
-1462.869459
 31
0.0
 12
-1927.54418
 22
-1465.369459
 32
0.0
 13
-1927.54418
 23
-1465.369459
 33
0.0
  0
MTEXT
  5
21CD
100
AcDbEntity
  8
0
  6
BYBLOCK
 62
     0
100
AcDbMText
 10
-1929.91918
 20
-1449.298199
 30
0.0
 40
3.5
 41
0.0
 71
     5
 72
     1
  1
\A2;32.14{\H2.800000;±0.01}
 11
0.0
 21
1.0
 31
0.0
  0
POINT
  5
21CE
100
AcDbEntity
  8
DEFPOINTS
  6
BYBLOCK
 62
     0
100
AcDbPoint
 10
-1899.565823
 20
-1433.22694
 30
0.0
  0
POINT
  5
21CF
100
AcDbEntity
  8
DEFPOINTS
  6
BYBLOCK
 62
     0
100
AcDbPoint
 10
-1923.565823
 20
-1465.369459
 30
0.0
  0
POINT
  5
21D0
100
AcDbEntity
  8
DEFPOINTS
  6
BYBLOCK
 62
     0
100
AcDbPoint
 10
-1927.54418
 20
-1465.369459
 30
0.0
  0
ENDBLK
  5
21D1
100
AcDbEntity
  8
0
100
AcDbBlockEnd
  0
BLOCK
  5
21B4
100
AcDbEntity
  8
0
100
AcDbBlockBegin
  2
*D43
 70
    65
 10
0.0
 20
0.0
 30
0.0
  3
*D43
  1

  0
LINE
  5
21B5
100
AcDbEntity
  8
0
  6
BYBLOCK
 62
     0
100
AcDbLine
 10
-1914.569343
 20
-1462.234958
 30
0.0
 11
-1884.562303
 21
-1444.218922
 31
0.0
  0
SOLID
  5
21B6
100
AcDbEntity
  8
0
  6
BYBLOCK
 62
     0
100
AcDbTrace
 10
-1914.78382
 20
-1461.877731
 30
0.0
 11
-1914.354866
 21
-1462.592184
 31
0.0
 12
-1916.712703
 22
-1463.521817
 32
0.0
 13
-1916.712703
 23
-1463.521817
 33
0.0
  0
SOLID
  5
21B7
100
AcDbEntity
  8
0
  6
BYBLOCK
 62
     0
100
AcDbTrace
 10
-1884.776779
 20
-1443.861696
 30
0.0
 11
-1884.347826
 21
-1444.576149
 31
0.0
 12
-1882.418943
 22
-1442.932063
 32
0.0
 13
-1882.418943
 23
-1442.932063
 33
0.0
  0
MTEXT
  5
21B8
100
AcDbEntity
  8
0
  6
BYBLOCK
 62
     0
100
AcDbMText
 10
-1900.78834
 20
-1451.190748
 30
0.0
 40
3.5
 41
0.0
 71
     5
 72
     1
  1
\A1;{\U+220540h7}
 11
0.857344
 21
0.514744
 31
0.0
  0
POINT
  5
21B9
100
AcDbEntity
  8
DEFPOINTS
  6
BYBLOCK
 62
     0
100
AcDbPoint
 10
-1882.418943
 20
-1442.932063
 30
0.0
  0
POINT
  5
21BA
100
AcDbEntity
  8
DEFPOINTS
  6
BYBLOCK
 62
     0
100
AcDbPoint
 10
-1916.712703
 20
-1463.521817
 30
0.0
  0
ENDBLK
  5
21BB
100
AcDbEntity
  8
0
100
AcDbBlockEnd
  0
BLOCK
  5
2226
100
AcDbEntity
  8
0
100
AcDbBlockBegin
  2
*D44
 70
    65
 10
0.0
 20
0.0
 30
0.0
  3
*D44
  1

  0
LINE
  5
2227
100
AcDbEntity
  8
0
  6
BYBLOCK
 62
     0
100
AcDbLine
 10
-1558.602816
 20
-1448.895768
 30
0.0
 11
-1558.602816
 21
-1431.595834
 31
0.0
  0
LINE
  5
2228
100
AcDbEntity
  8
0
  6
BYBLOCK
 62
     0
100
AcDbLine
 10
-1590.29844
 20
-1448.895768
 30
0.0
 11
-1590.29844
 21
-1431.595834
 31
0.0
  0
LINE
  5
2229
100
AcDbEntity
  8
0
  6
BYBLOCK
 62
     0
100
AcDbLine
 10
-1561.102816
 20
-1432.845834
 30
0.0
 11
-1587.79844
 21
-1432.845834
 31
0.0
  0
SOLID
  5
222A
100
AcDbEntity
  8
0
  6
BYBLOCK
 62
     0
100
AcDbTrace
 10
-1561.102816
 20
-1432.429167
 30
0.0
 11
-1561.102816
 21
-1433.2625
 31
0.0
 12
-1558.602816
 22
-1432.845834
 32
0.0
 13
-1558.602816
 23
-1432.845834
 33
0.0
  0
SOLID
  5
222B
100
AcDbEntity
  8
0
  6
BYBLOCK
 62
     0
100
AcDbTrace
 10
-1587.79844
 20
-1432.429167
 30
0.0
 11
-1587.79844
 21
-1433.2625
 31
0.0
 12
-1590.29844
 22
-1432.845834
 32
0.0
 13
-1590.29844
 23
-1432.845834
 33
0.0
  0
MTEXT
  5
222C
100
AcDbEntity
  8
0
  6
BYBLOCK
 62
     0
100
AcDbMText
 10
-1574.450628
 20
-1429.093065
 30
0.0
 40
3.5
 41
0.0
 71
     5
 72
     1
  1
\A2;31.7{\H2.800000;\S-0.1^  0;}
  0
POINT
  5
222D
100
AcDbEntity
  8
DEFPOINTS
  6
BYBLOCK
 62
     0
100
AcDbPoint
 10
-1558.602816
 20
-1449.520768
 30
0.0
  0
POINT
  5
222E
100
AcDbEntity
  8
DEFPOINTS
  6
BYBLOCK
 62
     0
100
AcDbPoint
 10
-1590.29844
 20
-1449.520768
 30
0.0
  0
POINT
  5
222F
100
AcDbEntity
  8
DEFPOINTS
  6
BYBLOCK
 62
     0
100
AcDbPoint
 10
-1590.29844
 20
-1432.845834
 30
0.0
  0
ENDBLK
  5
2230
100
AcDbEntity
  8
0
100
AcDbBlockEnd
  0
BLOCK
  5
2233
100
AcDbEntity
  8
0
100
AcDbBlockBegin
  2
*D45
 70
    65
 10
0.0
 20
0.0
 30
0.0
  3
*D45
  1

  0
LINE
  5
2234
100
AcDbEntity
  8
0
  6
BYBLOCK
 62
     0
100
AcDbLine
 10
-1558.180572
 20
-1449.059969
 30
0.0
 11
-1541.313063
 21
-1430.652313
 31
0.0
  0
LINE
  5
2235
100
AcDbEntity
  8
0
  6
BYBLOCK
 62
     0
100
AcDbLine
 10
-1590.720684
 20
-1449.059969
 30
0.0
 11
-1607.588193
 21
-1430.652313
 31
0.0
  0
ARC
  5
2236
100
AcDbEntity
  8
0
  6
BYBLOCK
 62
     0
100
AcDbCircle
 10
-1574.450628
 20
-1466.815619
 30
0.0
 40
47.7998
100
AcDbArc
 50
50.496996
 51
129.503005
  0
SOLID
  5
2237
100
AcDbEntity
  8
0
  6
BYBLOCK
 62
     0
100
AcDbTrace
 10
-1543.770916
 20
-1429.619258
 30
0.0
 11
-1544.317648
 21
-1430.248168
 31
0.0
 12
-1542.157551
 22
-1431.57391
 32
0.0
 13
-1542.157551
 23
-1431.57391
 33
0.0
  0
SOLID
  5
2238
100
AcDbEntity
  8
0
  6
BYBLOCK
 62
     0
100
AcDbTrace
 10
-1604.583608
 20
-1430.248168
 30
0.0
 11
-1605.13034
 21
-1429.619258
 31
0.0
 12
-1606.743705
 22
-1431.57391
 32
0.0
 13
-1606.743705
 23
-1431.57391
 33
0.0
  0
MTEXT
  5
2239
100
AcDbEntity
  8
0
  6
BYBLOCK
 62
     0
100
AcDbMText
 10
-1574.450628
 20
-1416.640819
 30
0.0
 40
3.5
 41
0.0
 71
     5
 72
     1
  1
\A1;85°
  0
POINT
  5
223A
100
AcDbEntity
  8
DEFPOINTS
  6
BYBLOCK
 62
     0
100
AcDbPoint
 10
-1586.149311
 20
-1420.469512
 30
0.0
  0
POINT
  5
223B
100
AcDbEntity
  8
DEFPOINTS
  6
BYBLOCK
 62
     0
100
AcDbPoint
 10
-1558.602816
 20
-1449.520768
 30
0.0
  0
POINT
  5
223C
100
AcDbEntity
  8
DEFPOINTS
  6
BYBLOCK
 62
     0
100
AcDbPoint
 10
-1590.29844
 20
-1449.520768
 30
0.0
  0
POINT
  5
223D
100
AcDbEntity
  8
DEFPOINTS
  6
BYBLOCK
 62
     0
100
AcDbPoint
 10
-1576.66246
 20
-1464.401828
 30
0.0
  0
POINT
  5
223E
100
AcDbEntity
  8
DEFPOINTS
  6
BYBLOCK
 62
     0
100
AcDbPoint
 10
-1572.238796
 20
-1464.401828
 30
0.0
  0
ENDBLK
  5
223F
100
AcDbEntity
  8
0
100
AcDbBlockEnd
  0
BLOCK
  5
2242
100
AcDbEntity
  8
0
100
AcDbBlockBegin
  2
*D46
 70
    65
 10
0.0
 20
0.0
 30
0.0
  3
*D46
  1

  0
LINE
  5
2243
100
AcDbEntity
  8
0
  6
BYBLOCK
 62
     0
100
AcDbLine
 10
-1578.046691
 20
-1466.536588
 30
0.0
 11
-1583.623513
 21
-1472.990343
 31
0.0
  0
SOLID
  5
2244
100
AcDbEntity
  8
0
  6
BYBLOCK
 62
     0
100
AcDbTrace
 10
-1578.361958
 20
-1466.264159
 30
0.0
 11
-1577.731423
 21
-1466.809017
 31
0.0
 12
-1576.412117
 22
-1464.644983
 32
0.0
 13
-1576.412117
 23
-1464.644983
 33
0.0
  0
MTEXT
  5
2245
100
AcDbEntity
  8
0
  6
BYBLOCK
 62
     0
100
AcDbMText
 10
-1583.449413
 20
-1469.156422
 30
0.0
 40
3.5
 41
0.0
 71
     5
 72
     1
  1
\A1;R3
 11
0.65383
 21
0.756642
 31
0.0
  0
POINT
  5
2246
100
AcDbEntity
  8
DEFPOINTS
  6
BYBLOCK
 62
     0
100
AcDbPoint
 10
-1576.412117
 20
-1464.644983
 30
0.0
  0
POINT
  5
2247
100
AcDbEntity
  8
DEFPOINTS
  6
BYBLOCK
 62
     0
100
AcDbPoint
 10
-1574.450628
 20
-1462.375058
 30
0.0
  0
ENDBLK
  5
2248
100
AcDbEntity
  8
0
100
AcDbBlockEnd
  0
BLOCK
  5
226D
100
AcDbEntity
  8
0
100
AcDbBlockBegin
  2
*X47
 70
    65
 10
0.0
 20
0.0
 30
0.0
  3
*X47
  1

  0
LINE
  5
226F
100
AcDbEntity
  8
0
 62
     0
100
AcDbLine
 10
-1580.958397
 20
-1459.994347
 30
0.0
 11
-1580.824169
 21
-1459.860119
 31
0.0
  0
LINE
  5
2270
100
AcDbEntity
  8
0
 62
     0
100
AcDbLine
 10
-1581.229798
 20
-1459.996341
 30
0.0
 11
-1580.952992
 21
-1459.719534
 31
0.0
  0
LINE
  5
2271
100
AcDbEntity
  8
0
 62
     0
100
AcDbLine
 10
-1581.500446
 20
-1459.99758
 30
0.0
 11
-1581.081814
 21
-1459.578949
 31
0.0
  0
LINE
  5
2272
100
AcDbEntity
  8
0
 62
     0
100
AcDbLine
 10
-1581.76995
 20
-1459.997677
 30
0.0
 11
-1581.210637
 21
-1459.438364
 31
0.0
  0
LINE
  5
2273
100
AcDbEntity
  8
0
 62
     0
100
AcDbLine
 10
-1582.037926
 20
-1459.996245
 30
0.0
 11
-1581.33946
 21
-1459.297779
 31
0.0
  0
LINE
  5
2274
100
AcDbEntity
  8
0
 62
     0
100
AcDbLine
 10
-1582.303985
 20
-1459.992896
 30
0.0
 11
-1581.468282
 21
-1459.157194
 31
0.0
  0
LINE
  5
2275
100
AcDbEntity
  8
0
 62
     0
100
AcDbLine
 10
-1582.567743
 20
-1459.987247
 30
0.0
 11
-1581.597105
 21
-1459.016609
 31
0.0
  0
LINE
  5
2276
100
AcDbEntity
  8
0
 62
     0
100
AcDbLine
 10
-1582.828817
 20
-1459.978913
 30
0.0
 11
-1581.725927
 21
-1458.876023
 31
0.0
  0
LINE
  5
2277
100
AcDbEntity
  8
0
 62
     0
100
AcDbLine
 10
-1583.086825
 20
-1459.967513
 30
0.0
 11
-1581.85475
 21
-1458.735438
 31
0.0
  0
LINE
  5
2278
100
AcDbEntity
  8
0
 62
     0
100
AcDbLine
 10
-1583.341387
 20
-1459.952668
 30
0.0
 11
-1581.983572
 21
-1458.594853
 31
0.0
  0
LINE
  5
2279
100
AcDbEntity
  8
0
 62
     0
100
AcDbLine
 10
-1583.592128
 20
-1459.934001
 30
0.0
 11
-1582.112395
 21
-1458.454268
 31
0.0
  0
LINE
  5
227A
100
AcDbEntity
  8
0
 62
     0
100
AcDbLine
 10
-1583.838672
 20
-1459.911137
 30
0.0
 11
-1582.241217
 21
-1458.313683
 31
0.0
  0
LINE
  5
227B
100
AcDbEntity
  8
0
 62
     0
100
AcDbLine
 10
-1584.080648
 20
-1459.883706
 30
0.0
 11
-1582.37004
 21
-1458.173098
 31
0.0
  0
LINE
  5
227C
100
AcDbEntity
  8
0
 62
     0
100
AcDbLine
 10
-1584.317688
 20
-1459.851338
 30
0.0
 11
-1582.498862
 21
-1458.032513
 31
0.0
  0
LINE
  5
227D
100
AcDbEntity
  8
0
 62
     0
100
AcDbLine
 10
-1584.549427
 20
-1459.813669
 30
0.0
 11
-1582.627685
 21
-1457.891927
 31
0.0
  0
LINE
  5
227E
100
AcDbEntity
  8
0
 62
     0
100
AcDbLine
 10
-1584.775503
 20
-1459.770338
 30
0.0
 11
-1582.756508
 21
-1457.751342
 31
0.0
  0
LINE
  5
227F
100
AcDbEntity
  8
0
 62
     0
100
AcDbLine
 10
-1584.99556
 20
-1459.720987
 30
0.0
 11
-1582.88533
 21
-1457.610757
 31
0.0
  0
LINE
  5
2280
100
AcDbEntity
  8
0
 62
     0
100
AcDbLine
 10
-1585.209243
 20
-1459.665262
 30
0.0
 11
-1583.014153
 21
-1457.470172
 31
0.0
  0
LINE
  5
2281
100
AcDbEntity
  8
0
 62
     0
100
AcDbLine
 10
-1585.416204
 20
-1459.602815
 30
0.0
 11
-1583.142975
 21
-1457.329587
 31
0.0
  0
LINE
  5
2282
100
AcDbEntity
  8
0
 62
     0
100
AcDbLine
 10
-1585.616097
 20
-1459.533301
 30
0.0
 11
-1583.271798
 21
-1457.189002
 31
0.0
  0
LINE
  5
2283
100
AcDbEntity
  8
0
 62
     0
100
AcDbLine
 10
-1585.808583
 20
-1459.456379
 30
0.0
 11
-1583.40062
 21
-1457.048417
 31
0.0
  0
LINE
  5
2284
100
AcDbEntity
  8
0
 62
     0
100
AcDbLine
 10
-1585.993326
 20
-1459.371715
 30
0.0
 11
-1583.529443
 21
-1456.907831
 31
0.0
  0
LINE
  5
2285
100
AcDbEntity
  8
0
 62
     0
100
AcDbLine
 10
-1586.169996
 20
-1459.278977
 30
0.0
 11
-1583.658265
 21
-1456.767246
 31
0.0
  0
LINE
  5
2286
100
AcDbEntity
  8
0
 62
     0
100
AcDbLine
 10
-1586.338268
 20
-1459.177841
 30
0.0
 11
-1583.787088
 21
-1456.626661
 31
0.0
  0
LINE
  5
2287
100
AcDbEntity
  8
0
 62
     0
100
AcDbLine
 10
-1586.497822
 20
-1459.067988
 30
0.0
 11
-1583.91591
 21
-1456.486076
 31
0.0
  0
LINE
  5
2288
100
AcDbEntity
  8
0
 62
     0
100
AcDbLine
 10
-1586.648343
 20
-1458.949101
 30
0.0
 11
-1584.044733
 21
-1456.345491
 31
0.0
  0
LINE
  5
2289
100
AcDbEntity
  8
0
 62
     0
100
AcDbLine
 10
-1586.789524
 20
-1458.820874
 30
0.0
 11
-1584.173556
 21
-1456.204906
 31
0.0
  0
LINE
  5
228A
100
AcDbEntity
  8
0
 62
     0
100
AcDbLine
 10
-1586.92106
 20
-1458.683003
 30
0.0
 11
-1584.302378
 21
-1456.064321
 31
0.0
  0
LINE
  5
228B
100
AcDbEntity
  8
0
 62
     0
100
AcDbLine
 10
-1587.042655
 20
-1458.53519
 30
0.0
 11
-1584.431201
 21
-1455.923736
 31
0.0
  0
LINE
  5
228C
100
AcDbEntity
  8
0
 62
     0
100
AcDbLine
 10
-1587.154017
 20
-1458.377145
 30
0.0
 11
-1584.560023
 21
-1455.78315
 31
0.0
  0
LINE
  5
228D
100
AcDbEntity
  8
0
 62
     0
100
AcDbLine
 10
-1587.254862
 20
-1458.208582
 30
0.0
 11
-1584.688846
 21
-1455.642565
 31
0.0
  0
LINE
  5
228E
100
AcDbEntity
  8
0
 62
     0
100
AcDbLine
 10
-1587.344911
 20
-1458.029223
 30
0.0
 11
-1584.817668
 21
-1455.50198
 31
0.0
  0
LINE
  5
228F
100
AcDbEntity
  8
0
 62
     0
100
AcDbLine
 10
-1587.42428
 20
-1457.839184
 30
0.0
 11
-1584.946491
 21
-1455.361395
 31
0.0
  0
LINE
  5
2290
100
AcDbEntity
  8
0
 62
     0
100
AcDbLine
 10
-1587.494328
 20
-1457.639824
 30
0.0
 11
-1585.075313
 21
-1455.22081
 31
0.0
  0
LINE
  5
2291
100
AcDbEntity
  8
0
 62
     0
100
AcDbLine
 10
-1587.556628
 20
-1457.432716
 30
0.0
 11
-1585.204136
 21
-1455.080225
 31
0.0
  0
LINE
  5
2292
100
AcDbEntity
  8
0
 62
     0
100
AcDbLine
 10
-1587.612722
 20
-1457.219403
 30
0.0
 11
-1585.332958
 21
-1454.93964
 31
0.0
  0
LINE
  5
2293
100
AcDbEntity
  8
0
 62
     0
100
AcDbLine
 10
-1587.664138
 20
-1457.001411
 30
0.0
 11
-1585.461781
 21
-1454.799054
 31
0.0
  0
LINE
  5
2294
100
AcDbEntity
  8
0
 62
     0
100
AcDbLine
 10
-1587.712399
 20
-1456.780265
 30
0.0
 11
-1585.590604
 21
-1454.658469
 31
0.0
  0
LINE
  5
2295
100
AcDbEntity
  8
0
 62
     0
100
AcDbLine
 10
-1587.759042
 20
-1456.5575
 30
0.0
 11
-1585.719426
 21
-1454.517884
 31
0.0
  0
LINE
  5
2296
100
AcDbEntity
  8
0
 62
     0
100
AcDbLine
 10
-1587.805628
 20
-1456.334679
 30
0.0
 11
-1585.848249
 21
-1454.377299
 31
0.0
  0
LINE
  5
2297
100
AcDbEntity
  8
0
 62
     0
100
AcDbLine
 10
-1587.853759
 20
-1456.113402
 30
0.0
 11
-1585.977071
 21
-1454.236714
 31
0.0
  0
LINE
  5
2298
100
AcDbEntity
  8
0
 62
     0
100
AcDbLine
 10
-1587.905095
 20
-1455.89533
 30
0.0
 11
-1586.105894
 21
-1454.096129
 31
0.0
  0
LINE
  5
2299
100
AcDbEntity
  8
0
 62
     0
100
AcDbLine
 10
-1587.961372
 20
-1455.6822
 30
0.0
 11
-1586.234716
 21
-1453.955544
 31
0.0
  0
LINE
  5
229A
100
AcDbEntity
  8
0
 62
     0
100
AcDbLine
 10
-1588.024424
 20
-1455.475844
 30
0.0
 11
-1586.363539
 21
-1453.814958
 31
0.0
  0
LINE
  5
229B
100
AcDbEntity
  8
0
 62
     0
100
AcDbLine
 10
-1588.096206
 20
-1455.278218
 30
0.0
 11
-1586.492361
 21
-1453.674373
 31
0.0
  0
LINE
  5
229C
100
AcDbEntity
  8
0
 62
     0
100
AcDbLine
 10
-1588.178823
 20
-1455.091427
 30
0.0
 11
-1586.621184
 21
-1453.533788
 31
0.0
  0
LINE
  5
229D
100
AcDbEntity
  8
0
 62
     0
100
AcDbLine
 10
-1588.274566
 20
-1454.917763
 30
0.0
 11
-1586.750006
 21
-1453.393203
 31
0.0
  0
LINE
  5
229E
100
AcDbEntity
  8
0
 62
     0
100
AcDbLine
 10
-1588.38555
 20
-1454.759339
 30
0.0
 11
-1586.878829
 21
-1453.252618
 31
0.0
  0
LINE
  5
229F
100
AcDbEntity
  8
0
 62
     0
100
AcDbLine
 10
-1588.512178
 20
-1454.61656
 30
0.0
 11
-1587.007652
 21
-1453.112033
 31
0.0
  0
LINE
  5
22A0
100
AcDbEntity
  8
0
 62
     0
100
AcDbLine
 10
-1588.654277
 20
-1454.489251
 30
0.0
 11
-1587.136474
 21
-1452.971448
 31
0.0
  0
LINE
  5
22A1
100
AcDbEntity
  8
0
 62
     0
100
AcDbLine
 10
-1588.811587
 20
-1454.377153
 30
0.0
 11
-1587.265297
 21
-1452.830862
 31
0.0
  0
LINE
  5
22A2
100
AcDbEntity
  8
0
 62
     0
100
AcDbLine
 10
-1588.983762
 20
-1454.27992
 30
0.0
 11
-1587.394119
 21
-1452.690277
 31
0.0
  0
LINE
  5
22A3
100
AcDbEntity
  8
0
 62
     0
100
AcDbLine
 10
-1589.170358
 20
-1454.197109
 30
0.0
 11
-1587.522942
 21
-1452.549692
 31
0.0
  0
LINE
  5
22A4
100
AcDbEntity
  8
0
 62
     0
100
AcDbLine
 10
-1589.370839
 20
-1454.128181
 30
0.0
 11
-1587.651764
 21
-1452.409107
 31
0.0
  0
LINE
  5
22A5
100
AcDbEntity
  8
0
 62
     0
100
AcDbLine
 10
-1589.584567
 20
-1454.072502
 30
0.0
 11
-1587.780587
 21
-1452.268522
 31
0.0
  0
LINE
  5
22A6
100
AcDbEntity
  8
0
 62
     0
100
AcDbLine
 10
-1589.810809
 20
-1454.029337
 30
0.0
 11
-1587.909409
 21
-1452.127937
 31
0.0
  0
LINE
  5
22A7
100
AcDbEntity
  8
0
 62
     0
100
AcDbLine
 10
-1590.048738
 20
-1453.997857
 30
0.0
 11
-1588.038232
 21
-1451.987352
 31
0.0
  0
LINE
  5
22A8
100
AcDbEntity
  8
0
 62
     0
100
AcDbLine
 10
-1590.297434
 20
-1453.977146
 30
0.0
 11
-1588.167054
 21
-1451.846767
 31
0.0
  0
LINE
  5
22A9
100
AcDbEntity
  8
0
 62
     0
100
AcDbLine
 10
-1590.555897
 20
-1453.966202
 30
0.0
 11
-1588.295877
 21
-1451.706181
 31
0.0
  0
LINE
  5
22AA
100
AcDbEntity
  8
0
 62
     0
100
AcDbLine
 10
-1590.823055
 20
-1453.963952
 30
0.0
 11
-1588.4247
 21
-1451.565596
 31
0.0
  0
LINE
  5
22AB
100
AcDbEntity
  8
0
 62
     0
100
AcDbLine
 10
-1591.097774
 20
-1453.969263
 30
0.0
 11
-1588.553522
 21
-1451.425011
 31
0.0
  0
LINE
  5
22AC
100
AcDbEntity
  8
0
 62
     0
100
AcDbLine
 10
-1591.378871
 20
-1453.980953
 30
0.0
 11
-1588.682345
 21
-1451.284426
 31
0.0
  0
LINE
  5
22AD
100
AcDbEntity
  8
0
 62
     0
100
AcDbLine
 10
-1591.665132
 20
-1453.997806
 30
0.0
 11
-1588.811167
 21
-1451.143841
 31
0.0
  0
LINE
  5
22AE
100
AcDbEntity
  8
0
 62
     0
100
AcDbLine
 10
-1591.955322
 20
-1454.018588
 30
0.0
 11
-1588.93999
 21
-1451.003256
 31
0.0
  0
LINE
  5
22AF
100
AcDbEntity
  8
0
 62
     0
100
AcDbLine
 10
-1592.248206
 20
-1454.042064
 30
0.0
 11
-1589.068812
 21
-1450.862671
 31
0.0
  0
LINE
  5
22B0
100
AcDbEntity
  8
0
 62
     0
100
AcDbLine
 10
-1592.542559
 20
-1454.06701
 30
0.0
 11
-1589.197635
 21
-1450.722085
 31
0.0
  0
LINE
  5
22B1
100
AcDbEntity
  8
0
 62
     0
100
AcDbLine
 10
-1592.837185
 20
-1454.092228
 30
0.0
 11
-1589.326457
 21
-1450.5815
 31
0.0
  0
LINE
  5
22B2
100
AcDbEntity
  8
0
 62
     0
100
AcDbLine
 10
-1593.130926
 20
-1454.116561
 30
0.0
 11
-1589.45528
 21
-1450.440915
 31
0.0
  0
LINE
  5
22B3
100
AcDbEntity
  8
0
 62
     0
100
AcDbLine
 10
-1593.422677
 20
-1454.138905
 30
0.0
 11
-1589.584102
 21
-1450.30033
 31
0.0
  0
LINE
  5
22B4
100
AcDbEntity
  8
0
 62
     0
100
AcDbLine
 10
-1593.711393
 20
-1454.158213
 30
0.0
 11
-1589.712925
 21
-1450.159745
 31
0.0
  0
LINE
  5
22B5
100
AcDbEntity
  8
0
 62
     0
100
AcDbLine
 10
-1593.996099
 20
-1454.173511
 30
0.0
 11
-1589.841748
 21
-1450.01916
 31
0.0
  0
LINE
  5
22B6
100
AcDbEntity
  8
0
 62
     0
100
AcDbLine
 10
-1594.275893
 20
-1454.183897
 30
0.0
 11
-1589.97057
 21
-1449.878575
 31
0.0
  0
LINE
  5
22B7
100
AcDbEntity
  8
0
 62
     0
100
AcDbLine
 10
-1594.549952
 20
-1454.188548
 30
0.0
 11
-1590.099393
 21
-1449.737989
 31
0.0
  0
LINE
  5
22B8
100
AcDbEntity
  8
0
 62
     0
100
AcDbLine
 10
-1594.817533
 20
-1454.186722
 30
0.0
 11
-1590.228215
 21
-1449.597404
 31
0.0
  0
LINE
  5
22B9
100
AcDbEntity
  8
0
 62
     0
100
AcDbLine
 10
-1595.077973
 20
-1454.177755
 30
0.0
 11
-1590.420986
 21
-1449.520768
 31
0.0
  0
LINE
  5
22BA
100
AcDbEntity
  8
0
 62
     0
100
AcDbLine
 10
-1595.330689
 20
-1454.161063
 30
0.0
 11
-1590.690394
 21
-1449.520768
 31
0.0
  0
LINE
  5
22BB
100
AcDbEntity
  8
0
 62
     0
100
AcDbLine
 10
-1595.575173
 20
-1454.136139
 30
0.0
 11
-1590.959802
 21
-1449.520768
 31
0.0
  0
LINE
  5
22BC
100
AcDbEntity
  8
0
 62
     0
100
AcDbLine
 10
-1595.811059
 20
-1454.102617
 30
0.0
 11
-1591.229209
 21
-1449.520768
 31
0.0
  0
LINE
  5
22BD
100
AcDbEntity
  8
0
 62
     0
100
AcDbLine
 10
-1596.038709
 20
-1454.06086
 30
0.0
 11
-1591.498617
 21
-1449.520768
 31
0.0
  0
LINE
  5
22BE
100
AcDbEntity
  8
0
 62
     0
100
AcDbLine
 10
-1596.258845
 20
-1454.011588
 30
0.0
 11
-1591.768025
 21
-1449.520768
 31
0.0
  0
LINE
  5
22BF
100
AcDbEntity
  8
0
 62
     0
100
AcDbLine
 10
-1596.47212
 20
-1453.955456
 30
0.0
 11
-1592.037432
 21
-1449.520768
 31
0.0
  0
LINE
  5
22C0
100
AcDbEntity
  8
0
 62
     0
100
AcDbLine
 10
-1596.679132
 20
-1453.893059
 30
0.0
 11
-1592.30684
 21
-1449.520768
 31
0.0
  0
LINE
  5
22C1
100
AcDbEntity
  8
0
 62
     0
100
AcDbLine
 10
-1596.880423
 20
-1453.824943
 30
0.0
 11
-1592.576248
 21
-1449.520768
 31
0.0
  0
LINE
  5
22C2
100
AcDbEntity
  8
0
 62
     0
100
AcDbLine
 10
-1597.076496
 20
-1453.751608
 30
0.0
 11
-1592.845655
 21
-1449.520768
 31
0.0
  0
LINE
  5
22C3
100
AcDbEntity
  8
0
 62
     0
100
AcDbLine
 10
-1597.267812
 20
-1453.673516
 30
0.0
 11
-1593.115063
 21
-1449.520768
 31
0.0
  0
LINE
  5
22C4
100
AcDbEntity
  8
0
 62
     0
100
AcDbLine
 10
-1597.454801
 20
-1453.591098
 30
0.0
 11
-1593.384471
 21
-1449.520768
 31
0.0
  0
LINE
  5
22C5
100
AcDbEntity
  8
0
 62
     0
100
AcDbLine
 10
-1597.637865
 20
-1453.504754
 30
0.0
 11
-1593.653878
 21
-1449.520768
 31
0.0
  0
LINE
  5
22C6
100
AcDbEntity
  8
0
 62
     0
100
AcDbLine
 10
-1597.81738
 20
-1453.414861
 30
0.0
 11
-1593.923286
 21
-1449.520768
 31
0.0
  0
LINE
  5
22C7
100
AcDbEntity
  8
0
 62
     0
100
AcDbLine
 10
-1597.993699
 20
-1453.321773
 30
0.0
 11
-1594.192694
 21
-1449.520768
 31
0.0
  0
LINE
  5
22C8
100
AcDbEntity
  8
0
 62
     0
100
AcDbLine
 10
-1598.167161
 20
-1453.225827
 30
0.0
 11
-1594.462101
 21
-1449.520768
 31
0.0
  0
LINE
  5
22C9
100
AcDbEntity
  8
0
 62
     0
100
AcDbLine
 10
-1598.338083
 20
-1453.127342
 30
0.0
 11
-1594.731509
 21
-1449.520768
 31
0.0
  0
LINE
  5
22CA
100
AcDbEntity
  8
0
 62
     0
100
AcDbLine
 10
-1598.506773
 20
-1453.026624
 30
0.0
 11
-1595.000917
 21
-1449.520768
 31
0.0
  0
LINE
  5
22CB
100
AcDbEntity
  8
0
 62
     0
100
AcDbLine
 10
-1598.673523
 20
-1452.923966
 30
0.0
 11
-1595.270324
 21
-1449.520768
 31
0.0
  0
LINE
  5
22CC
100
AcDbEntity
  8
0
 62
     0
100
AcDbLine
 10
-1598.838617
 20
-1452.819653
 30
0.0
 11
-1595.539732
 21
-1449.520768
 31
0.0
  0
LINE
  5
22CD
100
AcDbEntity
  8
0
 62
     0
100
AcDbLine
 10
-1599.002331
 20
-1452.713959
 30
0.0
 11
-1595.80914
 21
-1449.520768
 31
0.0
  0
LINE
  5
22CE
100
AcDbEntity
  8
0
 62
     0
100
AcDbLine
 10
-1599.164933
 20
-1452.607153
 30
0.0
 11
-1596.078548
 21
-1449.520768
 31
0.0
  0
LINE
  5
22CF
100
AcDbEntity
  8
0
 62
     0
100
AcDbLine
 10
-1599.326685
 20
-1452.499497
 30
0.0
 11
-1596.347955
 21
-1449.520768
 31
0.0
  0
LINE
  5
22D0
100
AcDbEntity
  8
0
 62
     0
100
AcDbLine
 10
-1599.487845
 20
-1452.39125
 30
0.0
 11
-1596.617363
 21
-1449.520768
 31
0.0
  0
LINE
  5
22D1
100
AcDbEntity
  8
0
 62
     0
100
AcDbLine
 10
-1599.64867
 20
-1452.282667
 30
0.0
 11
-1596.886771
 21
-1449.520768
 31
0.0
  0
LINE
  5
22D2
100
AcDbEntity
  8
0
 62
     0
100
AcDbLine
 10
-1599.700628
 20
-1452.065217
 30
0.0
 11
-1597.156178
 21
-1449.520768
 31
0.0
  0
LINE
  5
22D3
100
AcDbEntity
  8
0
 62
     0
100
AcDbLine
 10
-1599.700628
 20
-1451.79581
 30
0.0
 11
-1597.425586
 21
-1449.520768
 31
0.0
  0
LINE
  5
22D4
100
AcDbEntity
  8
0
 62
     0
100
AcDbLine
 10
-1599.700628
 20
-1451.526402
 30
0.0
 11
-1597.694994
 21
-1449.520768
 31
0.0
  0
LINE
  5
22D5
100
AcDbEntity
  8
0
 62
     0
100
AcDbLine
 10
-1599.700628
 20
-1451.256994
 30
0.0
 11
-1597.964401
 21
-1449.520768
 31
0.0
  0
LINE
  5
22D6
100
AcDbEntity
  8
0
 62
     0
100
AcDbLine
 10
-1599.700628
 20
-1450.987587
 30
0.0
 11
-1598.233809
 21
-1449.520768
 31
0.0
  0
LINE
  5
22D7
100
AcDbEntity
  8
0
 62
     0
100
AcDbLine
 10
-1599.700628
 20
-1450.718179
 30
0.0
 11
-1598.503217
 21
-1449.520768
 31
0.0
  0
LINE
  5
22D8
100
AcDbEntity
  8
0
 62
     0
100
AcDbLine
 10
-1561.24599
 20
-1452.405286
 30
0.0
 11
-1558.361472
 21
-1449.520768
 31
0.0
  0
LINE
  5
22D9
100
AcDbEntity
  8
0
 62
     0
100
AcDbLine
 10
-1564.196511
 20
-1455.625214
 30
0.0
 11
-1558.092064
 21
-1449.520768
 31
0.0
  0
LINE
  5
22DA
100
AcDbEntity
  8
0
 62
     0
100
AcDbLine
 10
-1567.147032
 20
-1458.845143
 30
0.0
 11
-1557.822656
 21
-1449.520768
 31
0.0
  0
LINE
  5
22DB
100
AcDbEntity
  8
0
 62
     0
100
AcDbLine
 10
-1568.026126
 20
-1459.993645
 30
0.0
 11
-1557.553249
 21
-1449.520768
 31
0.0
  0
LINE
  5
22DC
100
AcDbEntity
  8
0
 62
     0
100
AcDbLine
 10
-1567.758836
 20
-1459.995762
 30
0.0
 11
-1557.283841
 21
-1449.520768
 31
0.0
  0
LINE
  5
22DD
100
AcDbEntity
  8
0
 62
     0
100
AcDbLine
 10
-1567.49094
 20
-1459.997275
 30
0.0
 11
-1557.014433
 21
-1449.520768
 31
0.0
  0
LINE
  5
22DE
100
AcDbEntity
  8
0
 62
     0
100
AcDbLine
 10
-1567.222054
 20
-1459.997796
 30
0.0
 11
-1556.745026
 21
-1449.520768
 31
0.0
  0
LINE
  5
22DF
100
AcDbEntity
  8
0
 62
     0
100
AcDbLine
 10
-1566.951762
 20
-1459.996912
 30
0.0
 11
-1556.475618
 21
-1449.520768
 31
0.0
  0
LINE
  5
22E0
100
AcDbEntity
  8
0
 62
     0
100
AcDbLine
 10
-1566.679607
 20
-1459.994164
 30
0.0
 11
-1556.20621
 21
-1449.520768
 31
0.0
  0
LINE
  5
22E1
100
AcDbEntity
  8
0
 62
     0
100
AcDbLine
 10
-1566.40507
 20
-1459.989035
 30
0.0
 11
-1555.936803
 21
-1449.520768
 31
0.0
  0
LINE
  5
22E2
100
AcDbEntity
  8
0
 62
     0
100
AcDbLine
 10
-1566.127551
 20
-1459.980923
 30
0.0
 11
-1555.667395
 21
-1449.520768
 31
0.0
  0
LINE
  5
22E3
100
AcDbEntity
  8
0
 62
     0
100
AcDbLine
 10
-1565.84633
 20
-1459.96911
 30
0.0
 11
-1555.397987
 21
-1449.520768
 31
0.0
  0
LINE
  5
22E4
100
AcDbEntity
  8
0
 62
     0
100
AcDbLine
 10
-1565.560524
 20
-1459.952712
 30
0.0
 11
-1560.743724
 21
-1455.135912
 31
0.0
  0
LINE
  5
22E5
100
AcDbEntity
  8
0
 62
     0
100
AcDbLine
 10
-1559.859997
 20
-1454.252185
 30
0.0
 11
-1555.12858
 21
-1449.520768
 31
0.0
  0
LINE
  5
22E6
100
AcDbEntity
  8
0
 62
     0
100
AcDbLine
 10
-1565.269006
 20
-1459.930602
 30
0.0
 11
-1560.906172
 21
-1455.567768
 31
0.0
  0
LINE
  5
22E7
100
AcDbEntity
  8
0
 62
     0
100
AcDbLine
 10
-1559.44141
 20
-1454.103006
 30
0.0
 11
-1554.859172
 21
-1449.520768
 31
0.0
  0
LINE
  5
22E8
100
AcDbEntity
  8
0
 62
     0
100
AcDbLine
 10
-1564.970292
 20
-1459.901296
 30
0.0
 11
-1561.006498
 21
-1455.937502
 31
0.0
  0
LINE
  5
22E9
100
AcDbEntity
  8
0
 62
     0
100
AcDbLine
 10
-1559.09985
 20
-1454.030853
 30
0.0
 11
-1554.589764
 21
-1449.520768
 31
0.0
  0
LINE
  5
22EA
100
AcDbEntity
  8
0
 62
     0
100
AcDbLine
 10
-1564.662333
 20
-1459.862744
 30
0.0
 11
-1561.085182
 21
-1456.285593
 31
0.0
  0
LINE
  5
22EB
100
AcDbEntity
  8
0
 62
     0
100
AcDbLine
 10
-1558.791295
 20
-1453.991706
 30
0.0
 11
-1554.320357
 21
-1449.520768
 31
0.0
  0
LINE
  5
22EC
100
AcDbEntity
  8
0
 62
     0
100
AcDbLine
 10
-1564.342132
 20
-1459.81195
 30
0.0
 11
-1561.156533
 21
-1456.626352
 31
0.0
  0
LINE
  5
22ED
100
AcDbEntity
  8
0
 62
     0
100
AcDbLine
 10
-1558.50185
 20
-1453.971668
 30
0.0
 11
-1554.050949
 21
-1449.520768
 31
0.0
  0
LINE
  5
22EE
100
AcDbEntity
  8
0
 62
     0
100
AcDbLine
 10
-1564.004964
 20
-1459.744191
 30
0.0
 11
-1561.229869
 21
-1456.969096
 31
0.0
  0
LINE
  5
22EF
100
AcDbEntity
  8
0
 62
     0
100
AcDbLine
 10
-1558.224942
 20
-1453.964168
 30
0.0
 11
-1553.781541
 21
-1449.520768
 31
0.0
  0
LINE
  5
22F0
100
AcDbEntity
  8
0
 62
     0
100
AcDbLine
 10
-1563.642493
 20
-1459.651127
 30
0.0
 11
-1561.315116
 21
-1457.32375
 31
0.0
  0
LINE
  5
22F1
100
AcDbEntity
  8
0
 62
     0
100
AcDbLine
 10
-1557.956817
 20
-1453.965451
 30
0.0
 11
-1553.512134
 21
-1449.520768
 31
0.0
  0
LINE
  5
22F2
100
AcDbEntity
  8
0
 62
     0
100
AcDbLine
 10
-1563.236992
 20
-1459.515034
 30
0.0
 11
-1561.429425
 21
-1457.707467
 31
0.0
  0
LINE
  5
22F3
100
AcDbEntity
  8
0
 62
     0
100
AcDbLine
 10
-1557.695067
 20
-1453.973109
 30
0.0
 11
-1553.242726
 21
-1449.520768
 31
0.0
  0
LINE
  5
22F4
100
AcDbEntity
  8
0
 62
     0
100
AcDbLine
 10
-1562.731871
 20
-1459.27932
 30
0.0
 11
-1561.629071
 21
-1458.17652
 31
0.0
  0
LINE
  5
22F5
100
AcDbEntity
  8
0
 62
     0
100
AcDbLine
 10
-1557.438016
 20
-1453.985465
 30
0.0
 11
-1552.973318
 21
-1449.520768
 31
0.0
  0
LINE
  5
22F6
100
AcDbEntity
  8
0
 62
     0
100
AcDbLine
 10
-1557.184417
 20
-1454.001274
 30
0.0
 11
-1552.70391
 21
-1449.520768
 31
0.0
  0
LINE
  5
22F7
100
AcDbEntity
  8
0
 62
     0
100
AcDbLine
 10
-1556.933293
 20
-1454.019558
 30
0.0
 11
-1552.434503
 21
-1449.520768
 31
0.0
  0
LINE
  5
22F8
100
AcDbEntity
  8
0
 62
     0
100
AcDbLine
 10
-1556.683841
 20
-1454.039513
 30
0.0
 11
-1552.165095
 21
-1449.520768
 31
0.0
  0
LINE
  5
22F9
100
AcDbEntity
  8
0
 62
     0
100
AcDbLine
 10
-1556.435364
 20
-1454.060445
 30
0.0
 11
-1551.895687
 21
-1449.520768
 31
0.0
  0
LINE
  5
22FA
100
AcDbEntity
  8
0
 62
     0
100
AcDbLine
 10
-1556.187236
 20
-1454.081724
 30
0.0
 11
-1551.62628
 21
-1449.520768
 31
0.0
  0
LINE
  5
22FB
100
AcDbEntity
  8
0
 62
     0
100
AcDbLine
 10
-1555.938864
 20
-1454.102759
 30
0.0
 11
-1551.356872
 21
-1449.520768
 31
0.0
  0
LINE
  5
22FC
100
AcDbEntity
  8
0
 62
     0
100
AcDbLine
 10
-1555.689661
 20
-1454.122965
 30
0.0
 11
-1551.087464
 21
-1449.520768
 31
0.0
  0
LINE
  5
22FD
100
AcDbEntity
  8
0
 62
     0
100
AcDbLine
 10
-1555.439026
 20
-1454.141737
 30
0.0
 11
-1550.818057
 21
-1449.520768
 31
0.0
  0
LINE
  5
22FE
100
AcDbEntity
  8
0
 62
     0
100
AcDbLine
 10
-1555.18631
 20
-1454.158429
 30
0.0
 11
-1550.548649
 21
-1449.520768
 31
0.0
  0
LINE
  5
22FF
100
AcDbEntity
  8
0
 62
     0
100
AcDbLine
 10
-1554.930787
 20
-1454.172313
 30
0.0
 11
-1550.279241
 21
-1449.520768
 31
0.0
  0
LINE
  5
2300
100
AcDbEntity
  8
0
 62
     0
100
AcDbLine
 10
-1554.671609
 20
-1454.182543
 30
0.0
 11
-1550.105231
 21
-1449.616165
 31
0.0
  0
LINE
  5
2301
100
AcDbEntity
  8
0
 62
     0
100
AcDbLine
 10
-1554.40775
 20
-1454.188092
 30
0.0
 11
-1549.970527
 21
-1449.750869
 31
0.0
  0
LINE
  5
2302
100
AcDbEntity
  8
0
 62
     0
100
AcDbLine
 10
-1554.137907
 20
-1454.187656
 30
0.0
 11
-1549.835823
 21
-1449.885572
 31
0.0
  0
LINE
  5
2303
100
AcDbEntity
  8
0
 62
     0
100
AcDbLine
 10
-1553.860353
 20
-1454.179511
 30
0.0
 11
-1549.701119
 21
-1450.020276
 31
0.0
  0
LINE
  5
2304
100
AcDbEntity
  8
0
 62
     0
100
AcDbLine
 10
-1553.572673
 20
-1454.161238
 30
0.0
 11
-1549.566415
 21
-1450.15498
 31
0.0
  0
LINE
  5
2305
100
AcDbEntity
  8
0
 62
     0
100
AcDbLine
 10
-1553.271247
 20
-1454.12922
 30
0.0
 11
-1549.431712
 21
-1450.289684
 31
0.0
  0
LINE
  5
2306
100
AcDbEntity
  8
0
 62
     0
100
AcDbLine
 10
-1552.950767
 20
-1454.078147
 30
0.0
 11
-1549.297008
 21
-1450.424388
 31
0.0
  0
LINE
  5
2307
100
AcDbEntity
  8
0
 62
     0
100
AcDbLine
 10
-1552.605737
 20
-1454.002525
 30
0.0
 11
-1549.200628
 21
-1450.597416
 31
0.0
  0
LINE
  5
2308
100
AcDbEntity
  8
0
 62
     0
100
AcDbLine
 10
-1552.22909
 20
-1453.895285
 30
0.0
 11
-1549.200628
 21
-1450.866823
 31
0.0
  0
LINE
  5
2309
100
AcDbEntity
  8
0
 62
     0
100
AcDbLine
 10
-1551.810343
 20
-1453.745947
 30
0.0
 11
-1549.200628
 21
-1451.136231
 31
0.0
  0
LINE
  5
230A
100
AcDbEntity
  8
0
 62
     0
100
AcDbLine
 10
-1551.333423
 20
-1453.538433
 30
0.0
 11
-1549.200628
 21
-1451.405639
 31
0.0
  0
LINE
  5
230B
100
AcDbEntity
  8
0
 62
     0
100
AcDbLine
 10
-1550.773659
 20
-1453.248077
 30
0.0
 11
-1549.200628
 21
-1451.675046
 31
0.0
  0
LINE
  5
230C
100
AcDbEntity
  8
0
 62
     0
100
AcDbLine
 10
-1550.09903
 20
-1452.842856
 30
0.0
 11
-1549.200628
 21
-1451.944454
 31
0.0
  0
LINE
  5
230D
100
AcDbEntity
  8
0
 62
     0
100
AcDbLine
 10
-1549.304558
 20
-1452.317792
 30
0.0
 11
-1549.200628
 21
-1452.213862
 31
0.0
  0
ENDBLK
  5
230E
100
AcDbEntity
  8
0
100
AcDbBlockEnd
  0
BLOCK
  5
2359
100
AcDbEntity
  8
0
100
AcDbBlockBegin
  2
*D48
 70
    65
 10
0.0
 20
0.0
 30
0.0
  3
*D48
  1

  0
LINE
  5
235A
100
AcDbEntity
  8
0
  6
BYBLOCK
 62
     0
100
AcDbLine
 10
-1658.471094
 20
-1443.708547
 30
0.0
 11
-1689.907173
 21
-1443.708547
 31
0.0
  0
LINE
  5
235B
100
AcDbEntity
  8
0
  6
BYBLOCK
 62
     0
100
AcDbLine
 10
-1682.721094
 20
-1463.616504
 30
0.0
 11
-1689.907173
 21
-1463.616504
 31
0.0
  0
LINE
  5
235C
100
AcDbEntity
  8
0
  6
BYBLOCK
 62
     0
100
AcDbLine
 10
-1688.657173
 20
-1441.208547
 30
0.0
 11
-1688.657173
 21
-1438.708547
 31
0.0
  0
LINE
  5
235D
100
AcDbEntity
  8
0
  6
BYBLOCK
 62
     0
100
AcDbLine
 10
-1688.657173
 20
-1466.116504
 30
0.0
 11
-1688.657173
 21
-1468.616504
 31
0.0
  0
SOLID
  5
235E
100
AcDbEntity
  8
0
  6
BYBLOCK
 62
     0
100
AcDbTrace
 10
-1689.07384
 20
-1441.208547
 30
0.0
 11
-1688.240507
 21
-1441.208547
 31
0.0
 12
-1688.657173
 22
-1443.708547
 32
0.0
 13
-1688.657173
 23
-1443.708547
 33
0.0
  0
SOLID
  5
235F
100
AcDbEntity
  8
0
  6
BYBLOCK
 62
     0
100
AcDbTrace
 10
-1689.07384
 20
-1466.116504
 30
0.0
 11
-1688.240507
 21
-1466.116504
 31
0.0
 12
-1688.657173
 22
-1463.616504
 32
0.0
 13
-1688.657173
 23
-1463.616504
 33
0.0
  0
MTEXT
  5
2360
100
AcDbEntity
  8
0
  6
BYBLOCK
 62
     0
100
AcDbMText
 10
-1692.409942
 20
-1453.662525
 30
0.0
 40
3.5
 41
0.0
 71
     5
 72
     1
  1
\A2;19.91{\H2.800000;\S+0.1^  0;}
 11
0.0
 21
1.0
 31
0.0
  0
POINT
  5
2361
100
AcDbEntity
  8
DEFPOINTS
  6
BYBLOCK
 62
     0
100
AcDbPoint
 10
-1657.846094
 20
-1443.708547
 30
0.0
  0
POINT
  5
2362
100
AcDbEntity
  8
DEFPOINTS
  6
BYBLOCK
 62
     0
100
AcDbPoint
 10
-1682.096094
 20
-1463.616504
 30
0.0
  0
POINT
  5
2363
100
AcDbEntity
  8
DEFPOINTS
  6
BYBLOCK
 62
     0
100
AcDbPoint
 10
-1688.657173
 20
-1463.616504
 30
0.0
  0
ENDBLK
  5
2364
100
AcDbEntity
  8
0
100
AcDbBlockEnd
  0
BLOCK
  5
2345
100
AcDbEntity
  8
0
100
AcDbBlockBegin
  2
*D49
 70
    65
 10
0.0
 20
0.0
 30
0.0
  3
*D49
  1

  0
LINE
  5
2346
100
AcDbEntity
  8
0
  6
BYBLOCK
 62
     0
100
AcDbLine
 10
-1669.245434
 20
-1463.837391
 30
0.0
 11
-1646.446753
 21
-1453.579703
 31
0.0
  0
SOLID
  5
2347
100
AcDbEntity
  8
0
  6
BYBLOCK
 62
     0
100
AcDbTrace
 10
-1669.416396
 20
-1463.457413
 30
0.0
 11
-1669.074473
 21
-1464.217369
 31
0.0
 12
-1671.525302
 22
-1464.86316
 32
0.0
 13
-1671.525302
 23
-1464.86316
 33
0.0
  0
SOLID
  5
2348
100
AcDbEntity
  8
0
  6
BYBLOCK
 62
     0
100
AcDbTrace
 10
-1646.617715
 20
-1453.199725
 30
0.0
 11
-1646.275792
 21
-1453.959681
 31
0.0
 12
-1644.166885
 22
-1452.553935
 32
0.0
 13
-1644.166885
 23
-1452.553935
 33
0.0
  0
MTEXT
  5
2349
100
AcDbEntity
  8
0
  6
BYBLOCK
 62
     0
100
AcDbMText
 10
-1658.820574
 20
-1456.542672
 30
0.0
 40
3.5
 41
0.0
 71
     5
 72
     1
  1
\A1;{\U+220530h7}
 11
0.911947
 21
0.410307
 31
0.0
  0
POINT
  5
234A
100
AcDbEntity
  8
DEFPOINTS
  6
BYBLOCK
 62
     0
100
AcDbPoint
 10
-1644.166885
 20
-1452.553935
 30
0.0
  0
POINT
  5
234B
100
AcDbEntity
  8
DEFPOINTS
  6
BYBLOCK
 62
     0
100
AcDbPoint
 10
-1671.525302
 20
-1464.86316
 30
0.0
  0
ENDBLK
  5
234C
100
AcDbEntity
  8
0
100
AcDbBlockEnd
  0
ENDSEC
  0
SECTION
  2
ENTITIES
  0
LINE
  5
677
100
AcDbEntity
  8
DISEGNO
100
AcDbLine
 10
-1794.961631
 20
-1450.020768
 30
0.0
 11
-1788.721673
 21
-1450.020768
 31
0.0
1001
ACAD
1000
ASC_BOUNDS
1002
{
1070
    19
1005
0
1002
}
  0
LINE
  5
678
100
AcDbEntity
  8
DISEGNO
100
AcDbLine
 10
-1827.532606
 20
-1451.318407
 30
0.0
 11
-1814.933505
 21
-1465.067913
 31
0.0
1001
ACAD
1000
ASC_BOUNDS
1002
{
1070
    19
1005
0
1002
}
  0
LINE
  5
679
100
AcDbEntity
  8
DISEGNO
100
AcDbLine
 10
-1797.910741
 20
-1451.318407
 30
0.0
 11
-1810.509841
 21
-1465.067913
 31
0.0
1001
ACAD
1000
ASC_BOUNDS
1002
{
1070
    19
1005
0
1002
}
  0
LINE
  5
67A
100
AcDbEntity
  8
DISEGNO
100
AcDbLine
 10
-1836.721673
 20
-1450.020768
 30
0.0
 11
-1830.481715
 21
-1450.020768
 31
0.0
1001
ACAD
1000
ASC_BOUNDS
1002
{
1070
    19
1005
0
1002
}
  0
LINE
  5
67C
100
AcDbEntity
  8
DISEGNO
100
AcDbLine
 10
-1837.721673
 20
-1451.020768
 30
0.0
 11
-1837.721673
 21
-1495.520768
 31
0.0
1001
ACAD
1000
ASC_BOUNDS
1002
{
1070
    19
1002
}
  0
LINE
  5
67F
100
AcDbEntity
  8
DISEGNO
100
AcDbLine
 10
-1788.721673
 20
-1450.020768
 30
0.0
 11
-1787.721673
 21
-1451.020768
 31
0.0
1001
ACAD
1000
ASC_BOUNDS
1002
{
1070
    19
1005
0
1002
}
  0
LINE
  5
680
100
AcDbEntity
  8
DISEGNO
100
AcDbLine
 10
-1837.721673
 20
-1451.020768
 30
0.0
 11
-1836.721673
 21
-1450.020768
 31
0.0
1001
ACAD
1000
ASC_BOUNDS
1002
{
1070
    19
1005
0
1002
}
  0
LINE
  5
681
100
AcDbEntity
  8
DISEGNO
100
AcDbLine
 10
-1837.721673
 20
-1504.020768
 30
0.0
 11
-1836.721673
 21
-1505.020768
 31
0.0
  0
LINE
  5
682
100
AcDbEntity
  8
DISEGNO
100
AcDbLine
 10
-1788.721673
 20
-1505.020768
 30
0.0
 11
-1787.721673
 21
-1504.020768
 31
0.0
  0
LINE
  5
683
100
AcDbEntity
  8
DISEGNO
100
AcDbLine
 10
-1807.221673
 20
-1525.020768
 30
0.0
 11
-1806.221673
 21
-1524.020768
 31
0.0
  0
LINE
  5
684
100
AcDbEntity
  8
DISEGNO
100
AcDbLine
 10
-1819.221673
 20
-1524.020768
 30
0.0
 11
-1818.221673
 21
-1525.020768
 31
0.0
  0
LINE
  5
686
100
AcDbEntity
  8
DISEGNO
100
AcDbLine
 10
-1837.721673
 20
-1498.520768
 30
0.0
 11
-1837.721673
 21
-1504.020768
 31
0.0
  0
LINE
  5
687
100
AcDbEntity
  8
DISEGNO
100
AcDbLine
 10
-1837.721673
 20
-1498.520768
 30
0.0
 11
-1836.221673
 21
-1497.020768
 31
0.0
  0
LINE
  5
688
100
AcDbEntity
  8
DISEGNO
100
AcDbLine
 10
-1837.721673
 20
-1495.520768
 30
0.0
 11
-1836.221673
 21
-1497.020768
 31
0.0
  0
LINE
  5
68A
100
AcDbEntity
  8
DISEGNO
100
AcDbLine
 10
-1807.282333
 20
-1505.374321
 30
0.0
 11
-1805.86812
 21
-1503.960107
 31
0.0
  0
LINE
  5
68B
100
AcDbEntity
  8
DISEGNO
100
AcDbLine
 10
-1804.80746
 20
-1505.020768
 30
0.0
 11
-1805.86812
 21
-1503.960107
 31
0.0
  0
LINE
  5
68C
100
AcDbEntity
  8
DISEGNO
100
AcDbLine
 10
-1806.221673
 20
-1506.434981
 30
0.0
 11
-1807.282333
 21
-1505.374321
 31
0.0
  0
LINE
  5
68D
100
AcDbEntity
  8
DISEGNO
100
AcDbLine
 10
-1818.161013
 20
-1505.374321
 30
0.0
 11
-1819.575227
 21
-1503.960107
 31
0.0
  0
LINE
  5
68E
100
AcDbEntity
  8
DISEGNO
100
AcDbLine
 10
-1819.221673
 20
-1506.434981
 30
0.0
 11
-1818.161013
 21
-1505.374321
 31
0.0
  0
LINE
  5
68F
100
AcDbEntity
  8
DISEGNO
100
AcDbLine
 10
-1820.635887
 20
-1505.020768
 30
0.0
 11
-1819.575227
 21
-1503.960107
 31
0.0
  0
LINE
  5
691
100
AcDbEntity
  8
DISEGNO
100
AcDbLine
 10
-1819.221673
 20
-1506.434981
 30
0.0
 11
-1819.221673
 21
-1524.020768
 31
0.0
  0
LINE
  5
692
100
AcDbEntity
  8
DISEGNO
100
AcDbLine
 10
-1836.721673
 20
-1505.020768
 30
0.0
 11
-1820.635887
 21
-1505.020768
 31
0.0
  0
LINE
  5
694
100
AcDbEntity
  8
DISEGNO
100
AcDbLine
 10
-1787.721673
 20
-1504.020768
 30
0.0
 11
-1787.721673
 21
-1451.020768
 31
0.0
1001
ACAD
1000
ASC_BOUNDS
1002
{
1070
    19
1002
}
  0
LINE
  5
695
100
AcDbEntity
  8
DISEGNO
100
AcDbLine
 10
-1804.80746
 20
-1505.020768
 30
0.0
 11
-1788.721673
 21
-1505.020768
 31
0.0
  0
LINE
  5
696
100
AcDbEntity
  8
DISEGNO
100
AcDbLine
 10
-1806.221673
 20
-1524.020768
 30
0.0
 11
-1806.221673
 21
-1506.434981
 31
0.0
  0
LINE
  5
697
100
AcDbEntity
  8
DISEGNO
100
AcDbLine
 10
-1818.221673
 20
-1525.020768
 30
0.0
 11
-1807.221673
 21
-1525.020768
 31
0.0
  0
ARC
  5
1FE4
100
AcDbEntity
  8
DISEGNO
100
AcDbCircle
 10
-1812.721673
 20
-1463.041142
 30
0.0
 40
3.0
100
AcDbArc
 50
222.5
 51
317.5
1001
ACAD
1000
ASC_BOUNDS
1002
{
1070
    19
1005
0
1002
}
  0
ARC
  5
208F
100
AcDbEntity
  8
DISEGNO
100
AcDbCircle
 10
-1830.481715
 20
-1454.020768
 30
0.0
 40
4.0
100
AcDbArc
 50
42.5
 51
90.0
1001
ACAD
1000
ASC_BOUNDS
1002
{
1070
    19
1005
0
1002
}
  0
ARC
  5
2090
100
AcDbEntity
  8
DISEGNO
100
AcDbCircle
 10
-1794.961631
 20
-1454.020768
 30
0.0
 40
4.0
100
AcDbArc
 50
90.0
 51
137.5
1001
ACAD
1000
ASC_BOUNDS
1002
{
1070
    19
1005
0
1002
}
  0
ENDSEC
  0
SECTION
  2
OBJECTS
  0
DICTIONARY
  5
C
100
AcDbDictionary
  3
ACAD_GROUP
350
D
  3
ACAD_MLINESTYLE
350
E
  0
DICTIONARY
  5
D
102
{ACAD_REACTORS
330
C
102
}
100
AcDbDictionary
  0
DICTIONARY
  5
E
102
{ACAD_REACTORS
330
C
102
}
100
AcDbDictionary
  3
STANDARD
350
1C
  0
MLINESTYLE
  5
1C
102
{ACAD_REACTORS
330
E
102
}
100
AcDbMlineStyle
  2
STANDARD
 70
     0
  3

 62
     0
 51
90.0
 52
90.0
 71
     2
 49
0.5
 62
   256
  6
BYLAYER
 49
-0.5
 62
   256
  6
BYLAYER
  0
ENDSEC
  0
EOF
