  0
SECTION
  2
HEADER
  9
$ACADVER
  1
AC1012
  9
$DWGCODEPAGE
  3
iso8859-1
  9
$INSBASE
 10
0.0
 20
0.0
 30
0.0
  9
$EXTMIN
 10
7.0
 20
5.0
 30
0.0
  9
$EXTMAX
 10
202.0
 20
288.0
 30
0.0
  9
$LIMMIN
 10
0.0
 20
0.0
  9
$LIMMAX
 10
210.0
 20
297.0
  9
$ORTHOMODE
 70
     0
  9
$REGENMODE
 70
     1
  9
$FILLMODE
 70
     1
  9
$QTEXTMODE
 70
     0
  9
$MIRRTEXT
 70
     1
  9
$DRAGMODE
 70
     2
  9
$LTSCALE
 40
1.0
  9
$OSMODE
 70
     0
  9
$ATTMODE
 70
     1
  9
$TEXTSIZE
 40
2.5
  9
$TRACEWID
 40
0.05
  9
$TEXTSTYLE
  7
STANDARD
  9
$CLAYER
  8
TEMPRA
  9
$CELTYPE
  6
BYLAYER
  9
$CECOLOR
 62
   256
  9
$CELTSCALE
 40
1.0
  9
$DELOBJ
 70
     1
  9
$DISPSILH
 70
     0
  9
$DIMSCALE
 40
1.0
  9
$DIMASZ
 40
2.5
  9
$DIMEXO
 40
0.625
  9
$DIMDLI
 40
3.75
  9
$DIMRND
 40
0.0
  9
$DIMDLE
 40
0.0
  9
$DIMEXE
 40
1.25
  9
$DIMTP
 40
0.0
  9
$DIMTM
 40
0.0
  9
$DIMTXT
 40
3.0
  9
$DIMCEN
 40
0.0
  9
$DIMTSZ
 40
0.0
  9
$DIMTOL
 70
     0
  9
$DIMLIM
 70
     0
  9
$DIMTIH
 70
     0
  9
$DIMTOH
 70
     0
  9
$DIMSE1
 70
     0
  9
$DIMSE2
 70
     0
  9
$DIMTAD
 70
     1
  9
$DIMZIN
 70
     8
  9
$DIMBLK
  1

  9
$DIMASO
 70
     1
  9
$DIMSHO
 70
     1
  9
$DIMPOST
  1

  9
$DIMAPOST
  1

  9
$DIMALT
 70
     0
  9
$DIMALTD
 70
     2
  9
$DIMALTF
 40
0.03937
  9
$DIMLFAC
 40
1.0
  9
$DIMTOFL
 70
     0
  9
$DIMTVP
 40
0.0
  9
$DIMTIX
 70
     0
  9
$DIMSOXD
 70
     0
  9
$DIMSAH
 70
     0
  9
$DIMBLK1
  1

  9
$DIMBLK2
  1

  9
$DIMSTYLE
  2
STANDARD
  9
$DIMCLRD
 70
     0
  9
$DIMCLRE
 70
     0
  9
$DIMCLRT
 70
     0
  9
$DIMTFAC
 40
1.0
  9
$DIMGAP
 40
0.625
  9
$DIMJUST
 70
     0
  9
$DIMSD1
 70
     0
  9
$DIMSD2
 70
     0
  9
$DIMTOLJ
 70
     1
  9
$DIMTZIN
 70
     8
  9
$DIMALTZ
 70
     0
  9
$DIMALTTZ
 70
     0
  9
$DIMFIT
 70
     3
  9
$DIMUPT
 70
     0
  9
$DIMUNIT
 70
     2
  9
$DIMDEC
 70
     2
  9
$DIMTDEC
 70
     2
  9
$DIMALTU
 70
     2
  9
$DIMALTTD
 70
     2
  9
$DIMTXSTY
  7
STANDARD
  9
$DIMAUNIT
 70
     0
  9
$LUNITS
 70
     2
  9
$LUPREC
 70
     4
  9
$SKETCHINC
 40
0.1
  9
$FILLETRAD
 40
20.0
  9
$AUNITS
 70
     0
  9
$AUPREC
 70
     0
  9
$MENU
  1
acad
  9
$ELEVATION
 40
0.0
  9
$PELEVATION
 40
0.0
  9
$THICKNESS
 40
0.0
  9
$LIMCHECK
 70
     0
  9
$BLIPMODE
 70
     1
  9
$CHAMFERA
 40
0.0
  9
$CHAMFERB
 40
0.0
  9
$CHAMFERC
 40
20.0
  9
$CHAMFERD
 40
0.0
  9
$SKPOLY
 70
     0
  9
$TDCREATE
 40
2451641.469544907
  9
$TDUPDATE
 40
2452630.466587500
  9
$TDINDWG
 40
0.0871706019
  9
$TDUSRTIMER
 40
0.0871706019
  9
$USRTIMER
 70
     1
  9
$ANGBASE
 50
0.0
  9
$ANGDIR
 70
     0
  9
$PDMODE
 70
     0
  9
$PDSIZE
 40
0.0
  9
$PLINEWID
 40
0.0
  9
$COORDS
 70
     1
  9
$SPLFRAME
 70
     0
  9
$SPLINETYPE
 70
     6
  9
$SPLINESEGS
 70
     8
  9
$ATTDIA
 70
     0
  9
$ATTREQ
 70
     1
  9
$HANDLING
 70
     1
  9
$HANDSEED
  5
6E7
  9
$SURFTAB1
 70
     6
  9
$SURFTAB2
 70
     6
  9
$SURFTYPE
 70
     6
  9
$SURFU
 70
     6
  9
$SURFV
 70
     6
  9
$UCSNAME
  2

  9
$UCSORG
 10
0.0
 20
0.0
 30
0.0
  9
$UCSXDIR
 10
1.0
 20
0.0
 30
0.0
  9
$UCSYDIR
 10
0.0
 20
1.0
 30
0.0
  9
$PUCSNAME
  2

  9
$PUCSORG
 10
0.0
 20
0.0
 30
0.0
  9
$PUCSXDIR
 10
1.0
 20
0.0
 30
0.0
  9
$PUCSYDIR
 10
0.0
 20
1.0
 30
0.0
  9
$USERI1
 70
     0
  9
$USERI2
 70
     0
  9
$USERI3
 70
     0
  9
$USERI4
 70
     0
  9
$USERI5
 70
     0
  9
$USERR1
 40
0.0
  9
$USERR2
 40
0.0
  9
$USERR3
 40
0.0
  9
$USERR4
 40
0.0
  9
$USERR5
 40
0.0
  9
$WORLDVIEW
 70
     1
  9
$SHADEDGE
 70
     3
  9
$SHADEDIF
 70
    70
  9
$TILEMODE
 70
     1
  9
$MAXACTVP
 70
    16
  9
$PINSBASE
 10
0.0
 20
0.0
 30
0.0
  9
$PLIMCHECK
 70
     0
  9
$PEXTMIN
 10
1.000000E+20
 20
1.000000E+20
 30
1.000000E+20
  9
$PEXTMAX
 10
-1.000000E+20
 20
-1.000000E+20
 30
-1.000000E+20
  9
$PLIMMIN
 10
0.0
 20
0.0
  9
$PLIMMAX
 10
12.0
 20
9.0
  9
$UNITMODE
 70
     0
  9
$VISRETAIN
 70
     0
  9
$PLINEGEN
 70
     0
  9
$PSLTSCALE
 70
     1
  9
$TREEDEPTH
 70
  3020
  9
$PICKSTYLE
 70
     1
  9
$CMLSTYLE
  2
STANDARD
  9
$CMLJUST
 70
     0
  9
$CMLSCALE
 40
20.0
  9
$SAVEIMAGES
 70
     0
  0
ENDSEC
  0
SECTION
  2
CLASSES
  0
ENDSEC
  0
SECTION
  2
TABLES
  0
TABLE
  2
VPORT
  5
8
100
AcDbSymbolTable
 70
     3
  0
VPORT
  5
6E6
100
AcDbSymbolTableRecord
100
AcDbViewportTableRecord
  2
*ACTIVE
 70
     0
 10
0.0
 20
0.0
 11
1.0
 21
1.0
 12
93.759366
 22
131.94572
 13
0.0
 23
0.0
 14
10.0
 24
10.0
 15
10.0
 25
10.0
 16
0.0
 26
0.0
 36
1.0
 17
0.0
 27
0.0
 37
0.0
 40
298.689404
 41
1.873134
 42
50.0
 43
0.0
 44
0.0
 50
0.0
 51
0.0
 71
     0
 72
   100
 73
     1
 74
     0
 75
     0
 76
     0
 77
     0
 78
     0
  0
ENDTAB
  0
TABLE
  2
LTYPE
  5
5
100
AcDbSymbolTable
 70
     4
  0
LTYPE
  5
13
100
AcDbSymbolTableRecord
100
AcDbLinetypeTableRecord
  2
BYBLOCK
 70
     0
  3

 72
    65
 73
     0
 40
0.0
  0
LTYPE
  5
14
100
AcDbSymbolTableRecord
100
AcDbLinetypeTableRecord
  2
BYLAYER
 70
     0
  3

 72
    65
 73
     0
 40
0.0
  0
LTYPE
  5
15
100
AcDbSymbolTableRecord
100
AcDbLinetypeTableRecord
  2
CONTINUOUS
 70
    64
  3
Solid line
 72
    65
 73
     0
 40
0.0
  0
LTYPE
  5
94
100
AcDbSymbolTableRecord
100
AcDbLinetypeTableRecord
  2
ACAD_ISO04W100
 70
    64
  3
____ . ____ . ____ . ____ . ____ . ____ . ____ 
 72
    65
 73
     4
 40
30.5
 49
24.0
 74
     0
 49
-3.0
 74
     0
 49
0.5
 74
     0
 49
-3.0
 74
     0
  0
LTYPE
  5
225
100
AcDbSymbolTableRecord
100
AcDbLinetypeTableRecord
  2
TRATTEGGIATAX2
 70
    64
  3
____  ____  ____  ____  ____  ____  ____  ____ 
 72
    65
 73
     2
 40
1.5
 49
1.0
 74
     0
 49
-0.5
 74
     0
  0
LTYPE
  5
226
100
AcDbSymbolTableRecord
100
AcDbLinetypeTableRecord
  2
NASCOSTA
 70
    64
  3
__ __ __ __ __ __ __ __ __ __ __ __ __ __ __ __
 72
    65
 73
     2
 40
0.375
 49
0.25
 74
     0
 49
-0.125
 74
     0
  0
ENDTAB
  0
TABLE
  2
LAYER
  5
2
100
AcDbSymbolTable
 70
    10
  0
LAYER
  5
F
100
AcDbSymbolTableRecord
100
AcDbLayerTableRecord
  2
0
 70
     0
 62
     7
  6
CONTINUOUS
  0
LAYER
  5
95
100
AcDbSymbolTableRecord
100
AcDbLayerTableRecord
  2
DISEGNO
 70
    64
 62
     7
  6
CONTINUOUS
  0
LAYER
  5
96
100
AcDbSymbolTableRecord
100
AcDbLayerTableRecord
  2
ASSI
 70
    64
 62
     1
  6
ACAD_ISO04W100
  0
LAYER
  5
97
100
AcDbSymbolTableRecord
100
AcDbLayerTableRecord
  2
SEZIONE
 70
    64
 62
     3
  6
CONTINUOUS
  0
LAYER
  5
98
100
AcDbSymbolTableRecord
100
AcDbLayerTableRecord
  2
TEMPRA
 70
    64
 62
     2
  6
CONTINUOUS
  0
LAYER
  5
99
100
AcDbSymbolTableRecord
100
AcDbLayerTableRecord
  2
QUOTE
 70
    64
 62
     5
  6
CONTINUOUS
  0
LAYER
  5
9A
100
AcDbSymbolTableRecord
100
AcDbLayerTableRecord
  2
FOGLIO
 70
    64
 62
     8
  6
CONTINUOUS
  0
LAYER
  5
1A3
100
AcDbSymbolTableRecord
100
AcDbLayerTableRecord
  2
TRATTO
 70
    64
 62
     6
  6
NASCOSTA
  0
LAYER
  5
27D
100
AcDbSymbolTableRecord
100
AcDbLayerTableRecord
  2
DEFPOINTS
 70
    64
 62
     7
  6
CONTINUOUS
  0
LAYER
  5
518
100
AcDbSymbolTableRecord
100
AcDbLayerTableRecord
  2
TESTO
 70
    64
 62
     6
  6
CONTINUOUS
  0
ENDTAB
  0
TABLE
  2
STYLE
  5
3
100
AcDbSymbolTable
 70
     2
  0
STYLE
  5
10
100
AcDbSymbolTableRecord
100
AcDbTextStyleTableRecord
  2
STANDARD
 70
    64
 40
0.0
 41
1.1
 50
0.0
 71
     0
 42
2.5
  3
C:\Programmi\AutoCAD LT\isocp.shx
  4

  0
STYLE
  5
B0
100
AcDbSymbolTableRecord
100
AcDbTextStyleTableRecord
  2
STYLE3
 70
    64
 40
0.0
 41
1.5
 50
0.0
 71
     0
 42
4.0
  3
C:\Programmi\AutoCAD LT\isocp3.shx
  4

  0
ENDTAB
  0
TABLE
  2
VIEW
  5
6
100
AcDbSymbolTable
 70
     0
  0
ENDTAB
  0
TABLE
  2
UCS
  5
7
100
AcDbSymbolTable
 70
     0
  0
ENDTAB
  0
TABLE
  2
APPID
  5
9
100
AcDbSymbolTable
 70
     1
  0
APPID
  5
11
100
AcDbSymbolTableRecord
100
AcDbRegAppTableRecord
  2
ACAD
 70
     0
  0
ENDTAB
  0
TABLE
  2
DIMSTYLE
  5
A
100
AcDbSymbolTable
 70
    10
  0
DIMSTYLE
105
1D
100
AcDbSymbolTableRecord
100
AcDbDimStyleTableRecord
  2
STANDARD
 70
     0
  3

  4

  5

  6

  7

 40
1.0
 41
2.5
 42
0.625
 43
3.75
 44
1.25
 45
0.0
 46
0.0
 47
0.0
 48
0.0
140
3.0
141
2.5
142
0.0
143
0.03937
144
1.0
145
0.0
146
1.0
147
0.625
 71
     0
 72
     0
 73
     0
 74
     0
 75
     0
 76
     0
 77
     1
 78
     8
170
     0
171
     2
172
     0
173
     0
174
     0
175
     0
176
     0
177
     0
178
     0
270
     2
271
     2
272
     2
273
     2
274
     2
340
10
275
     0
280
     0
281
     0
282
     0
283
     1
284
     8
285
     0
286
     0
287
     3
288
     0
  0
DIMSTYLE
105
198
100
AcDbSymbolTableRecord
100
AcDbDimStyleTableRecord
  2
TOLL-06
 70
     0
  3

  4

  5

  6

  7

 40
1.0
 41
2.5
 42
0.625
 43
3.75
 44
1.25
 45
0.0
 46
0.0
 47
0.1
 48
0.1
140
3.0
141
2.5
142
0.0
143
0.03937
144
1.0
145
0.0
146
0.8
147
0.625
 71
     1
 72
     0
 73
     0
 74
     0
 75
     0
 76
     0
 77
     1
 78
     8
170
     0
171
     2
172
     0
173
     0
174
     0
175
     0
176
     0
177
     0
178
     0
270
     2
271
     2
272
     2
273
     2
274
     2
340
10
275
     0
280
     0
281
     0
282
     0
283
     2
284
     8
285
     0
286
     0
287
     3
288
     0
  0
DIMSTYLE
105
20B
100
AcDbSymbolTableRecord
100
AcDbDimStyleTableRecord
  2
TOLL-01
 70
     0
  3

  4

  5

  6

  7

 40
1.0
 41
2.5
 42
0.625
 43
3.75
 44
1.25
 45
0.0
 46
0.0
 47
0.02
 48
0.0
140
3.0
141
2.5
142
0.0
143
0.03937
144
1.0
145
0.0
146
0.8
147
0.625
 71
     1
 72
     0
 73
     0
 74
     0
 75
     0
 76
     0
 77
     1
 78
     8
170
     0
171
     2
172
     0
173
     0
174
     0
175
     0
176
     0
177
     0
178
     0
270
     2
271
     2
272
     2
273
     2
274
     2
340
10
275
     0
280
     0
281
     0
282
     0
283
     2
284
     8
285
     0
286
     0
287
     3
288
     0
  0
DIMSTYLE
105
232
100
AcDbSymbolTableRecord
100
AcDbDimStyleTableRecord
  2
TOLL-02
 70
     0
  3

  4

  5

  6

  7

 40
1.0
 41
2.5
 42
0.625
 43
3.75
 44
1.25
 45
0.0
 46
0.0
 47
0.0
 48
-0.02
140
3.0
141
2.5
142
0.0
143
0.03937
144
1.0
145
0.0
146
0.8
147
0.625
 71
     1
 72
     0
 73
     0
 74
     0
 75
     0
 76
     0
 77
     1
 78
     8
170
     0
171
     2
172
     0
173
     0
174
     0
175
     0
176
     0
177
     0
178
     0
270
     2
271
     2
272
     2
273
     2
274
     2
340
10
275
     0
280
     0
281
     0
282
     0
283
     2
284
     8
285
     0
286
     0
287
     3
288
     0
  0
DIMSTYLE
105
233
100
AcDbSymbolTableRecord
100
AcDbDimStyleTableRecord
  2
TOLL-03
 70
     0
  3

  4

  5

  6

  7

 40
1.0
 41
2.5
 42
0.625
 43
3.75
 44
1.25
 45
0.0
 46
0.0
 47
0.01
 48
0.01
140
3.0
141
2.5
142
0.0
143
0.03937
144
1.0
145
0.0
146
0.8
147
0.625
 71
     1
 72
     0
 73
     0
 74
     0
 75
     0
 76
     0
 77
     1
 78
     8
170
     0
171
     2
172
     0
173
     0
174
     0
175
     0
176
     0
177
     0
178
     0
270
     2
271
     2
272
     2
273
     2
274
     2
340
10
275
     0
280
     0
281
     0
282
     0
283
     2
284
     8
285
     0
286
     0
287
     3
288
     0
  0
DIMSTYLE
105
234
100
AcDbSymbolTableRecord
100
AcDbDimStyleTableRecord
  2
TOLL-04
 70
     0
  3

  4

  5

  6

  7

 40
1.0
 41
2.5
 42
0.625
 43
3.75
 44
1.25
 45
0.0
 46
0.0
 47
0.05
 48
0.05
140
3.0
141
2.5
142
0.0
143
0.03937
144
1.0
145
0.0
146
0.8
147
0.625
 71
     1
 72
     0
 73
     0
 74
     0
 75
     0
 76
     0
 77
     1
 78
     8
170
     0
171
     2
172
     0
173
     0
174
     0
175
     0
176
     0
177
     0
178
     0
270
     2
271
     2
272
     2
273
     2
274
     2
340
10
275
     0
280
     0
281
     0
282
     0
283
     2
284
     8
285
     0
286
     0
287
     3
288
     0
  0
DIMSTYLE
105
235
100
AcDbSymbolTableRecord
100
AcDbDimStyleTableRecord
  2
TOLL-05
 70
     0
  3

  4

  5

  6

  7

 40
1.0
 41
2.5
 42
0.625
 43
3.75
 44
1.25
 45
0.0
 46
0.0
 47
0.1
 48
0.0
140
3.0
141
2.5
142
0.0
143
0.03937
144
1.0
145
0.0
146
0.8
147
0.625
 71
     1
 72
     0
 73
     0
 74
     0
 75
     0
 76
     0
 77
     1
 78
     8
170
     0
171
     2
172
     0
173
     0
174
     0
175
     0
176
     0
177
     0
178
     0
270
     2
271
     2
272
     2
273
     2
274
     2
340
10
275
     0
280
     0
281
     0
282
     0
283
     2
284
     8
285
     0
286
     0
287
     3
288
     0
  0
DIMSTYLE
105
247
100
AcDbSymbolTableRecord
100
AcDbDimStyleTableRecord
  2
TOLL-07
 70
     0
  3

  4

  5

  6

  7

 40
1.0
 41
2.5
 42
0.625
 43
3.75
 44
1.25
 45
0.0
 46
0.0
 47
-0.1
 48
0.0
140
3.0
141
2.5
142
0.0
143
0.03937
144
1.0
145
0.0
146
1.0
147
0.625
 71
     1
 72
     0
 73
     0
 74
     0
 75
     0
 76
     0
 77
     1
 78
     8
170
     0
171
     2
172
     0
173
     0
174
     0
175
     0
176
     0
177
     0
178
     0
270
     2
271
     2
272
     2
273
     2
274
     2
340
10
275
     0
280
     0
281
     0
282
     0
283
     1
284
     8
285
     0
286
     0
287
     3
288
     0
  0
DIMSTYLE
105
251
100
AcDbSymbolTableRecord
100
AcDbDimStyleTableRecord
  2
TOLL-08
 70
     0
  3

  4

  5

  6

  7

 40
1.0
 41
2.5
 42
0.625
 43
3.75
 44
1.25
 45
0.0
 46
0.0
 47
0.05
 48
0.0
140
3.0
141
2.5
142
0.0
143
0.03937
144
1.0
145
0.0
146
1.0
147
0.625
 71
     1
 72
     0
 73
     0
 74
     0
 75
     0
 76
     0
 77
     1
 78
     8
170
     0
171
     2
172
     0
173
     0
174
     0
175
     0
176
     0
177
     0
178
     0
270
     2
271
     2
272
     2
273
     2
274
     2
340
10
275
     0
280
     0
281
     0
282
     0
283
     1
284
     8
285
     0
286
     0
287
     3
288
     0
  0
DIMSTYLE
105
519
100
AcDbSymbolTableRecord
100
AcDbDimStyleTableRecord
  2
ISO-25
 70
     0
  3

  4

  5

  6

  7

 40
1.0
 41
2.5
 42
0.625
 43
3.75
 44
1.25
 45
0.0
 46
0.0
 47
0.0
 48
0.0
140
2.5
141
2.5
142
0.0
143
0.0394
144
1.0
145
1.0
146
1.0
147
0.625
 71
     0
 72
     0
 73
     1
 74
     0
 75
     0
 76
     0
 77
     1
 78
     8
170
     0
171
     2
172
     1
173
     0
174
     0
175
     0
176
     0
177
     0
178
     0
270
     2
271
     4
272
     4
273
     2
274
     2
340
10
275
     0
280
     0
281
     0
282
     0
283
     1
284
     0
285
     0
286
     0
287
     3
288
     0
  0
ENDTAB
  0
TABLE
  2
BLOCK_RECORD
  5
1
100
AcDbSymbolTable
 70
    30
  0
BLOCK_RECORD
  5
19
100
AcDbSymbolTableRecord
100
AcDbBlockTableRecord
  2
*MODEL_SPACE
  0
BLOCK_RECORD
  5
16
100
AcDbSymbolTableRecord
100
AcDbBlockTableRecord
  2
*PAPER_SPACE
  0
BLOCK_RECORD
  5
28B
100
AcDbSymbolTableRecord
100
AcDbBlockTableRecord
  2
*D0
  0
BLOCK_RECORD
  5
298
100
AcDbSymbolTableRecord
100
AcDbBlockTableRecord
  2
*D1
  0
BLOCK_RECORD
  5
2A6
100
AcDbSymbolTableRecord
100
AcDbBlockTableRecord
  2
*D2
  0
BLOCK_RECORD
  5
2B3
100
AcDbSymbolTableRecord
100
AcDbBlockTableRecord
  2
*D3
  0
BLOCK_RECORD
  5
2C0
100
AcDbSymbolTableRecord
100
AcDbBlockTableRecord
  2
*D4
  0
BLOCK_RECORD
  5
2CD
100
AcDbSymbolTableRecord
100
AcDbBlockTableRecord
  2
*D5
  0
BLOCK_RECORD
  5
2F5
100
AcDbSymbolTableRecord
100
AcDbBlockTableRecord
  2
*D6
  0
BLOCK_RECORD
  5
47D
100
AcDbSymbolTableRecord
100
AcDbBlockTableRecord
  2
*D12
  0
BLOCK_RECORD
  5
486
100
AcDbSymbolTableRecord
100
AcDbBlockTableRecord
  2
*D13
  0
BLOCK_RECORD
  5
494
100
AcDbSymbolTableRecord
100
AcDbBlockTableRecord
  2
*D14
  0
BLOCK_RECORD
  5
4A1
100
AcDbSymbolTableRecord
100
AcDbBlockTableRecord
  2
*D15
  0
BLOCK_RECORD
  5
4AF
100
AcDbSymbolTableRecord
100
AcDbBlockTableRecord
  2
*D16
  0
BLOCK_RECORD
  5
4F3
100
AcDbSymbolTableRecord
100
AcDbBlockTableRecord
  2
RUGOSITA
  0
BLOCK_RECORD
  5
51A
100
AcDbSymbolTableRecord
100
AcDbBlockTableRecord
  2
A$C4175
  0
BLOCK_RECORD
  5
549
100
AcDbSymbolTableRecord
100
AcDbBlockTableRecord
  2
*D20
  0
BLOCK_RECORD
  5
556
100
AcDbSymbolTableRecord
100
AcDbBlockTableRecord
  2
*D21
  0
BLOCK_RECORD
  5
564
100
AcDbSymbolTableRecord
100
AcDbBlockTableRecord
  2
*D22
  0
BLOCK_RECORD
  5
62F
100
AcDbSymbolTableRecord
100
AcDbBlockTableRecord
  2
*D24
  0
BLOCK_RECORD
  5
63E
100
AcDbSymbolTableRecord
100
AcDbBlockTableRecord
  2
*D25
  0
BLOCK_RECORD
  5
647
100
AcDbSymbolTableRecord
100
AcDbBlockTableRecord
  2
*D26
  0
BLOCK_RECORD
  5
661
100
AcDbSymbolTableRecord
100
AcDbBlockTableRecord
  2
*D27
  0
BLOCK_RECORD
  5
685
100
AcDbSymbolTableRecord
100
AcDbBlockTableRecord
  2
*D28
  0
BLOCK_RECORD
  5
6AE
100
AcDbSymbolTableRecord
100
AcDbBlockTableRecord
  2
*X29
  0
ENDTAB
  0
ENDSEC
  0
SECTION
  2
BLOCKS
  0
BLOCK
  5
1A
100
AcDbEntity
  8
0
100
AcDbBlockBegin
  2
*MODEL_SPACE
 70
     0
 10
0.0
 20
0.0
 30
0.0
  3
*MODEL_SPACE
  1

  0
ENDBLK
  5
1B
100
AcDbEntity
  8
0
100
AcDbBlockEnd
  0
BLOCK
  5
17
100
AcDbEntity
 67
     1
  8
0
100
AcDbBlockBegin
  2
*PAPER_SPACE
 70
     0
 10
0.0
 20
0.0
 30
0.0
  3
*PAPER_SPACE
  1

  0
ENDBLK
  5
18
100
AcDbEntity
 67
     1
  8
0
100
AcDbBlockEnd
  0
BLOCK
  5
3D0
100
AcDbEntity
  8
0
100
AcDbBlockBegin
  2
*D0
 70
    65
 10
0.0
 20
0.0
 30
0.0
  3
*D0
  1

  0
LINE
  5
3D1
100
AcDbEntity
  8
0
  6
BYBLOCK
 62
     0
100
AcDbLine
 10
87.47196
 20
212.093024
 30
0.0
 11
87.47196
 21
241.254052
 31
0.0
  0
LINE
  5
3D2
100
AcDbEntity
  8
0
  6
BYBLOCK
 62
     0
100
AcDbLine
 10
100.47196
 20
212.093024
 30
0.0
 11
100.47196
 21
241.254052
 31
0.0
  0
LINE
  5
3D3
100
AcDbEntity
  8
0
  6
BYBLOCK
 62
     0
100
AcDbLine
 10
97.97196
 20
240.004052
 30
0.0
 11
89.97196
 21
240.004052
 31
0.0
  0
LINE
  5
3D4
100
AcDbEntity
  8
0
  6
BYBLOCK
 62
     0
100
AcDbLine
 10
87.47196
 20
240.004052
 30
0.0
 11
73.45296
 21
240.004052
 31
0.0
  0
SOLID
  5
3D5
100
AcDbEntity
  8
0
  6
BYBLOCK
 62
     0
100
AcDbTrace
 10
97.97196
 20
240.420719
 30
0.0
 11
97.97196
 21
239.587385
 31
0.0
 12
100.47196
 22
240.004052
 32
0.0
 13
100.47196
 23
240.004052
 33
0.0
  0
SOLID
  5
3D6
100
AcDbEntity
  8
0
  6
BYBLOCK
 62
     0
100
AcDbTrace
 10
89.97196
 20
240.420719
 30
0.0
 11
89.97196
 21
239.587385
 31
0.0
 12
87.47196
 22
240.004052
 32
0.0
 13
87.47196
 23
240.004052
 33
0.0
  0
MTEXT
  5
3D7
100
AcDbEntity
  8
0
  6
BYBLOCK
 62
     0
100
AcDbMText
 10
80.14996
 20
243.369761
 30
0.0
 40
3.0
 41
0.0
 71
     5
 72
     1
  1
\A2;13{\H2.400000;\S+0.02^  0;}
  0
POINT
  5
3D8
100
AcDbEntity
  8
DEFPOINTS
  6
BYBLOCK
 62
     0
100
AcDbPoint
 10
87.47196
 20
211.468024
 30
0.0
  0
POINT
  5
3D9
100
AcDbEntity
  8
DEFPOINTS
  6
BYBLOCK
 62
     0
100
AcDbPoint
 10
100.47196
 20
211.468024
 30
0.0
  0
POINT
  5
3DA
100
AcDbEntity
  8
DEFPOINTS
  6
BYBLOCK
 62
     0
100
AcDbPoint
 10
100.47196
 20
240.004052
 30
0.0
  0
ENDBLK
  5
3DB
100
AcDbEntity
  8
0
100
AcDbBlockEnd
  0
BLOCK
  5
400
100
AcDbEntity
  8
0
100
AcDbBlockBegin
  2
*D1
 70
    65
 10
0.0
 20
0.0
 30
0.0
  3
*D1
  1

  0
LINE
  5
401
100
AcDbEntity
  8
0
  6
BYBLOCK
 62
     0
100
AcDbLine
 10
100.47196
 20
212.093024
 30
0.0
 11
100.47196
 21
241.254052
 31
0.0
  0
LINE
  5
402
100
AcDbEntity
  8
0
  6
BYBLOCK
 62
     0
100
AcDbLine
 10
107.47196
 20
234.269444
 30
0.0
 11
107.47196
 21
241.254052
 31
0.0
  0
LINE
  5
403
100
AcDbEntity
  8
0
  6
BYBLOCK
 62
     0
100
AcDbLine
 10
102.97196
 20
240.004052
 30
0.0
 11
104.97196
 21
240.004052
 31
0.0
  0
LINE
  5
404
100
AcDbEntity
  8
0
  6
BYBLOCK
 62
     0
100
AcDbLine
 10
107.47196
 20
240.004052
 30
0.0
 11
126.63989
 21
240.004052
 31
0.0
  0
SOLID
  5
405
100
AcDbEntity
  8
0
  6
BYBLOCK
 62
     0
100
AcDbTrace
 10
102.97196
 20
240.420719
 30
0.0
 11
102.97196
 21
239.587385
 31
0.0
 12
100.47196
 22
240.004052
 32
0.0
 13
100.47196
 23
240.004052
 33
0.0
  0
SOLID
  5
406
100
AcDbEntity
  8
0
  6
BYBLOCK
 62
     0
100
AcDbTrace
 10
104.97196
 20
240.420719
 30
0.0
 11
104.97196
 21
239.587385
 31
0.0
 12
107.47196
 22
240.004052
 32
0.0
 13
107.47196
 23
240.004052
 33
0.0
  0
MTEXT
  5
407
100
AcDbEntity
  8
0
  6
BYBLOCK
 62
     0
100
AcDbMText
 10
121.42789
 20
242.129052
 30
0.0
 40
3.0
 41
0.0
 71
     5
 72
     1
  1
\A2;7{\H2.400000;±0.01}
  0
POINT
  5
408
100
AcDbEntity
  8
DEFPOINTS
  6
BYBLOCK
 62
     0
100
AcDbPoint
 10
100.47196
 20
211.468024
 30
0.0
  0
POINT
  5
409
100
AcDbEntity
  8
DEFPOINTS
  6
BYBLOCK
 62
     0
100
AcDbPoint
 10
107.47196
 20
233.644444
 30
0.0
  0
POINT
  5
40A
100
AcDbEntity
  8
DEFPOINTS
  6
BYBLOCK
 62
     0
100
AcDbPoint
 10
107.47196
 20
240.004052
 30
0.0
  0
ENDBLK
  5
40B
100
AcDbEntity
  8
0
100
AcDbBlockEnd
  0
BLOCK
  5
3AE
100
AcDbEntity
  8
0
100
AcDbBlockBegin
  2
*D2
 70
    65
 10
0.0
 20
0.0
 30
0.0
  3
*D2
  1

  0
LINE
  5
3AF
100
AcDbEntity
  8
0
  6
BYBLOCK
 62
     0
100
AcDbLine
 10
58.47196
 20
171.093024
 30
0.0
 11
58.47196
 21
253.871134
 31
0.0
  0
LINE
  5
3B0
100
AcDbEntity
  8
0
  6
BYBLOCK
 62
     0
100
AcDbLine
 10
114.47196
 20
182.093024
 30
0.0
 11
114.47196
 21
253.871134
 31
0.0
  0
LINE
  5
3B1
100
AcDbEntity
  8
0
  6
BYBLOCK
 62
     0
100
AcDbLine
 10
60.97196
 20
252.621134
 30
0.0
 11
111.97196
 21
252.621134
 31
0.0
  0
SOLID
  5
3B2
100
AcDbEntity
  8
0
  6
BYBLOCK
 62
     0
100
AcDbTrace
 10
60.97196
 20
253.037801
 30
0.0
 11
60.97196
 21
252.204468
 31
0.0
 12
58.47196
 22
252.621134
 32
0.0
 13
58.47196
 23
252.621134
 33
0.0
  0
SOLID
  5
3B3
100
AcDbEntity
  8
0
  6
BYBLOCK
 62
     0
100
AcDbTrace
 10
111.97196
 20
253.037801
 30
0.0
 11
111.97196
 21
252.204468
 31
0.0
 12
114.47196
 22
252.621134
 32
0.0
 13
114.47196
 23
252.621134
 33
0.0
  0
MTEXT
  5
3B4
100
AcDbEntity
  8
0
  6
BYBLOCK
 62
     0
100
AcDbMText
 10
86.47196
 20
254.746134
 30
0.0
 40
3.0
 41
0.0
 71
     5
 72
     1
  1
\A2;56{\H2.400000;±0.05}
  0
POINT
  5
3B5
100
AcDbEntity
  8
DEFPOINTS
  6
BYBLOCK
 62
     0
100
AcDbPoint
 10
58.47196
 20
170.468024
 30
0.0
  0
POINT
  5
3B6
100
AcDbEntity
  8
DEFPOINTS
  6
BYBLOCK
 62
     0
100
AcDbPoint
 10
114.47196
 20
181.468024
 30
0.0
  0
POINT
  5
3B7
100
AcDbEntity
  8
DEFPOINTS
  6
BYBLOCK
 62
     0
100
AcDbPoint
 10
114.47196
 20
252.621134
 30
0.0
  0
ENDBLK
  5
3B8
100
AcDbEntity
  8
0
100
AcDbBlockEnd
  0
BLOCK
  5
3B9
100
AcDbEntity
  8
0
100
AcDbBlockBegin
  2
*D3
 70
    65
 10
0.0
 20
0.0
 30
0.0
  3
*D3
  1

  0
LINE
  5
3BA
100
AcDbEntity
  8
0
  6
BYBLOCK
 62
     0
100
AcDbLine
 10
87.47196
 20
212.093024
 30
0.0
 11
87.47196
 21
234.651153
 31
0.0
  0
LINE
  5
3BB
100
AcDbEntity
  8
0
  6
BYBLOCK
 62
     0
100
AcDbLine
 10
58.47196
 20
171.093024
 30
0.0
 11
58.47196
 21
234.651153
 31
0.0
  0
LINE
  5
3BC
100
AcDbEntity
  8
0
  6
BYBLOCK
 62
     0
100
AcDbLine
 10
84.97196
 20
233.401153
 30
0.0
 11
60.97196
 21
233.401153
 31
0.0
  0
SOLID
  5
3BD
100
AcDbEntity
  8
0
  6
BYBLOCK
 62
     0
100
AcDbTrace
 10
84.97196
 20
233.81782
 30
0.0
 11
84.97196
 21
232.984486
 31
0.0
 12
87.47196
 22
233.401153
 32
0.0
 13
87.47196
 23
233.401153
 33
0.0
  0
SOLID
  5
3BE
100
AcDbEntity
  8
0
  6
BYBLOCK
 62
     0
100
AcDbTrace
 10
60.97196
 20
233.81782
 30
0.0
 11
60.97196
 21
232.984486
 31
0.0
 12
58.47196
 22
233.401153
 32
0.0
 13
58.47196
 23
233.401153
 33
0.0
  0
MTEXT
  5
3BF
100
AcDbEntity
  8
0
  6
BYBLOCK
 62
     0
100
AcDbMText
 10
72.97196
 20
235.526153
 30
0.0
 40
3.0
 41
0.0
 71
     5
 72
     1
  1
\A2;29{\H2.400000;±0.05}
  0
POINT
  5
3C0
100
AcDbEntity
  8
DEFPOINTS
  6
BYBLOCK
 62
     0
100
AcDbPoint
 10
87.47196
 20
211.468024
 30
0.0
  0
POINT
  5
3C1
100
AcDbEntity
  8
DEFPOINTS
  6
BYBLOCK
 62
     0
100
AcDbPoint
 10
58.47196
 20
170.468024
 30
0.0
  0
POINT
  5
3C2
100
AcDbEntity
  8
DEFPOINTS
  6
BYBLOCK
 62
     0
100
AcDbPoint
 10
58.47196
 20
233.401153
 30
0.0
  0
ENDBLK
  5
3C3
100
AcDbEntity
  8
0
100
AcDbBlockEnd
  0
BLOCK
  5
2C1
100
AcDbEntity
  8
0
100
AcDbBlockBegin
  2
*D4
 70
    65
 10
0.0
 20
0.0
 30
0.0
  3
*D4
  1

  0
LINE
  5
2C2
100
AcDbEntity
  8
0
  6
BYBLOCK
 62
     0
100
AcDbLine
 10
87.84696
 20
212.468024
 30
0.0
 11
75.819788
 21
212.468024
 31
0.0
  0
LINE
  5
2C3
100
AcDbEntity
  8
0
  6
BYBLOCK
 62
     0
100
AcDbLine
 10
87.84696
 20
195.468024
 30
0.0
 11
75.819788
 21
195.468024
 31
0.0
  0
LINE
  5
2C4
100
AcDbEntity
  8
0
  6
BYBLOCK
 62
     0
100
AcDbLine
 10
77.069788
 20
209.968024
 30
0.0
 11
77.069788
 21
197.968024
 31
0.0
  0
SOLID
  5
2C5
100
AcDbEntity
  8
0
  6
BYBLOCK
 62
     0
100
AcDbTrace
 10
76.653121
 20
209.968024
 30
0.0
 11
77.486454
 21
209.968024
 31
0.0
 12
77.069788
 22
212.468024
 32
0.0
 13
77.069788
 23
212.468024
 33
0.0
  0
SOLID
  5
2C6
100
AcDbEntity
  8
0
  6
BYBLOCK
 62
     0
100
AcDbTrace
 10
76.653121
 20
197.968024
 30
0.0
 11
77.486454
 21
197.968024
 31
0.0
 12
77.069788
 22
195.468024
 32
0.0
 13
77.069788
 23
195.468024
 33
0.0
  0
MTEXT
  5
2C7
100
AcDbEntity
  8
0
  6
BYBLOCK
 62
     0
100
AcDbMText
 10
74.944788
 20
203.968024
 30
0.0
 40
3.0
 41
0.0
 71
     5
 72
     1
  1
\A1;17
 11
0.0
 21
1.0
 31
0.0
  0
POINT
  5
2C8
100
AcDbEntity
  8
DEFPOINTS
  6
BYBLOCK
 62
     0
100
AcDbPoint
 10
88.47196
 20
212.468024
 30
0.0
  0
POINT
  5
2C9
100
AcDbEntity
  8
DEFPOINTS
  6
BYBLOCK
 62
     0
100
AcDbPoint
 10
88.47196
 20
195.468024
 30
0.0
  0
POINT
  5
2CA
100
AcDbEntity
  8
DEFPOINTS
  6
BYBLOCK
 62
     0
100
AcDbPoint
 10
77.069788
 20
195.468024
 30
0.0
  0
ENDBLK
  5
2CB
100
AcDbEntity
  8
0
100
AcDbBlockEnd
  0
BLOCK
  5
2CE
100
AcDbEntity
  8
0
100
AcDbBlockBegin
  2
*D5
 70
    65
 10
0.0
 20
0.0
 30
0.0
  3
*D5
  1

  0
LINE
  5
2CF
100
AcDbEntity
  8
0
  6
BYBLOCK
 62
     0
100
AcDbLine
 10
87.84696
 20
195.468024
 30
0.0
 11
75.819788
 21
195.468024
 31
0.0
  0
LINE
  5
2D0
100
AcDbEntity
  8
0
  6
BYBLOCK
 62
     0
100
AcDbLine
 10
87.84696
 20
187.068024
 30
0.0
 11
75.819788
 21
187.068024
 31
0.0
  0
LINE
  5
2D1
100
AcDbEntity
  8
0
  6
BYBLOCK
 62
     0
100
AcDbLine
 10
77.069788
 20
197.968024
 30
0.0
 11
77.069788
 21
200.468024
 31
0.0
  0
LINE
  5
2D2
100
AcDbEntity
  8
0
  6
BYBLOCK
 62
     0
100
AcDbLine
 10
77.069788
 20
184.568024
 30
0.0
 11
77.069788
 21
182.068024
 31
0.0
  0
SOLID
  5
2D3
100
AcDbEntity
  8
0
  6
BYBLOCK
 62
     0
100
AcDbTrace
 10
76.653121
 20
197.968024
 30
0.0
 11
77.486454
 21
197.968024
 31
0.0
 12
77.069788
 22
195.468024
 32
0.0
 13
77.069788
 23
195.468024
 33
0.0
  0
SOLID
  5
2D4
100
AcDbEntity
  8
0
  6
BYBLOCK
 62
     0
100
AcDbTrace
 10
76.653121
 20
184.568024
 30
0.0
 11
77.486454
 21
184.568024
 31
0.0
 12
77.069788
 22
187.068024
 32
0.0
 13
77.069788
 23
187.068024
 33
0.0
  0
MTEXT
  5
2D5
100
AcDbEntity
  8
0
  6
BYBLOCK
 62
     0
100
AcDbMText
 10
74.944788
 20
191.268024
 30
0.0
 40
3.0
 41
0.0
 71
     5
 72
     1
  1
\A1;8.4
 11
0.0
 21
1.0
 31
0.0
  0
POINT
  5
2D6
100
AcDbEntity
  8
DEFPOINTS
  6
BYBLOCK
 62
     0
100
AcDbPoint
 10
88.47196
 20
195.468024
 30
0.0
  0
POINT
  5
2D7
100
AcDbEntity
  8
DEFPOINTS
  6
BYBLOCK
 62
     0
100
AcDbPoint
 10
88.47196
 20
187.068024
 30
0.0
  0
POINT
  5
2D8
100
AcDbEntity
  8
DEFPOINTS
  6
BYBLOCK
 62
     0
100
AcDbPoint
 10
77.069788
 20
187.068024
 30
0.0
  0
ENDBLK
  5
2D9
100
AcDbEntity
  8
0
100
AcDbBlockEnd
  0
BLOCK
  5
3A3
100
AcDbEntity
  8
0
100
AcDbBlockBegin
  2
*D6
 70
    65
 10
0.0
 20
0.0
 30
0.0
  3
*D6
  1

  0
LINE
  5
3A4
100
AcDbEntity
  8
0
  6
BYBLOCK
 62
     0
100
AcDbLine
 10
100.09696
 20
212.468024
 30
0.0
 11
168.771288
 21
212.468024
 31
0.0
  0
LINE
  5
3A5
100
AcDbEntity
  8
0
  6
BYBLOCK
 62
     0
100
AcDbLine
 10
114.09696
 20
182.468024
 30
0.0
 11
168.771288
 21
182.468024
 31
0.0
  0
LINE
  5
3A6
100
AcDbEntity
  8
0
  6
BYBLOCK
 62
     0
100
AcDbLine
 10
167.521288
 20
209.968024
 30
0.0
 11
167.521288
 21
184.968024
 31
0.0
  0
SOLID
  5
3A7
100
AcDbEntity
  8
0
  6
BYBLOCK
 62
     0
100
AcDbTrace
 10
167.104621
 20
209.968024
 30
0.0
 11
167.937954
 21
209.968024
 31
0.0
 12
167.521288
 22
212.468024
 32
0.0
 13
167.521288
 23
212.468024
 33
0.0
  0
SOLID
  5
3A8
100
AcDbEntity
  8
0
  6
BYBLOCK
 62
     0
100
AcDbTrace
 10
167.104621
 20
184.968024
 30
0.0
 11
167.937954
 21
184.968024
 31
0.0
 12
167.521288
 22
182.468024
 32
0.0
 13
167.521288
 23
182.468024
 33
0.0
  0
MTEXT
  5
3A9
100
AcDbEntity
  8
0
  6
BYBLOCK
 62
     0
100
AcDbMText
 10
165.396288
 20
196.833847
 30
0.0
 40
3.0
 41
0.0
 71
     5
 72
     1
  1
\A1;30
 11
0.0
 21
1.0
 31
0.0
  0
POINT
  5
3AA
100
AcDbEntity
  8
DEFPOINTS
  6
BYBLOCK
 62
     0
100
AcDbPoint
 10
99.47196
 20
212.468024
 30
0.0
  0
POINT
  5
3AB
100
AcDbEntity
  8
DEFPOINTS
  6
BYBLOCK
 62
     0
100
AcDbPoint
 10
113.47196
 20
182.468024
 30
0.0
  0
POINT
  5
3AC
100
AcDbEntity
  8
DEFPOINTS
  6
BYBLOCK
 62
     0
100
AcDbPoint
 10
167.521288
 20
182.468024
 30
0.0
  0
ENDBLK
  5
3AD
100
AcDbEntity
  8
0
100
AcDbBlockEnd
  0
BLOCK
  5
47E
100
AcDbEntity
  8
0
100
AcDbBlockBegin
  2
*D12
 70
    65
 10
0.0
 20
0.0
 30
0.0
  3
*D12
  1

  0
LINE
  5
47F
100
AcDbEntity
  8
0
  6
BYBLOCK
 62
     0
100
AcDbLine
 10
107.122988
 20
138.334782
 30
0.0
 11
89.906818
 21
141.473806
 31
0.0
  0
SOLID
  5
480
100
AcDbEntity
  8
0
  6
BYBLOCK
 62
     0
100
AcDbTrace
 10
89.981557
 20
141.883715
 30
0.0
 11
89.832079
 21
141.063897
 31
0.0
 12
87.447365
 22
141.922238
 32
0.0
 13
87.447365
 23
141.922238
 33
0.0
  0
MTEXT
  5
481
100
AcDbEntity
  8
0
  6
BYBLOCK
 62
     0
100
AcDbMText
 10
97.666344
 20
142.219045
 30
0.0
 40
3.0
 41
0.0
 71
     5
 72
     1
  1
\A1;R20
 11
0.983781
 21
-0.179373
 31
0.0
  0
POINT
  5
482
100
AcDbEntity
  8
DEFPOINTS
  6
BYBLOCK
 62
     0
100
AcDbPoint
 10
87.447365
 20
141.922238
 30
0.0
  0
POINT
  5
483
100
AcDbEntity
  8
DEFPOINTS
  6
BYBLOCK
 62
     0
100
AcDbPoint
 10
107.122988
 20
138.334782
 30
0.0
  0
ENDBLK
  5
484
100
AcDbEntity
  8
0
100
AcDbBlockEnd
  0
BLOCK
  5
487
100
AcDbEntity
  8
0
100
AcDbBlockBegin
  2
*D13
 70
    65
 10
0.0
 20
0.0
 30
0.0
  3
*D13
  1

  0
LINE
  5
488
100
AcDbEntity
  8
0
  6
BYBLOCK
 62
     0
100
AcDbLine
 10
114.09696
 20
182.468024
 30
0.0
 11
135.761745
 21
182.468024
 31
0.0
  0
LINE
  5
489
100
AcDbEntity
  8
0
  6
BYBLOCK
 62
     0
100
AcDbLine
 10
115.09696
 20
173.968024
 30
0.0
 11
135.761745
 21
173.968024
 31
0.0
  0
LINE
  5
48A
100
AcDbEntity
  8
0
  6
BYBLOCK
 62
     0
100
AcDbLine
 10
134.511745
 20
184.968024
 30
0.0
 11
134.511745
 21
187.468024
 31
0.0
  0
LINE
  5
48B
100
AcDbEntity
  8
0
  6
BYBLOCK
 62
     0
100
AcDbLine
 10
134.511745
 20
171.468024
 30
0.0
 11
134.511745
 21
168.968024
 31
0.0
  0
SOLID
  5
48C
100
AcDbEntity
  8
0
  6
BYBLOCK
 62
     0
100
AcDbTrace
 10
134.095078
 20
184.968024
 30
0.0
 11
134.928411
 21
184.968024
 31
0.0
 12
134.511745
 22
182.468024
 32
0.0
 13
134.511745
 23
182.468024
 33
0.0
  0
SOLID
  5
48D
100
AcDbEntity
  8
0
  6
BYBLOCK
 62
     0
100
AcDbTrace
 10
134.095078
 20
171.468024
 30
0.0
 11
134.928411
 21
171.468024
 31
0.0
 12
134.511745
 22
173.968024
 32
0.0
 13
134.511745
 23
173.968024
 33
0.0
  0
MTEXT
  5
48E
100
AcDbEntity
  8
0
  6
BYBLOCK
 62
     0
100
AcDbMText
 10
132.386745
 20
178.218024
 30
0.0
 40
3.0
 41
0.0
 71
     5
 72
     1
  1
\A1;8.5
 11
0.0
 21
1.0
 31
0.0
  0
POINT
  5
48F
100
AcDbEntity
  8
DEFPOINTS
  6
BYBLOCK
 62
     0
100
AcDbPoint
 10
113.47196
 20
182.468024
 30
0.0
  0
POINT
  5
490
100
AcDbEntity
  8
DEFPOINTS
  6
BYBLOCK
 62
     0
100
AcDbPoint
 10
114.47196
 20
173.968024
 30
0.0
  0
POINT
  5
491
100
AcDbEntity
  8
DEFPOINTS
  6
BYBLOCK
 62
     0
100
AcDbPoint
 10
134.511745
 20
173.968024
 30
0.0
  0
ENDBLK
  5
492
100
AcDbEntity
  8
0
100
AcDbBlockEnd
  0
BLOCK
  5
495
100
AcDbEntity
  8
0
100
AcDbBlockBegin
  2
*D14
 70
    65
 10
0.0
 20
0.0
 30
0.0
  3
*D14
  1

  0
LINE
  5
496
100
AcDbEntity
  8
0
  6
BYBLOCK
 62
     0
100
AcDbLine
 10
115.09696
 20
173.968024
 30
0.0
 11
135.761745
 21
173.968024
 31
0.0
  0
LINE
  5
497
100
AcDbEntity
  8
0
  6
BYBLOCK
 62
     0
100
AcDbLine
 10
107.747988
 20
138.334782
 30
0.0
 11
135.761745
 21
138.334782
 31
0.0
  0
LINE
  5
498
100
AcDbEntity
  8
0
  6
BYBLOCK
 62
     0
100
AcDbLine
 10
134.511745
 20
171.468024
 30
0.0
 11
134.511745
 21
140.834782
 31
0.0
  0
SOLID
  5
499
100
AcDbEntity
  8
0
  6
BYBLOCK
 62
     0
100
AcDbTrace
 10
134.095078
 20
171.468024
 30
0.0
 11
134.928411
 21
171.468024
 31
0.0
 12
134.511745
 22
173.968024
 32
0.0
 13
134.511745
 23
173.968024
 33
0.0
  0
SOLID
  5
49A
100
AcDbEntity
  8
0
  6
BYBLOCK
 62
     0
100
AcDbTrace
 10
134.095078
 20
140.834782
 30
0.0
 11
134.928411
 21
140.834782
 31
0.0
 12
134.511745
 22
138.334782
 32
0.0
 13
134.511745
 23
138.334782
 33
0.0
  0
MTEXT
  5
49B
100
AcDbEntity
  8
0
  6
BYBLOCK
 62
     0
100
AcDbMText
 10
132.386745
 20
156.151403
 30
0.0
 40
3.0
 41
0.0
 71
     5
 72
     1
  1
\A1;35.63
 11
0.0
 21
1.0
 31
0.0
  0
POINT
  5
49C
100
AcDbEntity
  8
DEFPOINTS
  6
BYBLOCK
 62
     0
100
AcDbPoint
 10
114.47196
 20
173.968024
 30
0.0
  0
POINT
  5
49D
100
AcDbEntity
  8
DEFPOINTS
  6
BYBLOCK
 62
     0
100
AcDbPoint
 10
107.122988
 20
138.334782
 30
0.0
  0
POINT
  5
49E
100
AcDbEntity
  8
DEFPOINTS
  6
BYBLOCK
 62
     0
100
AcDbPoint
 10
134.511745
 20
138.334782
 30
0.0
  0
ENDBLK
  5
49F
100
AcDbEntity
  8
0
100
AcDbBlockEnd
  0
BLOCK
  5
4A2
100
AcDbEntity
  8
0
100
AcDbBlockBegin
  2
*D15
 70
    65
 10
0.0
 20
0.0
 30
0.0
  3
*D15
  1

  0
ARC
  5
4A3
100
AcDbEntity
  8
0
  6
BYBLOCK
 62
     0
100
AcDbCircle
 10
107.47196
 20
166.968024
 30
0.0
 40
8.443101
100
AcDbArc
 50
23.729854
 51
45.0
  0
ARC
  5
4A4
100
AcDbEntity
  8
0
  6
BYBLOCK
 62
     0
100
AcDbCircle
 10
107.47196
 20
166.968024
 30
0.0
 40
8.443101
100
AcDbArc
 50
62.027861
 51
72.972139
  0
SOLID
  5
4A5
100
AcDbEntity
  8
0
  6
BYBLOCK
 62
     0
100
AcDbTrace
 10
111.679891
 20
174.759767
 30
0.0
 11
111.184369
 21
174.089766
 31
0.0
 12
113.442134
 22
172.938198
 32
0.0
 13
113.442134
 23
172.938198
 33
0.0
  0
SOLID
  5
4A6
100
AcDbEntity
  8
0
  6
BYBLOCK
 62
     0
100
AcDbTrace
 10
109.882722
 20
174.628925
 30
0.0
 11
110.006097
 21
175.453075
 31
0.0
 12
107.47196
 22
175.411125
 32
0.0
 13
107.47196
 23
175.411125
 33
0.0
  0
MTEXT
  5
4A7
100
AcDbEntity
  8
0
  6
BYBLOCK
 62
     0
100
AcDbMText
 10
118.593277
 20
167.929837
 30
0.0
 40
3.0
 41
0.0
 71
     5
 72
     1
  1
\A1;45°
 11
0.402425
 21
-0.915453
 31
0.0
  0
POINT
  5
4A8
100
AcDbEntity
  8
DEFPOINTS
  6
BYBLOCK
 62
     0
100
AcDbPoint
 10
109.657195
 20
175.123433
 30
0.0
  0
POINT
  5
4A9
100
AcDbEntity
  8
DEFPOINTS
  6
BYBLOCK
 62
     0
100
AcDbPoint
 10
114.47196
 20
173.968024
 30
0.0
  0
POINT
  5
4AA
100
AcDbEntity
  8
DEFPOINTS
  6
BYBLOCK
 62
     0
100
AcDbPoint
 10
107.47196
 20
65.166898
 30
0.0
  0
POINT
  5
4AB
100
AcDbEntity
  8
DEFPOINTS
  6
BYBLOCK
 62
     0
100
AcDbPoint
 10
107.47196
 20
245.688739
 30
0.0
  0
POINT
  5
4AC
100
AcDbEntity
  8
DEFPOINTS
  6
BYBLOCK
 62
     0
100
AcDbPoint
 10
92.980853
 20
152.476917
 30
0.0
  0
ENDBLK
  5
4AD
100
AcDbEntity
  8
0
100
AcDbBlockEnd
  0
BLOCK
  5
4B0
100
AcDbEntity
  8
0
100
AcDbBlockBegin
  2
*D16
 70
    65
 10
0.0
 20
0.0
 30
0.0
  3
*D16
  1

  0
ARC
  5
4B1
100
AcDbEntity
  8
0
  6
BYBLOCK
 62
     0
100
AcDbCircle
 10
107.47196
 20
97.730346
 30
0.0
 40
22.411834
100
AcDbArc
 50
82.007578
 51
90.0
  0
ARC
  5
4B2
100
AcDbEntity
  8
0
  6
BYBLOCK
 62
     0
100
AcDbCircle
 10
107.47196
 20
97.730346
 30
0.0
 40
22.411834
100
AcDbArc
 50
96.39456
 51
113.60544
  0
SOLID
  5
4B3
100
AcDbEntity
  8
0
  6
BYBLOCK
 62
     0
100
AcDbTrace
 10
104.952612
 20
120.418762
 30
0.0
 11
104.99909
 21
119.586726
 31
0.0
 12
107.47196
 22
120.142179
 32
0.0
 13
107.47196
 23
120.142179
 33
0.0
  0
SOLID
  5
4B4
100
AcDbEntity
  8
0
  6
BYBLOCK
 62
     0
100
AcDbTrace
 10
98.685337
 20
117.894961
 30
0.0
 11
98.30957
 21
118.638765
 31
0.0
 12
96.266043
 22
117.139563
 32
0.0
 13
96.266043
 23
117.139563
 33
0.0
  0
MTEXT
  5
4B5
100
AcDbEntity
  8
0
  6
BYBLOCK
 62
     0
100
AcDbMText
 10
114.280296
 20
121.551926
 30
0.0
 40
3.0
 41
0.0
 71
     5
 72
     1
  1
\A1;30°
 11
0.990286
 21
-0.139042
 31
0.0
  0
POINT
  5
4B6
100
AcDbEntity
  8
DEFPOINTS
  6
BYBLOCK
 62
     0
100
AcDbPoint
 10
99.806661
 20
118.79058
 30
0.0
  0
POINT
  5
4B7
100
AcDbEntity
  8
DEFPOINTS
  6
BYBLOCK
 62
     0
100
AcDbPoint
 10
107.47196
 20
65.166898
 30
0.0
  0
POINT
  5
4B8
100
AcDbEntity
  8
DEFPOINTS
  6
BYBLOCK
 62
     0
100
AcDbPoint
 10
114.613202
 20
85.361351
 30
0.0
  0
POINT
  5
4B9
100
AcDbEntity
  8
DEFPOINTS
  6
BYBLOCK
 62
     0
100
AcDbPoint
 10
89.80248
 20
128.334782
 30
0.0
  0
POINT
  5
4BA
100
AcDbEntity
  8
DEFPOINTS
  6
BYBLOCK
 62
     0
100
AcDbPoint
 10
107.47196
 20
245.688739
 30
0.0
  0
ENDBLK
  5
4BB
100
AcDbEntity
  8
0
100
AcDbBlockEnd
  0
BLOCK
  5
4F8
100
AcDbEntity
  8
QUOTE
100
AcDbBlockBegin
  2
RUGOSITA
 70
     2
 10
0.0
 20
0.0
 30
0.0
  3
RUGOSITA
  1

  0
ATTDEF
  5
4F4
100
AcDbEntity
  8
QUOTE
100
AcDbText
 10
-1.071886
 20
3.214106
 30
0.0
 40
1.5
  1
0.8
100
AcDbAttributeDefinition
  3
CHE RUGOSITA ?
  2
RUGOSITA
 70
     0
  0
LINE
  5
4F5
100
AcDbEntity
  8
QUOTE
100
AcDbLine
 10
0.0
 20
0.0
 30
0.0
 11
4.0
 21
6.928203
 31
0.0
  0
LINE
  5
4F6
100
AcDbEntity
  8
QUOTE
100
AcDbLine
 10
0.0
 20
0.0
 30
0.0
 11
-1.75
 21
3.031089
 31
0.0
  0
LINE
  5
4F7
100
AcDbEntity
  8
QUOTE
100
AcDbLine
 10
-1.75
 20
3.031089
 30
0.0
 11
1.75
 21
3.031089
 31
0.0
  0
ENDBLK
  5
4F9
100
AcDbEntity
  8
QUOTE
100
AcDbBlockEnd
  0
BLOCK
  5
524
100
AcDbEntity
  8
QUOTE
100
AcDbBlockBegin
  2
A$C4175
 70
     0
 10
0.0
 20
0.0
 30
0.0
  3
A$C4175
  1

  0
POLYLINE
  5
51B
100
AcDbEntity
  8
TESTO
100
AcDb2dPolyline
 66
     1
 10
0.0
 20
0.0
 30
0.0
 70
     1
  0
VERTEX
  5
51C
100
AcDbEntity
  8
TESTO
100
AcDbVertex
100
AcDb2dVertex
 10
88.566654
 20
56.301732
 30
0.0
  0
VERTEX
  5
51D
100
AcDbEntity
  8
TESTO
100
AcDbVertex
100
AcDb2dVertex
 10
88.566654
 20
43.587124
 30
0.0
  0
VERTEX
  5
51E
100
AcDbEntity
  8
TESTO
100
AcDbVertex
100
AcDb2dVertex
 10
129.685694
 20
43.587124
 30
0.0
  0
VERTEX
  5
51F
100
AcDbEntity
  8
TESTO
100
AcDbVertex
100
AcDb2dVertex
 10
129.685694
 20
56.301732
 30
0.0
  0
SEQEND
  5
520
100
AcDbEntity
  8
TESTO
  0
TOLERANCE
  5
521
100
AcDbEntity
  8
TESTO
  6
CONTINUOUS
100
AcDbFcf
  3
ISO-25
 10
107.922752
 20
47.90184
 30
0.0
  1
{\Fgdt;u}%%v0.02%%v%%v%%v%%v
1001
ACAD
1000
DSTYLE
1002
{
1070
   140
1040
2.6
1070
    47
1040
0.02
1070
    73
1070
     0
1070
   272
1070
     2
1070
   147
1040
0.53
1070
    42
1040
0.5261
1070
    44
1040
1.0522
1070
    43
1040
3.1566
1070
   271
1070
     2
1070
   141
1040
2.1044
1070
    41
1040
2.6
1002
}
  0
TEXT
  5
522
100
AcDbEntity
  8
TESTO
100
AcDbText
 10
89.160239
 20
51.837772
 30
0.0
 40
2.5
  1
TOLLERANZE AL METRO
 41
1.1
100
AcDbText
  0
TOLERANCE
  5
523
100
AcDbEntity
  8
TESTO
  6
CONTINUOUS
100
AcDbFcf
  3
ISO-25
 10
92.364794
 20
47.90184
 30
0.0
  1
{\Fgdt;b}%%v0.02%%v%%v%%v%%v
1001
ACAD
1000
DSTYLE
1002
{
1070
   140
1040
2.6
1070
    47
1040
0.02
1070
    73
1070
     0
1070
   272
1070
     2
1070
   147
1040
0.53
1070
    42
1040
0.5261
1070
    44
1040
1.0522
1070
    43
1040
3.1566
1070
   271
1070
     2
1070
   141
1040
2.1044
1070
    41
1040
2.6
1002
}
  0
ENDBLK
  5
525
100
AcDbEntity
  8
QUOTE
100
AcDbBlockEnd
  0
BLOCK
  5
571
100
AcDbEntity
  8
0
100
AcDbBlockBegin
  2
*D20
 70
    65
 10
0.0
 20
0.0
 30
0.0
  3
*D20
  1

  0
LINE
  5
572
100
AcDbEntity
  8
0
  6
BYBLOCK
 62
     0
100
AcDbLine
 10
86.84696
 20
212.468024
 30
0.0
 11
38.181604
 21
212.468024
 31
0.0
  0
LINE
  5
573
100
AcDbEntity
  8
0
  6
BYBLOCK
 62
     0
100
AcDbLine
 10
69.64696
 20
182.268024
 30
0.0
 11
38.181604
 21
182.268024
 31
0.0
  0
LINE
  5
574
100
AcDbEntity
  8
0
  6
BYBLOCK
 62
     0
100
AcDbLine
 10
39.431604
 20
209.968024
 30
0.0
 11
39.431604
 21
184.768024
 31
0.0
  0
SOLID
  5
575
100
AcDbEntity
  8
0
  6
BYBLOCK
 62
     0
100
AcDbTrace
 10
39.014937
 20
209.968024
 30
0.0
 11
39.848271
 21
209.968024
 31
0.0
 12
39.431604
 22
212.468024
 32
0.0
 13
39.431604
 23
212.468024
 33
0.0
  0
SOLID
  5
576
100
AcDbEntity
  8
0
  6
BYBLOCK
 62
     0
100
AcDbTrace
 10
39.014937
 20
184.768024
 30
0.0
 11
39.848271
 21
184.768024
 31
0.0
 12
39.431604
 22
182.268024
 32
0.0
 13
39.431604
 23
182.268024
 33
0.0
  0
MTEXT
  5
577
100
AcDbEntity
  8
0
  6
BYBLOCK
 62
     0
100
AcDbMText
 10
36.125659
 20
197.368024
 30
0.0
 40
3.0
 41
0.0
 71
     5
 72
     1
  1
\A2;30.2{\H2.400000;\S+0.1^  0;}
 11
0.0
 21
1.0
 31
0.0
  0
POINT
  5
578
100
AcDbEntity
  8
DEFPOINTS
  6
BYBLOCK
 62
     0
100
AcDbPoint
 10
87.47196
 20
212.468024
 30
0.0
  0
POINT
  5
579
100
AcDbEntity
  8
DEFPOINTS
  6
BYBLOCK
 62
     0
100
AcDbPoint
 10
70.27196
 20
182.268024
 30
0.0
  0
POINT
  5
57A
100
AcDbEntity
  8
DEFPOINTS
  6
BYBLOCK
 62
     0
100
AcDbPoint
 10
39.431604
 20
182.268024
 30
0.0
  0
ENDBLK
  5
57B
100
AcDbEntity
  8
0
100
AcDbBlockEnd
  0
BLOCK
  5
557
100
AcDbEntity
  8
0
100
AcDbBlockBegin
  2
*D21
 70
    65
 10
0.0
 20
0.0
 30
0.0
  3
*D21
  1

  0
LINE
  5
558
100
AcDbEntity
  8
0
  6
BYBLOCK
 62
     0
100
AcDbLine
 10
69.64696
 20
182.268024
 30
0.0
 11
38.181604
 21
182.268024
 31
0.0
  0
LINE
  5
559
100
AcDbEntity
  8
0
  6
BYBLOCK
 62
     0
100
AcDbLine
 10
57.84696
 20
170.468024
 30
0.0
 11
38.181604
 21
170.468024
 31
0.0
  0
LINE
  5
55A
100
AcDbEntity
  8
0
  6
BYBLOCK
 62
     0
100
AcDbLine
 10
39.431604
 20
184.768024
 30
0.0
 11
39.431604
 21
187.268024
 31
0.0
  0
LINE
  5
55B
100
AcDbEntity
  8
0
  6
BYBLOCK
 62
     0
100
AcDbLine
 10
39.431604
 20
167.968024
 30
0.0
 11
39.431604
 21
165.468024
 31
0.0
  0
SOLID
  5
55C
100
AcDbEntity
  8
0
  6
BYBLOCK
 62
     0
100
AcDbTrace
 10
39.014937
 20
184.768024
 30
0.0
 11
39.848271
 21
184.768024
 31
0.0
 12
39.431604
 22
182.268024
 32
0.0
 13
39.431604
 23
182.268024
 33
0.0
  0
SOLID
  5
55D
100
AcDbEntity
  8
0
  6
BYBLOCK
 62
     0
100
AcDbTrace
 10
39.014937
 20
167.968024
 30
0.0
 11
39.848271
 21
167.968024
 31
0.0
 12
39.431604
 22
170.468024
 32
0.0
 13
39.431604
 23
170.468024
 33
0.0
  0
MTEXT
  5
55E
100
AcDbEntity
  8
0
  6
BYBLOCK
 62
     0
100
AcDbMText
 10
37.306604
 20
176.368024
 30
0.0
 40
3.0
 41
0.0
 71
     5
 72
     1
  1
\A1;11.8
 11
0.0
 21
1.0
 31
0.0
  0
POINT
  5
55F
100
AcDbEntity
  8
DEFPOINTS
  6
BYBLOCK
 62
     0
100
AcDbPoint
 10
70.27196
 20
182.268024
 30
0.0
  0
POINT
  5
560
100
AcDbEntity
  8
DEFPOINTS
  6
BYBLOCK
 62
     0
100
AcDbPoint
 10
58.47196
 20
170.468024
 30
0.0
  0
POINT
  5
561
100
AcDbEntity
  8
DEFPOINTS
  6
BYBLOCK
 62
     0
100
AcDbPoint
 10
39.431604
 20
170.468024
 30
0.0
  0
ENDBLK
  5
562
100
AcDbEntity
  8
0
100
AcDbBlockEnd
  0
BLOCK
  5
565
100
AcDbEntity
  8
0
100
AcDbBlockBegin
  2
*D22
 70
    65
 10
0.0
 20
0.0
 30
0.0
  3
*D22
  1

  0
ARC
  5
566
100
AcDbEntity
  8
0
  6
BYBLOCK
 62
     0
100
AcDbCircle
 10
58.47196
 20
170.468024
 30
0.0
 40
9.912353
100
AcDbArc
 50
284.489178
 51
30.510822
  0
SOLID
  5
567
100
AcDbEntity
  8
0
  6
BYBLOCK
 62
     0
100
AcDbTrace
 10
61.004546
 20
160.457594
 30
0.0
 11
60.899458
 21
161.284275
 31
0.0
 12
58.47196
 22
160.555671
 32
0.0
 13
58.47196
 23
160.555671
 33
0.0
  0
SOLID
  5
568
100
AcDbEntity
  8
0
  6
BYBLOCK
 62
     0
100
AcDbTrace
 10
66.682351
 20
175.245415
 30
0.0
 11
67.341211
 21
175.755658
 31
0.0
 12
65.481051
 22
177.477116
 32
0.0
 13
65.481051
 23
177.477116
 33
0.0
  0
MTEXT
  5
569
100
AcDbEntity
  8
0
  6
BYBLOCK
 62
     0
100
AcDbMText
 10
65.666535
 20
167.487933
 30
0.0
 40
3.0
 41
0.0
 71
     5
 72
     1
  1
\A1;135°
 11
0.382683
 21
0.92388
 31
0.0
  0
POINT
  5
56A
100
AcDbEntity
  8
DEFPOINTS
  6
BYBLOCK
 62
     0
100
AcDbPoint
 10
65.481051
 20
163.458932
 30
0.0
  0
POINT
  5
56B
100
AcDbEntity
  8
DEFPOINTS
  6
BYBLOCK
 62
     0
100
AcDbPoint
 10
70.27196
 20
182.268024
 30
0.0
  0
POINT
  5
56C
100
AcDbEntity
  8
DEFPOINTS
  6
BYBLOCK
 62
     0
100
AcDbPoint
 10
58.47196
 20
170.468024
 30
0.0
  0
POINT
  5
56D
100
AcDbEntity
  8
DEFPOINTS
  6
BYBLOCK
 62
     0
100
AcDbPoint
 10
58.47196
 20
128.378346
 30
0.0
  0
POINT
  5
56E
100
AcDbEntity
  8
DEFPOINTS
  6
BYBLOCK
 62
     0
100
AcDbPoint
 10
58.47196
 20
170.468024
 30
0.0
  0
ENDBLK
  5
56F
100
AcDbEntity
  8
0
100
AcDbBlockEnd
  0
BLOCK
  5
630
100
AcDbEntity
  8
0
100
AcDbBlockBegin
  2
*D24
 70
    65
 10
0.0
 20
0.0
 30
0.0
  3
*D24
  1

  0
LINE
  5
631
100
AcDbEntity
  8
0
  6
BYBLOCK
 62
     0
100
AcDbLine
 10
107.037798
 20
77.308548
 30
0.0
 11
90.86225
 21
60.558278
 31
0.0
  0
LINE
  5
632
100
AcDbEntity
  8
0
  6
BYBLOCK
 62
     0
100
AcDbLine
 10
107.906121
 20
77.308548
 30
0.0
 11
124.081669
 21
60.558278
 31
0.0
  0
ARC
  5
633
100
AcDbEntity
  8
0
  6
BYBLOCK
 62
     0
100
AcDbCircle
 10
107.47196
 20
77.758135
 30
0.0
 40
22.660615
100
AcDbArc
 50
232.324285
 51
307.675715
  0
SOLID
  5
634
100
AcDbEntity
  8
0
  6
BYBLOCK
 62
     0
100
AcDbTrace
 10
93.349514
 20
59.507416
 30
0.0
 11
93.894448
 21
60.137885
 31
0.0
 12
91.730573
 22
61.457452
 32
0.0
 13
91.730573
 23
61.457452
 33
0.0
  0
SOLID
  5
635
100
AcDbEntity
  8
0
  6
BYBLOCK
 62
     0
100
AcDbTrace
 10
121.049471
 20
60.137885
 30
0.0
 11
121.594405
 21
59.507416
 31
0.0
 12
123.213346
 22
61.457452
 32
0.0
 13
123.213346
 23
61.457452
 33
0.0
  0
MTEXT
  5
636
100
AcDbEntity
  8
0
  6
BYBLOCK
 62
     0
100
AcDbMText
 10
107.47196
 20
57.22252
 30
0.0
 40
3.0
 41
0.0
 71
     5
 72
     1
  1
\A1;88°
  0
POINT
  5
637
100
AcDbEntity
  8
DEFPOINTS
  6
BYBLOCK
 62
     0
100
AcDbPoint
 10
101.734401
 20
55.835911
 30
0.0
  0
POINT
  5
638
100
AcDbEntity
  8
DEFPOINTS
  6
BYBLOCK
 62
     0
100
AcDbPoint
 10
107.292125
 20
77.944359
 30
0.0
  0
POINT
  5
639
100
AcDbEntity
  8
DEFPOINTS
  6
BYBLOCK
 62
     0
100
AcDbPoint
 10
107.651795
 20
77.944359
 30
0.0
  0
POINT
  5
63A
100
AcDbEntity
  8
DEFPOINTS
  6
BYBLOCK
 62
     0
100
AcDbPoint
 10
114.613202
 20
85.153108
 30
0.0
  0
POINT
  5
63B
100
AcDbEntity
  8
DEFPOINTS
  6
BYBLOCK
 62
     0
100
AcDbPoint
 10
99.62232
 20
85.886675
 30
0.0
  0
ENDBLK
  5
63C
100
AcDbEntity
  8
0
100
AcDbBlockEnd
  0
BLOCK
  5
63F
100
AcDbEntity
  8
0
100
AcDbBlockBegin
  2
*D25
 70
    65
 10
0.0
 20
0.0
 30
0.0
  3
*D25
  1

  0
LINE
  5
640
100
AcDbEntity
  8
0
  6
BYBLOCK
 62
     0
100
AcDbLine
 10
108.021856
 20
75.423564
 30
0.0
 11
110.712689
 21
62.238651
 31
0.0
  0
SOLID
  5
641
100
AcDbEntity
  8
0
  6
BYBLOCK
 62
     0
100
AcDbTrace
 10
108.430108
 20
75.506882
 30
0.0
 11
107.613605
 21
75.340247
 31
0.0
 12
107.52195
 22
77.873073
 32
0.0
 13
107.52195
 23
77.873073
 33
0.0
  0
MTEXT
  5
642
100
AcDbEntity
  8
0
  6
BYBLOCK
 62
     0
100
AcDbMText
 10
111.699308
 20
68.031273
 30
0.0
 40
3.0
 41
0.0
 71
     5
 72
     1
  1
\A1;R0.25
 11
0.199962
 21
-0.979804
 31
0.0
  0
POINT
  5
643
100
AcDbEntity
  8
DEFPOINTS
  6
BYBLOCK
 62
     0
100
AcDbPoint
 10
107.52195
 20
77.873073
 30
0.0
  0
POINT
  5
644
100
AcDbEntity
  8
DEFPOINTS
  6
BYBLOCK
 62
     0
100
AcDbPoint
 10
107.47196
 20
78.118024
 30
0.0
  0
ENDBLK
  5
645
100
AcDbEntity
  8
0
100
AcDbBlockEnd
  0
BLOCK
  5
655
100
AcDbEntity
  8
0
100
AcDbBlockBegin
  2
*D26
 70
    65
 10
0.0
 20
0.0
 30
0.0
  3
*D26
  1

  0
LINE
  5
656
100
AcDbEntity
  8
0
  6
BYBLOCK
 62
     0
100
AcDbLine
 10
99.180378
 20
86.328616
 30
0.0
 11
90.669278
 21
94.839717
 31
0.0
  0
LINE
  5
657
100
AcDbEntity
  8
0
  6
BYBLOCK
 62
     0
100
AcDbLine
 10
99.851033
 20
86.999272
 30
0.0
 11
91.339933
 21
95.510372
 31
0.0
  0
LINE
  5
658
100
AcDbEntity
  8
0
  6
BYBLOCK
 62
     0
100
AcDbLine
 10
93.991583
 20
96.394256
 30
0.0
 11
95.75935
 21
98.162023
 31
0.0
  0
LINE
  5
659
100
AcDbEntity
  8
0
  6
BYBLOCK
 62
     0
100
AcDbLine
 10
89.785394
 20
92.188066
 30
0.0
 11
83.45451
 21
85.857183
 31
0.0
  0
SOLID
  5
65A
100
AcDbEntity
  8
0
  6
BYBLOCK
 62
     0
100
AcDbTrace
 10
93.696956
 20
96.688883
 30
0.0
 11
94.286211
 21
96.099628
 31
0.0
 12
92.223817
 22
94.626489
 32
0.0
 13
92.223817
 23
94.626489
 33
0.0
  0
SOLID
  5
65B
100
AcDbEntity
  8
0
  6
BYBLOCK
 62
     0
100
AcDbTrace
 10
89.490766
 20
92.482694
 30
0.0
 11
90.080022
 21
91.893439
 31
0.0
 12
91.553161
 22
93.955833
 32
0.0
 13
91.553161
 23
93.955833
 33
0.0
  0
MTEXT
  5
65C
100
AcDbEntity
  8
0
  6
BYBLOCK
 62
     0
100
AcDbMText
 10
84.89638
 20
90.304256
 30
0.0
 40
3.0
 41
0.0
 71
     5
 72
     1
  1
\A1;0.95
 11
0.707107
 21
0.707107
 31
0.0
  0
POINT
  5
65D
100
AcDbEntity
  8
DEFPOINTS
  6
BYBLOCK
 62
     0
100
AcDbPoint
 10
99.62232
 20
85.886675
 30
0.0
  0
POINT
  5
65E
100
AcDbEntity
  8
DEFPOINTS
  6
BYBLOCK
 62
     0
100
AcDbPoint
 10
100.292975
 20
86.55733
 30
0.0
  0
POINT
  5
65F
100
AcDbEntity
  8
DEFPOINTS
  6
BYBLOCK
 62
     0
100
AcDbPoint
 10
92.223817
 20
94.626489
 30
0.0
  0
ENDBLK
  5
660
100
AcDbEntity
  8
0
100
AcDbBlockEnd
  0
BLOCK
  5
679
100
AcDbEntity
  8
0
100
AcDbBlockBegin
  2
*D27
 70
    65
 10
0.0
 20
0.0
 30
0.0
  3
*D27
  1

  0
LINE
  5
67A
100
AcDbEntity
  8
0
  6
BYBLOCK
 62
     0
100
AcDbLine
 10
108.09696
 20
77.868024
 30
0.0
 11
168.702439
 21
77.868024
 31
0.0
  0
LINE
  5
67B
100
AcDbEntity
  8
0
  6
BYBLOCK
 62
     0
100
AcDbLine
 10
114.09696
 20
182.468024
 30
0.0
 11
168.702439
 21
182.468024
 31
0.0
  0
LINE
  5
67C
100
AcDbEntity
  8
0
  6
BYBLOCK
 62
     0
100
AcDbLine
 10
167.452439
 20
80.368024
 30
0.0
 11
167.452439
 21
179.968024
 31
0.0
  0
SOLID
  5
67D
100
AcDbEntity
  8
0
  6
BYBLOCK
 62
     0
100
AcDbTrace
 10
167.035772
 20
80.368024
 30
0.0
 11
167.869106
 21
80.368024
 31
0.0
 12
167.452439
 22
77.868024
 32
0.0
 13
167.452439
 23
77.868024
 33
0.0
  0
SOLID
  5
67E
100
AcDbEntity
  8
0
  6
BYBLOCK
 62
     0
100
AcDbTrace
 10
167.035772
 20
179.968024
 30
0.0
 11
167.869106
 21
179.968024
 31
0.0
 12
167.452439
 22
182.468024
 32
0.0
 13
167.452439
 23
182.468024
 33
0.0
  0
MTEXT
  5
67F
100
AcDbEntity
  8
0
  6
BYBLOCK
 62
     0
100
AcDbMText
 10
165.327439
 20
130.168024
 30
0.0
 40
3.0
 41
0.0
 71
     5
 72
     1
  1
\A2;104.6{\H2.400000;±0.01}
 11
0.0
 21
1.0
 31
0.0
  0
POINT
  5
680
100
AcDbEntity
  8
DEFPOINTS
  6
BYBLOCK
 62
     0
100
AcDbPoint
 10
107.47196
 20
77.868024
 30
0.0
  0
POINT
  5
681
100
AcDbEntity
  8
DEFPOINTS
  6
BYBLOCK
 62
     0
100
AcDbPoint
 10
113.47196
 20
182.468024
 30
0.0
  0
POINT
  5
682
100
AcDbEntity
  8
DEFPOINTS
  6
BYBLOCK
 62
     0
100
AcDbPoint
 10
167.452439
 20
182.468024
 30
0.0
  0
ENDBLK
  5
683
100
AcDbEntity
  8
0
100
AcDbBlockEnd
  0
BLOCK
  5
686
100
AcDbEntity
  8
0
100
AcDbBlockBegin
  2
*D28
 70
    65
 10
0.0
 20
0.0
 30
0.0
  3
*D28
  1

  0
LINE
  5
687
100
AcDbEntity
  8
0
  6
BYBLOCK
 62
     0
100
AcDbLine
 10
108.09696
 20
77.868024
 30
0.0
 11
178.824236
 21
77.868024
 31
0.0
  0
LINE
  5
688
100
AcDbEntity
  8
0
  6
BYBLOCK
 62
     0
100
AcDbLine
 10
100.09696
 20
212.468024
 30
0.0
 11
178.824236
 21
212.468024
 31
0.0
  0
LINE
  5
689
100
AcDbEntity
  8
0
  6
BYBLOCK
 62
     0
100
AcDbLine
 10
177.574236
 20
80.368024
 30
0.0
 11
177.574236
 21
209.968024
 31
0.0
  0
SOLID
  5
68A
100
AcDbEntity
  8
0
  6
BYBLOCK
 62
     0
100
AcDbTrace
 10
177.15757
 20
80.368024
 30
0.0
 11
177.990903
 21
80.368024
 31
0.0
 12
177.574236
 22
77.868024
 32
0.0
 13
177.574236
 23
77.868024
 33
0.0
  0
SOLID
  5
68B
100
AcDbEntity
  8
0
  6
BYBLOCK
 62
     0
100
AcDbTrace
 10
177.15757
 20
209.968024
 30
0.0
 11
177.990903
 21
209.968024
 31
0.0
 12
177.574236
 22
212.468024
 32
0.0
 13
177.574236
 23
212.468024
 33
0.0
  0
MTEXT
  5
68C
100
AcDbEntity
  8
0
  6
BYBLOCK
 62
     0
100
AcDbMText
 10
175.449236
 20
145.168024
 30
0.0
 40
3.0
 41
0.0
 71
     5
 72
     1
  1
\A1;134.6
 11
0.0
 21
1.0
 31
0.0
  0
POINT
  5
68D
100
AcDbEntity
  8
DEFPOINTS
  6
BYBLOCK
 62
     0
100
AcDbPoint
 10
107.47196
 20
77.868024
 30
0.0
  0
POINT
  5
68E
100
AcDbEntity
  8
DEFPOINTS
  6
BYBLOCK
 62
     0
100
AcDbPoint
 10
99.47196
 20
212.468024
 30
0.0
  0
POINT
  5
68F
100
AcDbEntity
  8
DEFPOINTS
  6
BYBLOCK
 62
     0
100
AcDbPoint
 10
177.574236
 20
212.468024
 30
0.0
  0
ENDBLK
  5
690
100
AcDbEntity
  8
0
100
AcDbBlockEnd
  0
BLOCK
  5
6AF
100
AcDbEntity
  8
0
100
AcDbBlockBegin
  2
*X29
 70
    65
 10
0.0
 20
0.0
 30
0.0
  3
*X29
  1

  0
LINE
  5
6B1
100
AcDbEntity
  8
0
 62
     0
100
AcDbLine
 10
106.241986
 20
79.03181
 30
0.0
 11
107.47196
 21
80.261784
 31
0.0
  0
LINE
  5
6B2
100
AcDbEntity
  8
0
 62
     0
100
AcDbLine
 10
107.47196
 20
80.261784
 30
0.0
 11
108.228897
 21
81.018721
 31
0.0
  0
LINE
  5
6B3
100
AcDbEntity
  8
0
 62
     0
100
AcDbLine
 10
106.109633
 20
79.168865
 30
0.0
 11
107.47196
 21
80.531191
 31
0.0
  0
LINE
  5
6B4
100
AcDbEntity
  8
0
 62
     0
100
AcDbLine
 10
107.47196
 20
80.531191
 30
0.0
 11
107.937135
 21
80.996367
 31
0.0
  0
LINE
  5
6B5
100
AcDbEntity
  8
0
 62
     0
100
AcDbLine
 10
105.977281
 20
79.30592
 30
0.0
 11
107.47196
 21
80.800599
 31
0.0
  0
LINE
  5
6B6
100
AcDbEntity
  8
0
 62
     0
100
AcDbLine
 10
107.47196
 20
80.800599
 30
0.0
 11
107.656316
 21
80.984956
 31
0.0
  0
LINE
  5
6B7
100
AcDbEntity
  8
0
 62
     0
100
AcDbLine
 10
105.844928
 20
79.442975
 30
0.0
 11
107.385254
 21
80.983301
 31
0.0
  0
LINE
  5
6B8
100
AcDbEntity
  8
0
 62
     0
100
AcDbLine
 10
105.712576
 20
79.58003
 30
0.0
 11
107.122991
 21
80.990446
 31
0.0
  0
LINE
  5
6B9
100
AcDbEntity
  8
0
 62
     0
100
AcDbLine
 10
105.580223
 20
79.717085
 30
0.0
 11
106.868743
 21
81.005605
 31
0.0
  0
LINE
  5
6BA
100
AcDbEntity
  8
0
 62
     0
100
AcDbLine
 10
105.44787
 20
79.854141
 30
0.0
 11
106.621857
 21
81.028127
 31
0.0
  0
LINE
  5
6BB
100
AcDbEntity
  8
0
 62
     0
100
AcDbLine
 10
105.315518
 20
79.991196
 30
0.0
 11
106.381782
 21
81.05746
 31
0.0
  0
LINE
  5
6BC
100
AcDbEntity
  8
0
 62
     0
100
AcDbLine
 10
105.183165
 20
80.128251
 30
0.0
 11
106.148052
 21
81.093137
 31
0.0
  0
LINE
  5
6BD
100
AcDbEntity
  8
0
 62
     0
100
AcDbLine
 10
105.050813
 20
80.265306
 30
0.0
 11
105.920265
 21
81.134758
 31
0.0
  0
LINE
  5
6BE
100
AcDbEntity
  8
0
 62
     0
100
AcDbLine
 10
104.91846
 20
80.402361
 30
0.0
 11
105.698076
 21
81.181976
 31
0.0
  0
LINE
  5
6BF
100
AcDbEntity
  8
0
 62
     0
100
AcDbLine
 10
104.786108
 20
80.539416
 30
0.0
 11
105.481181
 21
81.234489
 31
0.0
  0
LINE
  5
6C0
100
AcDbEntity
  8
0
 62
     0
100
AcDbLine
 10
104.653755
 20
80.676471
 30
0.0
 11
105.269317
 21
81.292034
 31
0.0
  0
LINE
  5
6C1
100
AcDbEntity
  8
0
 62
     0
100
AcDbLine
 10
104.521402
 20
80.813526
 30
0.0
 11
105.062253
 21
81.354377
 31
0.0
  0
LINE
  5
6C2
100
AcDbEntity
  8
0
 62
     0
100
AcDbLine
 10
104.38905
 20
80.950581
 30
0.0
 11
104.859783
 21
81.421315
 31
0.0
  0
LINE
  5
6C3
100
AcDbEntity
  8
0
 62
     0
100
AcDbLine
 10
104.256697
 20
81.087636
 30
0.0
 11
104.661726
 21
81.492665
 31
0.0
  0
LINE
  5
6C4
100
AcDbEntity
  8
0
 62
     0
100
AcDbLine
 10
104.124345
 20
81.224692
 30
0.0
 11
104.467921
 21
81.568268
 31
0.0
  0
LINE
  5
6C5
100
AcDbEntity
  8
0
 62
     0
100
AcDbLine
 10
103.991992
 20
81.361747
 30
0.0
 11
104.278224
 21
81.647979
 31
0.0
  0
LINE
  5
6C6
100
AcDbEntity
  8
0
 62
     0
100
AcDbLine
 10
103.85964
 20
81.498802
 30
0.0
 11
104.092509
 21
81.731672
 31
0.0
  0
LINE
  5
6C7
100
AcDbEntity
  8
0
 62
     0
100
AcDbLine
 10
103.727287
 20
81.635857
 30
0.0
 11
103.910662
 21
81.819232
 31
0.0
  0
LINE
  5
6C8
100
AcDbEntity
  8
0
 62
     0
100
AcDbLine
 10
103.594934
 20
81.772912
 30
0.0
 11
103.732581
 21
81.910558
 31
0.0
  0
LINE
  5
6C9
100
AcDbEntity
  8
0
 62
     0
100
AcDbLine
 10
103.462582
 20
81.909967
 30
0.0
 11
103.558176
 21
82.005561
 31
0.0
  0
LINE
  5
6CA
100
AcDbEntity
  8
0
 62
     0
100
AcDbLine
 10
103.330229
 20
82.047022
 30
0.0
 11
103.387368
 21
82.104161
 31
0.0
  0
LINE
  5
6CB
100
AcDbEntity
  8
0
 62
     0
100
AcDbLine
 10
103.197877
 20
82.184077
 30
0.0
 11
103.220085
 21
82.206286
 31
0.0
  0
LINE
  5
6CC
100
AcDbEntity
  8
0
 62
     0
100
AcDbLine
 10
106.374339
 20
78.894755
 30
0.0
 11
107.47196
 21
79.992376
 31
0.0
  0
LINE
  5
6CD
100
AcDbEntity
  8
0
 62
     0
100
AcDbLine
 10
107.47196
 20
79.992376
 30
0.0
 11
108.533104
 21
81.05352
 31
0.0
  0
LINE
  5
6CE
100
AcDbEntity
  8
0
 62
     0
100
AcDbLine
 10
106.506691
 20
78.7577
 30
0.0
 11
107.47196
 21
79.722968
 31
0.0
  0
LINE
  5
6CF
100
AcDbEntity
  8
0
 62
     0
100
AcDbLine
 10
107.47196
 20
79.722968
 30
0.0
 11
108.851701
 21
81.10271
 31
0.0
  0
LINE
  5
6D0
100
AcDbEntity
  8
0
 62
     0
100
AcDbLine
 10
106.639044
 20
78.620645
 30
0.0
 11
107.47196
 21
79.45356
 31
0.0
  0
LINE
  5
6D1
100
AcDbEntity
  8
0
 62
     0
100
AcDbLine
 10
107.47196
 20
79.45356
 30
0.0
 11
109.187292
 21
81.168893
 31
0.0
  0
LINE
  5
6D2
100
AcDbEntity
  8
0
 62
     0
100
AcDbLine
 10
106.771396
 20
78.483589
 30
0.0
 11
107.47196
 21
79.184153
 31
0.0
  0
LINE
  5
6D3
100
AcDbEntity
  8
0
 62
     0
100
AcDbLine
 10
107.47196
 20
79.184153
 30
0.0
 11
109.543495
 21
81.255688
 31
0.0
  0
LINE
  5
6D4
100
AcDbEntity
  8
0
 62
     0
100
AcDbLine
 10
106.903749
 20
78.346534
 30
0.0
 11
107.47196
 21
78.914745
 31
0.0
  0
LINE
  5
6D5
100
AcDbEntity
  8
0
 62
     0
100
AcDbLine
 10
107.47196
 20
78.914745
 30
0.0
 11
109.925613
 21
81.368398
 31
0.0
  0
LINE
  5
6D6
100
AcDbEntity
  8
0
 62
     0
100
AcDbLine
 10
107.036101
 20
78.209479
 30
0.0
 11
107.47196
 21
78.645337
 31
0.0
  0
LINE
  5
6D7
100
AcDbEntity
  8
0
 62
     0
100
AcDbLine
 10
107.47196
 20
78.645337
 30
0.0
 11
110.341999
 21
81.515377
 31
0.0
  0
LINE
  5
6D8
100
AcDbEntity
  8
0
 62
     0
100
AcDbLine
 10
107.168454
 20
78.072424
 30
0.0
 11
107.47196
 21
78.37593
 31
0.0
  0
LINE
  5
6D9
100
AcDbEntity
  8
0
 62
     0
100
AcDbLine
 10
107.47196
 20
78.37593
 30
0.0
 11
110.807312
 21
81.711282
 31
0.0
  0
LINE
  5
6DA
100
AcDbEntity
  8
0
 62
     0
100
AcDbLine
 10
107.301027
 20
77.93559
 30
0.0
 11
107.47196
 21
78.106522
 31
0.0
  0
LINE
  5
6DB
100
AcDbEntity
  8
0
 62
     0
100
AcDbLine
 10
107.47196
 20
78.106522
 30
0.0
 11
111.352399
 21
81.986962
 31
0.0
  0
LINE
  5
6DC
100
AcDbEntity
  8
0
 62
     0
100
AcDbLine
 10
107.505072
 20
77.870227
 30
0.0
 11
109.694834
 21
80.059989
 31
0.0
  0
ENDBLK
  5
6DD
100
AcDbEntity
  8
0
100
AcDbBlockEnd
  0
ENDSEC
  0
SECTION
  2
ENTITIES
  0
LINE
  5
25D
100
AcDbEntity
  8
DISEGNO
100
AcDbLine
 10
70.27196
 20
182.268024
 30
0.0
 11
87.47196
 21
182.268024
 31
0.0
  0
LINE
  5
25E
100
AcDbEntity
  8
DISEGNO
100
AcDbLine
 10
100.47196
 20
182.468024
 30
0.0
 11
100.47196
 21
211.468024
 31
0.0
  0
LINE
  5
25F
100
AcDbEntity
  8
DISEGNO
100
AcDbLine
 10
87.47196
 20
211.468024
 30
0.0
 11
87.47196
 21
196.468024
 31
0.0
  0
LINE
  5
261
100
AcDbEntity
  8
DISEGNO
100
AcDbLine
 10
90.97196
 20
195.468024
 30
0.0
 11
90.97196
 21
187.068024
 31
0.0
  0
LINE
  5
263
100
AcDbEntity
  8
DISEGNO
100
AcDbLine
 10
87.47196
 20
186.068024
 30
0.0
 11
87.47196
 21
182.268024
 31
0.0
  0
LINE
  5
264
100
AcDbEntity
  8
DISEGNO
100
AcDbLine
 10
100.47196
 20
182.468024
 30
0.0
 11
113.47196
 21
182.468024
 31
0.0
  0
LINE
  5
265
100
AcDbEntity
  8
DISEGNO
100
AcDbLine
 10
58.47196
 20
170.468024
 30
0.0
 11
58.47196
 21
128.378346
 31
0.0
  0
LINE
  5
26C
100
AcDbEntity
  8
DISEGNO
100
AcDbLine
 10
114.613202
 20
85.153108
 30
0.0
 11
114.613202
 21
85.361351
 31
0.0
  0
LINE
  5
26D
100
AcDbEntity
  8
DISEGNO
100
AcDbLine
 10
114.613202
 20
85.361351
 30
0.0
 11
89.80248
 21
128.334782
 31
0.0
  0
LINE
  5
26E
100
AcDbEntity
  8
DISEGNO
100
AcDbLine
 10
99.62232
 20
85.886675
 30
0.0
 11
99.62232
 21
87.227985
 31
0.0
  0
LINE
  5
271
100
AcDbEntity
  8
DISEGNO
100
AcDbLine
 10
70.27196
 20
182.268024
 30
0.0
 11
58.47196
 21
170.468024
 31
0.0
  0
LINE
  5
272
100
AcDbEntity
  8
DISEGNO
100
AcDbLine
 10
114.47196
 20
181.468024
 30
0.0
 11
114.47196
 21
173.968024
 31
0.0
  0
LINE
  5
273
100
AcDbEntity
  8
DISEGNO
100
AcDbLine
 10
114.47196
 20
173.968024
 30
0.0
 11
92.980853
 21
152.476917
 31
0.0
  0
ARC
  5
274
100
AcDbEntity
  8
DISEGNO
100
AcDbCircle
 10
107.122988
 20
138.334782
 30
0.0
 40
20.0
100
AcDbArc
 50
135.0
 51
210.0
  0
LINE
  5
283
100
AcDbEntity
  8
DISEGNO
100
AcDbLine
 10
88.47196
 20
212.468024
 30
0.0
 11
99.47196
 21
212.468024
 31
0.0
  0
LINE
  5
284
100
AcDbEntity
  8
DISEGNO
100
AcDbLine
 10
88.47196
 20
195.468024
 30
0.0
 11
90.97196
 21
195.468024
 31
0.0
  0
LINE
  5
285
100
AcDbEntity
  8
DISEGNO
100
AcDbLine
 10
90.97196
 20
187.068024
 30
0.0
 11
88.47196
 21
187.068024
 31
0.0
  0
LINE
  5
286
100
AcDbEntity
  8
DISEGNO
100
AcDbLine
 10
88.47196
 20
212.468024
 30
0.0
 11
87.47196
 21
211.468024
 31
0.0
  0
LINE
  5
287
100
AcDbEntity
  8
DISEGNO
100
AcDbLine
 10
99.47196
 20
212.468024
 30
0.0
 11
100.47196
 21
211.468024
 31
0.0
  0
LINE
  5
288
100
AcDbEntity
  8
DISEGNO
100
AcDbLine
 10
88.47196
 20
195.468024
 30
0.0
 11
87.47196
 21
196.468024
 31
0.0
  0
LINE
  5
289
100
AcDbEntity
  8
DISEGNO
100
AcDbLine
 10
88.47196
 20
187.068024
 30
0.0
 11
87.47196
 21
186.068024
 31
0.0
  0
LINE
  5
28A
100
AcDbEntity
  8
DISEGNO
100
AcDbLine
 10
113.47196
 20
182.468024
 30
0.0
 11
114.47196
 21
181.468024
 31
0.0
  0
LINE
  5
4D5
100
AcDbEntity
  8
DISEGNO
100
AcDbLine
 10
99.62232
 20
87.227985
 30
0.0
 11
58.47196
 21
128.378346
 31
0.0
  0
ARC
  5
61C
100
AcDbEntity
  8
DISEGNO
100
AcDbCircle
 10
107.47196
 20
78.118024
 30
0.0
 40
0.25
100
AcDbArc
 50
224.0
 51
316.0
1001
ACAD
1000
ASC_BOUNDS
1002
{
1070
    19
1002
}
  0
LINE
  5
61D
100
AcDbEntity
  8
DISEGNO
100
AcDbLine
 10
107.651795
 20
77.944359
 30
0.0
 11
114.613202
 21
85.153108
 31
0.0
1001
ACAD
1000
ASC_BOUNDS
1002
{
1070
    19
1002
}
  0
LINE
  5
61E
100
AcDbEntity
  8
DISEGNO
100
AcDbLine
 10
107.292125
 20
77.944359
 30
0.0
 11
99.62232
 21
85.886675
 31
0.0
1001
ACAD
1000
ASC_BOUNDS
1002
{
1070
    19
1002
}
  0
ENDSEC
  0
SECTION
  2
OBJECTS
  0
DICTIONARY
  5
C
100
AcDbDictionary
  3
ACAD_GROUP
350
D
  3
ACAD_MLINESTYLE
350
E
  0
DICTIONARY
  5
D
102
{ACAD_REACTORS
330
C
102
}
100
AcDbDictionary
  0
DICTIONARY
  5
E
102
{ACAD_REACTORS
330
C
102
}
100
AcDbDictionary
  3
STANDARD
350
1C
  0
MLINESTYLE
  5
1C
102
{ACAD_REACTORS
330
E
102
}
100
AcDbMlineStyle
  2
STANDARD
 70
     0
  3

 62
     0
 51
90.0
 52
90.0
 71
     2
 49
0.5
 62
   256
  6
BYLAYER
 49
-0.5
 62
   256
  6
BYLAYER
  0
ENDSEC
  0
EOF
