  0
SECTION
  2
HEADER
  9
$ACADVER
  1
AC1012
  9
$DWGCODEPAGE
  3
iso8859-1
  9
$INSBASE
 10
0.0
 20
0.0
 30
0.0
  9
$EXTMIN
 10
-1940.234365
 20
-1659.251698
 30
0.0
  9
$EXTMAX
 10
-1501.96332
 20
-1372.037392
 30
0.0
  9
$LIMMIN
 10
0.0
 20
0.0
  9
$LIMMAX
 10
210.0
 20
297.0
  9
$ORTHOMODE
 70
     0
  9
$REGENMODE
 70
     1
  9
$FILLMODE
 70
     1
  9
$QTEXTMODE
 70
     0
  9
$MIRRTEXT
 70
     1
  9
$DRAGMODE
 70
     2
  9
$LTSCALE
 40
1.0
  9
$OSMODE
 70
     0
  9
$ATTMODE
 70
     1
  9
$TEXTSIZE
 40
3.0
  9
$TRACEWID
 40
0.05
  9
$TEXTSTYLE
  7
STYLE3
  9
$CLAYER
  8
QUOTE
  9
$CELTYPE
  6
BYLAYER
  9
$CECOLOR
 62
   256
  9
$CELTSCALE
 40
1.0
  9
$DELOBJ
 70
     1
  9
$DISPSILH
 70
     0
  9
$DIMSCALE
 40
1.0
  9
$DIMASZ
 40
2.5
  9
$DIMEXO
 40
0.625
  9
$DIMDLI
 40
3.75
  9
$DIMRND
 40
0.0
  9
$DIMDLE
 40
0.0
  9
$DIMEXE
 40
1.25
  9
$DIMTP
 40
0.0
  9
$DIMTM
 40
0.0
  9
$DIMTXT
 40
3.5
  9
$DIMCEN
 40
0.0
  9
$DIMTSZ
 40
0.0
  9
$DIMTOL
 70
     0
  9
$DIMLIM
 70
     0
  9
$DIMTIH
 70
     0
  9
$DIMTOH
 70
     0
  9
$DIMSE1
 70
     0
  9
$DIMSE2
 70
     0
  9
$DIMTAD
 70
     1
  9
$DIMZIN
 70
     8
  9
$DIMBLK
  1

  9
$DIMASO
 70
     1
  9
$DIMSHO
 70
     1
  9
$DIMPOST
  1

  9
$DIMAPOST
  1

  9
$DIMALT
 70
     0
  9
$DIMALTD
 70
     2
  9
$DIMALTF
 40
0.03937
  9
$DIMLFAC
 40
1.0
  9
$DIMTOFL
 70
     0
  9
$DIMTVP
 40
0.0
  9
$DIMTIX
 70
     0
  9
$DIMSOXD
 70
     0
  9
$DIMSAH
 70
     0
  9
$DIMBLK1
  1

  9
$DIMBLK2
  1

  9
$DIMSTYLE
  2
STANDARD
  9
$DIMCLRD
 70
     0
  9
$DIMCLRE
 70
     0
  9
$DIMCLRT
 70
     0
  9
$DIMTFAC
 40
1.0
  9
$DIMGAP
 40
0.625
  9
$DIMJUST
 70
     0
  9
$DIMSD1
 70
     0
  9
$DIMSD2
 70
     0
  9
$DIMTOLJ
 70
     1
  9
$DIMTZIN
 70
     8
  9
$DIMALTZ
 70
     0
  9
$DIMALTTZ
 70
     0
  9
$DIMFIT
 70
     3
  9
$DIMUPT
 70
     0
  9
$DIMUNIT
 70
     2
  9
$DIMDEC
 70
     2
  9
$DIMTDEC
 70
     2
  9
$DIMALTU
 70
     2
  9
$DIMALTTD
 70
     2
  9
$DIMTXSTY
  7
STANDARD
  9
$DIMAUNIT
 70
     0
  9
$LUNITS
 70
     2
  9
$LUPREC
 70
     4
  9
$SKETCHINC
 40
0.1
  9
$FILLETRAD
 40
2.0
  9
$AUNITS
 70
     0
  9
$AUPREC
 70
     0
  9
$MENU
  1
acad
  9
$ELEVATION
 40
0.0
  9
$PELEVATION
 40
0.0
  9
$THICKNESS
 40
0.0
  9
$LIMCHECK
 70
     0
  9
$BLIPMODE
 70
     1
  9
$CHAMFERA
 40
0.0
  9
$CHAMFERB
 40
0.0
  9
$CHAMFERC
 40
20.0
  9
$CHAMFERD
 40
0.0
  9
$SKPOLY
 70
     0
  9
$TDCREATE
 40
2452481.284075347
  9
$TDUPDATE
 40
2452681.329659028
  9
$TDINDWG
 40
0.0749880787
  9
$TDUSRTIMER
 40
0.0749880787
  9
$USRTIMER
 70
     1
  9
$ANGBASE
 50
0.0
  9
$ANGDIR
 70
     0
  9
$PDMODE
 70
     0
  9
$PDSIZE
 40
0.0
  9
$PLINEWID
 40
0.0
  9
$COORDS
 70
     1
  9
$SPLFRAME
 70
     0
  9
$SPLINETYPE
 70
     6
  9
$SPLINESEGS
 70
     8
  9
$ATTDIA
 70
     0
  9
$ATTREQ
 70
     1
  9
$HANDLING
 70
     1
  9
$HANDSEED
  5
19A4
  9
$SURFTAB1
 70
     6
  9
$SURFTAB2
 70
     6
  9
$SURFTYPE
 70
     6
  9
$SURFU
 70
     6
  9
$SURFV
 70
     6
  9
$UCSNAME
  2

  9
$UCSORG
 10
0.0
 20
0.0
 30
0.0
  9
$UCSXDIR
 10
1.0
 20
0.0
 30
0.0
  9
$UCSYDIR
 10
0.0
 20
1.0
 30
0.0
  9
$PUCSNAME
  2

  9
$PUCSORG
 10
0.0
 20
0.0
 30
0.0
  9
$PUCSXDIR
 10
1.0
 20
0.0
 30
0.0
  9
$PUCSYDIR
 10
0.0
 20
1.0
 30
0.0
  9
$USERI1
 70
     0
  9
$USERI2
 70
     0
  9
$USERI3
 70
     0
  9
$USERI4
 70
     0
  9
$USERI5
 70
     0
  9
$USERR1
 40
0.0
  9
$USERR2
 40
0.0
  9
$USERR3
 40
0.0
  9
$USERR4
 40
0.0
  9
$USERR5
 40
0.0
  9
$WORLDVIEW
 70
     1
  9
$SHADEDGE
 70
     3
  9
$SHADEDIF
 70
    70
  9
$TILEMODE
 70
     1
  9
$MAXACTVP
 70
    16
  9
$PINSBASE
 10
0.0
 20
0.0
 30
0.0
  9
$PLIMCHECK
 70
     0
  9
$PEXTMIN
 10
1.000000E+20
 20
1.000000E+20
 30
1.000000E+20
  9
$PEXTMAX
 10
-1.000000E+20
 20
-1.000000E+20
 30
-1.000000E+20
  9
$PLIMMIN
 10
0.0
 20
0.0
  9
$PLIMMAX
 10
12.0
 20
9.0
  9
$UNITMODE
 70
     0
  9
$VISRETAIN
 70
     0
  9
$PLINEGEN
 70
     0
  9
$PSLTSCALE
 70
     1
  9
$TREEDEPTH
 70
  3020
  9
$PICKSTYLE
 70
     1
  9
$CMLSTYLE
  2
STANDARD
  9
$CMLJUST
 70
     0
  9
$CMLSCALE
 40
20.0
  9
$SAVEIMAGES
 70
     0
  0
ENDSEC
  0
SECTION
  2
CLASSES
  0
ENDSEC
  0
SECTION
  2
TABLES
  0
TABLE
  2
VPORT
  5
8
100
AcDbSymbolTable
 70
     2
  0
VPORT
  5
19A3
100
AcDbSymbolTableRecord
100
AcDbViewportTableRecord
  2
*ACTIVE
 70
     0
 10
0.0
 20
0.0
 11
1.0
 21
1.0
 12
-1805.827073
 22
-1465.753428
 13
0.0
 23
0.0
 14
10.0
 24
10.0
 15
10.0
 25
10.0
 16
0.0
 26
0.0
 36
1.0
 17
0.0
 27
0.0
 37
0.0
 40
146.828268
 41
1.563011
 42
50.0
 43
0.0
 44
0.0
 50
0.0
 51
0.0
 71
     0
 72
   100
 73
     1
 74
     0
 75
     0
 76
     0
 77
     0
 78
     0
  0
ENDTAB
  0
TABLE
  2
LTYPE
  5
5
100
AcDbSymbolTable
 70
     4
  0
LTYPE
  5
13
100
AcDbSymbolTableRecord
100
AcDbLinetypeTableRecord
  2
BYBLOCK
 70
     0
  3

 72
    65
 73
     0
 40
0.0
  0
LTYPE
  5
14
100
AcDbSymbolTableRecord
100
AcDbLinetypeTableRecord
  2
BYLAYER
 70
     0
  3

 72
    65
 73
     0
 40
0.0
  0
LTYPE
  5
15
100
AcDbSymbolTableRecord
100
AcDbLinetypeTableRecord
  2
CONTINUOUS
 70
    64
  3
Solid line
 72
    65
 73
     0
 40
0.0
  0
LTYPE
  5
94
100
AcDbSymbolTableRecord
100
AcDbLinetypeTableRecord
  2
ACAD_ISO04W100
 70
    64
  3
____ . ____ . ____ . ____ . ____ . ____ . ____ 
 72
    65
 73
     4
 40
30.5
 49
24.0
 74
     0
 49
-3.0
 74
     0
 49
0.5
 74
     0
 49
-3.0
 74
     0
  0
LTYPE
  5
225
100
AcDbSymbolTableRecord
100
AcDbLinetypeTableRecord
  2
TRATTEGGIATAX2
 70
    64
  3
____  ____  ____  ____  ____  ____  ____  ____ 
 72
    65
 73
     2
 40
1.5
 49
1.0
 74
     0
 49
-0.5
 74
     0
  0
LTYPE
  5
226
100
AcDbSymbolTableRecord
100
AcDbLinetypeTableRecord
  2
NASCOSTA
 70
    64
  3
__ __ __ __ __ __ __ __ __ __ __ __ __ __ __ __
 72
    65
 73
     2
 40
0.375
 49
0.25
 74
     0
 49
-0.125
 74
     0
  0
ENDTAB
  0
TABLE
  2
LAYER
  5
2
100
AcDbSymbolTable
 70
    11
  0
LAYER
  5
F
100
AcDbSymbolTableRecord
100
AcDbLayerTableRecord
  2
0
 70
     0
 62
     7
  6
CONTINUOUS
  0
LAYER
  5
95
100
AcDbSymbolTableRecord
100
AcDbLayerTableRecord
  2
DISEGNO
 70
    64
 62
     7
  6
CONTINUOUS
  0
LAYER
  5
96
100
AcDbSymbolTableRecord
100
AcDbLayerTableRecord
  2
ASSI
 70
    64
 62
     1
  6
ACAD_ISO04W100
  0
LAYER
  5
97
100
AcDbSymbolTableRecord
100
AcDbLayerTableRecord
  2
SEZIONE
 70
    64
 62
     3
  6
CONTINUOUS
  0
LAYER
  5
98
100
AcDbSymbolTableRecord
100
AcDbLayerTableRecord
  2
TEMPRA
 70
    64
 62
     2
  6
CONTINUOUS
  0
LAYER
  5
99
100
AcDbSymbolTableRecord
100
AcDbLayerTableRecord
  2
QUOTE
 70
    64
 62
     5
  6
CONTINUOUS
  0
LAYER
  5
1A3
100
AcDbSymbolTableRecord
100
AcDbLayerTableRecord
  2
TRATTO
 70
    64
 62
     6
  6
NASCOSTA
  0
LAYER
  5
28A
100
AcDbSymbolTableRecord
100
AcDbLayerTableRecord
  2
DEFPOINTS
 70
    64
 62
     7
  6
CONTINUOUS
  0
LAYER
  5
4A6
100
AcDbSymbolTableRecord
100
AcDbLayerTableRecord
  2
TABELLA
 70
    64
 62
     8
  6
CONTINUOUS
  0
LAYER
  5
55B
100
AcDbSymbolTableRecord
100
AcDbLayerTableRecord
  2
MARCATURA
 70
    64
 62
   136
  6
CONTINUOUS
  0
LAYER
  5
55C
100
AcDbSymbolTableRecord
100
AcDbLayerTableRecord
  2
TESTO
 70
    64
 62
   140
  6
CONTINUOUS
  0
ENDTAB
  0
TABLE
  2
STYLE
  5
3
100
AcDbSymbolTable
 70
     2
  0
STYLE
  5
10
100
AcDbSymbolTableRecord
100
AcDbTextStyleTableRecord
  2
STANDARD
 70
    64
 40
0.0
 41
1.1
 50
0.0
 71
     0
 42
3.0
  3
D:\Programmi\AutoCAD LT\isocp.shx
  4

  0
STYLE
  5
B0
100
AcDbSymbolTableRecord
100
AcDbTextStyleTableRecord
  2
STYLE3
 70
    64
 40
0.0
 41
1.1
 50
0.0
 71
     0
 42
3.0
  3
D:\Programmi\AutoCAD LT\isocp.shx
  4

  0
ENDTAB
  0
TABLE
  2
VIEW
  5
6
100
AcDbSymbolTable
 70
     0
  0
ENDTAB
  0
TABLE
  2
UCS
  5
7
100
AcDbSymbolTable
 70
     0
  0
ENDTAB
  0
TABLE
  2
APPID
  5
9
100
AcDbSymbolTable
 70
     1
  0
APPID
  5
11
100
AcDbSymbolTableRecord
100
AcDbRegAppTableRecord
  2
ACAD
 70
     0
  0
ENDTAB
  0
TABLE
  2
DIMSTYLE
  5
A
100
AcDbSymbolTable
 70
    24
  0
DIMSTYLE
105
1D
100
AcDbSymbolTableRecord
100
AcDbDimStyleTableRecord
  2
STANDARD
 70
     0
  3

  4

  5

  6

  7

 40
1.0
 41
2.5
 42
0.625
 43
3.75
 44
1.25
 45
0.0
 46
0.0
 47
0.0
 48
0.0
140
3.5
141
2.5
142
0.0
143
0.03937
144
1.0
145
0.0
146
1.0
147
0.625
 71
     0
 72
     0
 73
     0
 74
     0
 75
     0
 76
     0
 77
     1
 78
     8
170
     0
171
     2
172
     0
173
     0
174
     0
175
     0
176
     0
177
     0
178
     0
270
     2
271
     2
272
     2
273
     2
274
     2
340
10
275
     0
280
     0
281
     0
282
     0
283
     1
284
     8
285
     0
286
     0
287
     3
288
     0
  0
DIMSTYLE
105
234
100
AcDbSymbolTableRecord
100
AcDbDimStyleTableRecord
  2
TOLL-04
 70
     0
  3

  4

  5

  6

  7

 40
1.0
 41
2.5
 42
0.625
 43
3.75
 44
1.25
 45
0.0
 46
0.0
 47
0.02
 48
0.02
140
3.5
141
2.5
142
0.0
143
0.03937
144
1.0
145
0.0
146
0.8
147
0.625
 71
     1
 72
     0
 73
     0
 74
     0
 75
     0
 76
     0
 77
     1
 78
     8
170
     0
171
     2
172
     0
173
     0
174
     0
175
     0
176
     0
177
     0
178
     0
270
     2
271
     2
272
     2
273
     2
274
     2
340
10
275
     0
280
     0
281
     0
282
     0
283
     2
284
     8
285
     0
286
     0
287
     3
288
     0
  0
DIMSTYLE
105
4A7
100
AcDbSymbolTableRecord
100
AcDbDimStyleTableRecord
  2
ISO-25
 70
     0
  3

  4

  5

  6

  7

 40
1.0
 41
2.5
 42
0.625
 43
3.75
 44
1.25
 45
0.0
 46
0.0
 47
0.0
 48
0.0
140
2.5
141
2.5
142
0.0
143
0.0394
144
1.0
145
1.0
146
1.0
147
0.625
 71
     0
 72
     0
 73
     1
 74
     0
 75
     0
 76
     0
 77
     1
 78
     8
170
     0
171
     2
172
     1
173
     0
174
     0
175
     0
176
     0
177
     0
178
     0
270
     2
271
     4
272
     4
273
     2
274
     2
340
10
275
     0
280
     0
281
     0
282
     0
283
     1
284
     0
285
     0
286
     0
287
     3
288
     0
  0
DIMSTYLE
105
574
100
AcDbSymbolTableRecord
100
AcDbDimStyleTableRecord
  2
TOLL-01
 70
     0
  3

  4

  5

  6

  7

 40
1.0
 41
2.5
 42
0.625
 43
3.75
 44
1.25
 45
0.0
 46
0.0
 47
0.01
 48
0.01
140
3.5
141
2.5
142
0.0
143
0.03937
144
1.0
145
0.0
146
0.8
147
0.625
 71
     1
 72
     0
 73
     0
 74
     0
 75
     0
 76
     0
 77
     1
 78
     8
170
     0
171
     2
172
     0
173
     0
174
     0
175
     0
176
     0
177
     0
178
     0
270
     2
271
     2
272
     2
273
     2
274
     2
340
10
275
     0
280
     0
281
     0
282
     0
283
     2
284
     8
285
     0
286
     0
287
     3
288
     0
  0
DIMSTYLE
105
575
100
AcDbSymbolTableRecord
100
AcDbDimStyleTableRecord
  2
TOLL-02
 70
     0
  3

  4

  5

  6

  7

 40
1.0
 41
2.5
 42
0.625
 43
3.75
 44
1.25
 45
0.0
 46
0.0
 47
0.01
 48
0.0
140
3.5
141
2.5
142
0.0
143
0.03937
144
1.0
145
0.0
146
0.8
147
0.625
 71
     1
 72
     0
 73
     0
 74
     0
 75
     0
 76
     0
 77
     1
 78
     8
170
     0
171
     2
172
     0
173
     0
174
     0
175
     0
176
     0
177
     0
178
     0
270
     2
271
     2
272
     2
273
     2
274
     2
340
10
275
     0
280
     0
281
     0
282
     0
283
     2
284
     8
285
     0
286
     0
287
     3
288
     0
  0
DIMSTYLE
105
576
100
AcDbSymbolTableRecord
100
AcDbDimStyleTableRecord
  2
TOLL-03
 70
     0
  3

  4

  5

  6

  7

 40
1.0
 41
2.5
 42
0.625
 43
3.75
 44
1.25
 45
0.0
 46
0.0
 47
-0.01
 48
0.0
140
3.5
141
2.5
142
0.0
143
0.03937
144
1.0
145
0.0
146
0.8
147
0.625
 71
     1
 72
     0
 73
     0
 74
     0
 75
     0
 76
     0
 77
     1
 78
     8
170
     0
171
     2
172
     0
173
     0
174
     0
175
     0
176
     0
177
     0
178
     0
270
     2
271
     2
272
     2
273
     2
274
     2
340
10
275
     0
280
     0
281
     0
282
     0
283
     2
284
     8
285
     0
286
     0
287
     3
288
     0
  0
DIMSTYLE
105
577
100
AcDbSymbolTableRecord
100
AcDbDimStyleTableRecord
  2
TOLL-05
 70
     0
  3

  4

  5

  6

  7

 40
1.0
 41
2.5
 42
0.625
 43
3.75
 44
1.25
 45
0.0
 46
0.0
 47
0.02
 48
0.0
140
3.5
141
2.5
142
0.0
143
0.03937
144
1.0
145
0.0
146
0.8
147
0.625
 71
     1
 72
     0
 73
     0
 74
     0
 75
     0
 76
     0
 77
     1
 78
     8
170
     0
171
     2
172
     0
173
     0
174
     0
175
     0
176
     0
177
     0
178
     0
270
     2
271
     2
272
     2
273
     2
274
     2
340
10
275
     0
280
     0
281
     0
282
     0
283
     2
284
     8
285
     0
286
     0
287
     3
288
     0
  0
DIMSTYLE
105
578
100
AcDbSymbolTableRecord
100
AcDbDimStyleTableRecord
  2
TOLL-06
 70
     0
  3

  4

  5

  6

  7

 40
1.0
 41
2.5
 42
0.625
 43
3.75
 44
1.25
 45
0.0
 46
0.0
 47
-0.02
 48
0.0
140
3.5
141
2.5
142
0.0
143
0.03937
144
1.0
145
0.0
146
0.8
147
0.625
 71
     1
 72
     0
 73
     0
 74
     0
 75
     0
 76
     0
 77
     1
 78
     8
170
     0
171
     2
172
     0
173
     0
174
     0
175
     0
176
     0
177
     0
178
     0
270
     2
271
     2
272
     2
273
     2
274
     2
340
10
275
     0
280
     0
281
     0
282
     0
283
     2
284
     8
285
     0
286
     0
287
     3
288
     0
  0
DIMSTYLE
105
579
100
AcDbSymbolTableRecord
100
AcDbDimStyleTableRecord
  2
TOLL-07
 70
     0
  3

  4

  5

  6

  7

 40
1.0
 41
2.5
 42
0.625
 43
3.75
 44
1.25
 45
0.0
 46
0.0
 47
0.05
 48
0.05
140
3.5
141
2.5
142
0.0
143
0.03937
144
1.0
145
0.0
146
0.8
147
0.625
 71
     1
 72
     0
 73
     0
 74
     0
 75
     0
 76
     0
 77
     1
 78
     8
170
     0
171
     2
172
     0
173
     0
174
     0
175
     0
176
     0
177
     0
178
     0
270
     2
271
     2
272
     2
273
     2
274
     2
340
10
275
     0
280
     0
281
     0
282
     0
283
     2
284
     8
285
     0
286
     0
287
     3
288
     0
  0
DIMSTYLE
105
57A
100
AcDbSymbolTableRecord
100
AcDbDimStyleTableRecord
  2
TOLL-08
 70
     0
  3

  4

  5

  6

  7

 40
1.0
 41
2.5
 42
0.625
 43
3.75
 44
1.25
 45
0.0
 46
0.0
 47
0.05
 48
0.0
140
3.5
141
2.5
142
0.0
143
0.03937
144
1.0
145
0.0
146
0.8
147
0.625
 71
     1
 72
     0
 73
     0
 74
     0
 75
     0
 76
     0
 77
     1
 78
     8
170
     0
171
     2
172
     0
173
     0
174
     0
175
     0
176
     0
177
     0
178
     0
270
     2
271
     2
272
     2
273
     2
274
     2
340
10
275
     0
280
     0
281
     0
282
     0
283
     2
284
     8
285
     0
286
     0
287
     3
288
     0
  0
DIMSTYLE
105
57B
100
AcDbSymbolTableRecord
100
AcDbDimStyleTableRecord
  2
TOLL-09
 70
     0
  3

  4

  5

  6

  7

 40
1.0
 41
2.5
 42
0.625
 43
3.75
 44
1.25
 45
0.0
 46
0.0
 47
-0.05
 48
0.0
140
3.5
141
2.5
142
0.0
143
0.03937
144
1.0
145
0.0
146
0.8
147
0.625
 71
     1
 72
     0
 73
     0
 74
     0
 75
     0
 76
     0
 77
     1
 78
     8
170
     0
171
     2
172
     0
173
     0
174
     0
175
     0
176
     0
177
     0
178
     0
270
     2
271
     2
272
     2
273
     2
274
     2
340
10
275
     0
280
     0
281
     0
282
     0
283
     2
284
     8
285
     0
286
     0
287
     3
288
     0
  0
DIMSTYLE
105
57C
100
AcDbSymbolTableRecord
100
AcDbDimStyleTableRecord
  2
TOLL-10
 70
     0
  3

  4

  5

  6

  7

 40
1.0
 41
2.5
 42
0.625
 43
3.75
 44
1.25
 45
0.0
 46
0.0
 47
0.1
 48
0.1
140
3.5
141
2.5
142
0.0
143
0.03937
144
1.0
145
0.0
146
0.8
147
0.625
 71
     1
 72
     0
 73
     0
 74
     0
 75
     0
 76
     0
 77
     1
 78
     8
170
     0
171
     2
172
     0
173
     0
174
     0
175
     0
176
     0
177
     0
178
     0
270
     2
271
     2
272
     2
273
     2
274
     2
340
10
275
     0
280
     0
281
     0
282
     0
283
     2
284
     8
285
     0
286
     0
287
     3
288
     0
  0
DIMSTYLE
105
57D
100
AcDbSymbolTableRecord
100
AcDbDimStyleTableRecord
  2
TOLL-11
 70
     0
  3

  4

  5

  6

  7

 40
1.0
 41
2.5
 42
0.625
 43
3.75
 44
1.25
 45
0.0
 46
0.0
 47
0.1
 48
0.0
140
3.5
141
2.5
142
0.0
143
0.03937
144
1.0
145
0.0
146
0.8
147
0.625
 71
     1
 72
     0
 73
     0
 74
     0
 75
     0
 76
     0
 77
     1
 78
     8
170
     0
171
     2
172
     0
173
     0
174
     0
175
     0
176
     0
177
     0
178
     0
270
     2
271
     2
272
     2
273
     2
274
     2
340
10
275
     0
280
     0
281
     0
282
     0
283
     2
284
     8
285
     0
286
     0
287
     3
288
     0
  0
DIMSTYLE
105
57E
100
AcDbSymbolTableRecord
100
AcDbDimStyleTableRecord
  2
TOLL-12
 70
     0
  3

  4

  5

  6

  7

 40
1.0
 41
2.5
 42
0.625
 43
3.75
 44
1.25
 45
0.0
 46
0.0
 47
-0.1
 48
0.0
140
3.5
141
2.5
142
0.0
143
0.03937
144
1.0
145
0.0
146
0.8
147
0.625
 71
     1
 72
     0
 73
     0
 74
     0
 75
     0
 76
     0
 77
     1
 78
     8
170
     0
171
     2
172
     0
173
     0
174
     0
175
     0
176
     0
177
     0
178
     0
270
     2
271
     2
272
     2
273
     2
274
     2
340
10
275
     0
280
     0
281
     0
282
     0
283
     2
284
     8
285
     0
286
     0
287
     3
288
     0
  0
DIMSTYLE
105
57F
100
AcDbSymbolTableRecord
100
AcDbDimStyleTableRecord
  2
TOLL-13
 70
     0
  3

  4

  5

  6

  7

 40
1.0
 41
2.5
 42
0.625
 43
3.75
 44
1.25
 45
0.0
 46
0.0
 47
0.2
 48
0.2
140
3.5
141
2.5
142
0.0
143
0.03937
144
1.0
145
0.0
146
0.8
147
0.625
 71
     1
 72
     0
 73
     0
 74
     0
 75
     0
 76
     0
 77
     1
 78
     8
170
     0
171
     2
172
     0
173
     0
174
     0
175
     0
176
     0
177
     0
178
     0
270
     2
271
     2
272
     2
273
     2
274
     2
340
10
275
     0
280
     0
281
     0
282
     0
283
     2
284
     8
285
     0
286
     0
287
     3
288
     0
  0
DIMSTYLE
105
580
100
AcDbSymbolTableRecord
100
AcDbDimStyleTableRecord
  2
TOLL-14
 70
     0
  3

  4

  5

  6

  7

 40
1.0
 41
2.5
 42
0.625
 43
3.75
 44
1.25
 45
0.0
 46
0.0
 47
0.2
 48
0.0
140
3.5
141
2.5
142
0.0
143
0.03937
144
1.0
145
0.0
146
0.8
147
0.625
 71
     1
 72
     0
 73
     0
 74
     0
 75
     0
 76
     0
 77
     1
 78
     8
170
     0
171
     2
172
     0
173
     0
174
     0
175
     0
176
     0
177
     0
178
     0
270
     2
271
     2
272
     2
273
     2
274
     2
340
10
275
     0
280
     0
281
     0
282
     0
283
     2
284
     8
285
     0
286
     0
287
     3
288
     0
  0
DIMSTYLE
105
581
100
AcDbSymbolTableRecord
100
AcDbDimStyleTableRecord
  2
TOLL-15
 70
     0
  3

  4

  5

  6

  7

 40
1.0
 41
2.5
 42
0.625
 43
3.75
 44
1.25
 45
0.0
 46
0.0
 47
-0.2
 48
0.0
140
3.5
141
2.5
142
0.0
143
0.03937
144
1.0
145
0.0
146
0.8
147
0.625
 71
     1
 72
     0
 73
     0
 74
     0
 75
     0
 76
     0
 77
     1
 78
     8
170
     0
171
     2
172
     0
173
     0
174
     0
175
     0
176
     0
177
     0
178
     0
270
     2
271
     2
272
     2
273
     2
274
     2
340
10
275
     0
280
     0
281
     0
282
     0
283
     2
284
     8
285
     0
286
     0
287
     3
288
     0
  0
DIMSTYLE
105
582
100
AcDbSymbolTableRecord
100
AcDbDimStyleTableRecord
  2
TOLL-16
 70
     0
  3

  4

  5

  6

  7

 40
1.0
 41
2.5
 42
0.625
 43
3.75
 44
1.25
 45
0.0
 46
0.0
 47
0.5
 48
0.5
140
3.5
141
2.5
142
0.0
143
0.03937
144
1.0
145
0.0
146
0.8
147
0.625
 71
     1
 72
     0
 73
     0
 74
     0
 75
     0
 76
     0
 77
     1
 78
     8
170
     0
171
     2
172
     0
173
     0
174
     0
175
     0
176
     0
177
     0
178
     0
270
     2
271
     2
272
     2
273
     2
274
     2
340
10
275
     0
280
     0
281
     0
282
     0
283
     2
284
     8
285
     0
286
     0
287
     3
288
     0
  0
DIMSTYLE
105
583
100
AcDbSymbolTableRecord
100
AcDbDimStyleTableRecord
  2
TOLL-17
 70
     0
  3

  4

  5

  6

  7

 40
1.0
 41
2.5
 42
0.625
 43
3.75
 44
1.25
 45
0.0
 46
0.0
 47
0.5
 48
0.0
140
3.5
141
2.5
142
0.0
143
0.03937
144
1.0
145
0.0
146
0.8
147
0.625
 71
     1
 72
     0
 73
     0
 74
     0
 75
     0
 76
     0
 77
     1
 78
     8
170
     0
171
     2
172
     0
173
     0
174
     0
175
     0
176
     0
177
     0
178
     0
270
     2
271
     2
272
     2
273
     2
274
     2
340
10
275
     0
280
     0
281
     0
282
     0
283
     2
284
     8
285
     0
286
     0
287
     3
288
     0
  0
DIMSTYLE
105
584
100
AcDbSymbolTableRecord
100
AcDbDimStyleTableRecord
  2
TOLL-18
 70
     0
  3

  4

  5

  6

  7

 40
1.0
 41
2.5
 42
0.625
 43
3.75
 44
1.25
 45
0.0
 46
0.0
 47
-0.5
 48
0.0
140
3.5
141
2.5
142
0.0
143
0.03937
144
1.0
145
0.0
146
0.8
147
0.625
 71
     1
 72
     0
 73
     0
 74
     0
 75
     0
 76
     0
 77
     1
 78
     8
170
     0
171
     2
172
     0
173
     0
174
     0
175
     0
176
     0
177
     0
178
     0
270
     2
271
     2
272
     2
273
     2
274
     2
340
10
275
     0
280
     0
281
     0
282
     0
283
     2
284
     8
285
     0
286
     0
287
     3
288
     0
  0
DIMSTYLE
105
585
100
AcDbSymbolTableRecord
100
AcDbDimStyleTableRecord
  2
TOLL-19
 70
     0
  3

  4

  5

  6

  7

 40
1.0
 41
2.5
 42
0.625
 43
3.75
 44
1.25
 45
0.0
 46
0.0
 47
0.16
 48
0.0
140
3.5
141
2.5
142
0.0
143
0.03937
144
1.0
145
0.0
146
0.8
147
0.625
 71
     1
 72
     0
 73
     0
 74
     0
 75
     0
 76
     0
 77
     1
 78
     8
170
     0
171
     2
172
     0
173
     0
174
     0
175
     0
176
     0
177
     0
178
     0
270
     2
271
     0
272
     2
273
     2
274
     2
340
10
275
     1
280
     0
281
     0
282
     0
283
     2
284
     8
285
     0
286
     0
287
     3
288
     0
  0
DIMSTYLE
105
5E5
100
AcDbSymbolTableRecord
100
AcDbDimStyleTableRecord
  2
TOLL-20
 70
     0
  3

  4

  5

  6

  7

 40
1.0
 41
2.5
 42
0.625
 43
3.75
 44
1.25
 45
0.0
 46
0.0
 47
-0.08
 48
-0.08
140
3.5
141
2.5
142
0.0
143
0.03937
144
1.0
145
0.0
146
0.8
147
0.625
 71
     1
 72
     0
 73
     0
 74
     0
 75
     0
 76
     0
 77
     1
 78
     8
170
     0
171
     2
172
     0
173
     0
174
     0
175
     0
176
     0
177
     0
178
     0
270
     2
271
     0
272
     2
273
     2
274
     2
340
10
275
     1
280
     0
281
     0
282
     0
283
     2
284
     8
285
     0
286
     0
287
     3
288
     0
  0
DIMSTYLE
105
5E6
100
AcDbSymbolTableRecord
100
AcDbDimStyleTableRecord
  2
TOLL-21
 70
     0
  3

  4

  5

  6

  7

 40
1.0
 41
2.5
 42
0.625
 43
3.75
 44
1.25
 45
0.0
 46
0.0
 47
0.033
 48
0.0
140
3.5
141
2.5
142
0.0
143
0.03937
144
1.0
145
0.0
146
0.8
147
0.625
 71
     1
 72
     0
 73
     0
 74
     0
 75
     0
 76
     0
 77
     1
 78
     8
170
     0
171
     2
172
     0
173
     0
174
     0
175
     0
176
     0
177
     0
178
     0
270
     2
271
     0
272
     2
273
     2
274
     2
340
10
275
     1
280
     0
281
     0
282
     0
283
     2
284
     8
285
     0
286
     0
287
     3
288
     0
  0
DIMSTYLE
105
60E
100
AcDbSymbolTableRecord
100
AcDbDimStyleTableRecord
  2
TOLL-22
 70
     0
  3

  4

  5

  6

  7

 40
1.0
 41
2.5
 42
0.625
 43
3.75
 44
1.25
 45
0.0
 46
0.0
 47
-0.033
 48
0.0
140
3.5
141
2.5
142
0.0
143
0.03937
144
1.0
145
0.0
146
0.8
147
0.625
 71
     1
 72
     0
 73
     0
 74
     0
 75
     0
 76
     0
 77
     1
 78
     8
170
     0
171
     2
172
     0
173
     0
174
     0
175
     0
176
     0
177
     0
178
     0
270
     2
271
     0
272
     2
273
     2
274
     2
340
10
275
     1
280
     0
281
     0
282
     0
283
     2
284
     8
285
     0
286
     0
287
     3
288
     0
  0
ENDTAB
  0
TABLE
  2
BLOCK_RECORD
  5
1
100
AcDbSymbolTable
 70
    44
  0
BLOCK_RECORD
  5
19
100
AcDbSymbolTableRecord
100
AcDbBlockTableRecord
  2
*MODEL_SPACE
  0
BLOCK_RECORD
  5
16
100
AcDbSymbolTableRecord
100
AcDbBlockTableRecord
  2
*PAPER_SPACE
  0
BLOCK_RECORD
  5
3A2
100
AcDbSymbolTableRecord
100
AcDbBlockTableRecord
  2
RUGOSITA
  0
BLOCK_RECORD
  5
4A8
100
AcDbSymbolTableRecord
100
AcDbBlockTableRecord
  2
A$C52B2
  0
BLOCK_RECORD
  5
62B
100
AcDbSymbolTableRecord
100
AcDbBlockTableRecord
  2
A$C350
  0
BLOCK_RECORD
  5
69B
100
AcDbSymbolTableRecord
100
AcDbBlockTableRecord
  2
*D3
  0
BLOCK_RECORD
  5
6CF
100
AcDbSymbolTableRecord
100
AcDbBlockTableRecord
  2
*D4
  0
BLOCK_RECORD
  5
723
100
AcDbSymbolTableRecord
100
AcDbBlockTableRecord
  2
*D5
  0
BLOCK_RECORD
  5
731
100
AcDbSymbolTableRecord
100
AcDbBlockTableRecord
  2
*D6
  0
BLOCK_RECORD
  5
7B8
100
AcDbSymbolTableRecord
100
AcDbBlockTableRecord
  2
*D7
  0
BLOCK_RECORD
  5
807
100
AcDbSymbolTableRecord
100
AcDbBlockTableRecord
  2
*D8
  0
BLOCK_RECORD
  5
815
100
AcDbSymbolTableRecord
100
AcDbBlockTableRecord
  2
*D9
  0
BLOCK_RECORD
  5
862
100
AcDbSymbolTableRecord
100
AcDbBlockTableRecord
  2
*D10
  0
BLOCK_RECORD
  5
892
100
AcDbSymbolTableRecord
100
AcDbBlockTableRecord
  2
*D11
  0
BLOCK_RECORD
  5
926
100
AcDbSymbolTableRecord
100
AcDbBlockTableRecord
  2
*D12
  0
BLOCK_RECORD
  5
933
100
AcDbSymbolTableRecord
100
AcDbBlockTableRecord
  2
*D13
  0
BLOCK_RECORD
  5
941
100
AcDbSymbolTableRecord
100
AcDbBlockTableRecord
  2
*D14
  0
BLOCK_RECORD
  5
AE0
100
AcDbSymbolTableRecord
100
AcDbBlockTableRecord
  2
*D15
  0
BLOCK_RECORD
  5
AEC
100
AcDbSymbolTableRecord
100
AcDbBlockTableRecord
  2
*D16
  0
BLOCK_RECORD
  5
AF9
100
AcDbSymbolTableRecord
100
AcDbBlockTableRecord
  2
*D17
  0
BLOCK_RECORD
  5
B7D
100
AcDbSymbolTableRecord
100
AcDbBlockTableRecord
  2
*D18
  0
BLOCK_RECORD
  5
B8A
100
AcDbSymbolTableRecord
100
AcDbBlockTableRecord
  2
*D19
  0
BLOCK_RECORD
  5
BB4
100
AcDbSymbolTableRecord
100
AcDbBlockTableRecord
  2
*D20
  0
BLOCK_RECORD
  5
BCE
100
AcDbSymbolTableRecord
100
AcDbBlockTableRecord
  2
*D21
  0
BLOCK_RECORD
  5
BEA
100
AcDbSymbolTableRecord
100
AcDbBlockTableRecord
  2
*D22
  0
BLOCK_RECORD
  5
C05
100
AcDbSymbolTableRecord
100
AcDbBlockTableRecord
  2
*D23
  0
BLOCK_RECORD
  5
C13
100
AcDbSymbolTableRecord
100
AcDbBlockTableRecord
  2
*D24
  0
BLOCK_RECORD
  5
11B1
100
AcDbSymbolTableRecord
100
AcDbBlockTableRecord
  2
*D25
  0
BLOCK_RECORD
  5
11BE
100
AcDbSymbolTableRecord
100
AcDbBlockTableRecord
  2
*D26
  0
BLOCK_RECORD
  5
146B
100
AcDbSymbolTableRecord
100
AcDbBlockTableRecord
  2
A$C170
  0
BLOCK_RECORD
  5
147A
100
AcDbSymbolTableRecord
100
AcDbBlockTableRecord
  2
*D28
  0
BLOCK_RECORD
  5
14AE
100
AcDbSymbolTableRecord
100
AcDbBlockTableRecord
  2
*D29
  0
BLOCK_RECORD
  5
14BB
100
AcDbSymbolTableRecord
100
AcDbBlockTableRecord
  2
*D30
  0
BLOCK_RECORD
  5
15B6
100
AcDbSymbolTableRecord
100
AcDbBlockTableRecord
  2
*D31
  0
BLOCK_RECORD
  5
16EA
100
AcDbSymbolTableRecord
100
AcDbBlockTableRecord
  2
*D32
  0
BLOCK_RECORD
  5
171C
100
AcDbSymbolTableRecord
100
AcDbBlockTableRecord
  2
*D33
  0
BLOCK_RECORD
  5
173C
100
AcDbSymbolTableRecord
100
AcDbBlockTableRecord
  2
*D34
  0
BLOCK_RECORD
  5
1781
100
AcDbSymbolTableRecord
100
AcDbBlockTableRecord
  2
*X35
  0
BLOCK_RECORD
  5
17F5
100
AcDbSymbolTableRecord
100
AcDbBlockTableRecord
  2
*D36
  0
BLOCK_RECORD
  5
180A
100
AcDbSymbolTableRecord
100
AcDbBlockTableRecord
  2
*D37
  0
BLOCK_RECORD
  5
183C
100
AcDbSymbolTableRecord
100
AcDbBlockTableRecord
  2
*D38
  0
BLOCK_RECORD
  5
186F
100
AcDbSymbolTableRecord
100
AcDbBlockTableRecord
  2
*D39
  0
BLOCK_RECORD
  5
189B
100
AcDbSymbolTableRecord
100
AcDbBlockTableRecord
  2
*D40
  0
BLOCK_RECORD
  5
18D5
100
AcDbSymbolTableRecord
100
AcDbBlockTableRecord
  2
*X41
  0
BLOCK_RECORD
  5
1956
100
AcDbSymbolTableRecord
100
AcDbBlockTableRecord
  2
*D42
  0
BLOCK_RECORD
  5
197A
100
AcDbSymbolTableRecord
100
AcDbBlockTableRecord
  2
*D43
  0
ENDTAB
  0
ENDSEC
  0
SECTION
  2
BLOCKS
  0
BLOCK
  5
1A
100
AcDbEntity
  8
0
100
AcDbBlockBegin
  2
*MODEL_SPACE
 70
     0
 10
0.0
 20
0.0
 30
0.0
  3
*MODEL_SPACE
  1

  0
ENDBLK
  5
1B
100
AcDbEntity
  8
0
100
AcDbBlockEnd
  0
BLOCK
  5
17
100
AcDbEntity
 67
     1
  8
0
100
AcDbBlockBegin
  2
*PAPER_SPACE
 70
     0
 10
0.0
 20
0.0
 30
0.0
  3
*PAPER_SPACE
  1

  0
ENDBLK
  5
18
100
AcDbEntity
 67
     1
  8
0
100
AcDbBlockEnd
  0
BLOCK
  5
3A7
100
AcDbEntity
  8
DISEGNO
100
AcDbBlockBegin
  2
RUGOSITA
 70
     2
 10
0.0
 20
0.0
 30
0.0
  3
RUGOSITA
  1

  0
ATTDEF
  5
3A3
100
AcDbEntity
  8
QUOTE
100
AcDbText
 10
-1.071886
 20
3.214106
 30
0.0
 40
1.5
  1
0.8
100
AcDbAttributeDefinition
  3
CHE RUGOSITA ?
  2
RUGOSITA
 70
     0
  0
LINE
  5
3A4
100
AcDbEntity
  8
QUOTE
100
AcDbLine
 10
0.0
 20
0.0
 30
0.0
 11
4.0
 21
6.928203
 31
0.0
  0
LINE
  5
3A5
100
AcDbEntity
  8
QUOTE
100
AcDbLine
 10
0.0
 20
0.0
 30
0.0
 11
-1.75
 21
3.031089
 31
0.0
  0
LINE
  5
3A6
100
AcDbEntity
  8
QUOTE
100
AcDbLine
 10
-1.75
 20
3.031089
 30
0.0
 11
1.75
 21
3.031089
 31
0.0
  0
ENDBLK
  5
3A8
100
AcDbEntity
  8
DISEGNO
100
AcDbBlockEnd
  0
BLOCK
  5
547
100
AcDbEntity
  8
QUOTE
100
AcDbBlockBegin
  2
A$C52B2
 70
     0
 10
0.0
 20
0.0
 30
0.0
  3
A$C52B2
  1

  0
LINE
  5
4A9
100
AcDbEntity
  8
TABELLA
  6
CONTINUOUS
100
AcDbLine
 10
100.781064
 20
5.387067
 30
0.0
 11
103.281064
 21
0.387067
 31
0.0
  0
LINE
  5
4AA
100
AcDbEntity
  8
TABELLA
  6
CONTINUOUS
100
AcDbLine
 10
100.781064
 20
0.387067
 30
0.0
 11
103.281064
 21
0.387067
 31
0.0
  0
LINE
  5
4AB
100
AcDbEntity
  8
TABELLA
  6
CONTINUOUS
100
AcDbLine
 10
103.281064
 20
287.387067
 30
0.0
 11
100.781064
 21
282.387067
 31
0.0
  0
LINE
  5
4AC
100
AcDbEntity
  8
TABELLA
  6
CONTINUOUS
100
AcDbLine
 10
100.781064
 20
287.387067
 30
0.0
 11
103.281064
 21
287.387067
 31
0.0
  0
TEXT
  5
4AD
100
AcDbEntity
  8
TABELLA
  6
CONTINUOUS
100
AcDbText
 10
83.891226
 20
14.123583
 30
0.0
 40
6.0
  1
ROLLERI
100
AcDbText
  0
LINE
  5
4AE
100
AcDbEntity
  8
TABELLA
  6
CONTINUOUS
100
AcDbLine
 10
115.706968
 20
22.612261
 30
0.0
 11
84.107383
 21
22.612261
 31
0.0
1001
ACAD
1000
ASC_BOUNDS
1002
{
1070
    19
1002
}
  0
LINE
  5
4AF
100
AcDbEntity
  8
TABELLA
  6
CONTINUOUS
100
AcDbLine
 10
82.055262
 20
11.456564
 30
0.0
 11
113.654847
 21
11.456564
 31
0.0
1001
ACAD
1000
ASC_BOUNDS
1002
{
1070
    19
1002
}
  0
LINE
  5
4B0
100
AcDbEntity
  8
TABELLA
  6
CONTINUOUS
100
AcDbLine
 10
116.407176
 20
23.612261
 30
0.0
 11
83.407176
 21
23.612261
 31
0.0
1001
ACAD
1000
ASC_BOUNDS
1002
{
1070
    19
1002
}
  0
LINE
  5
4B1
100
AcDbEntity
  8
TABELLA
  6
CONTINUOUS
100
AcDbLine
 10
81.355055
 20
10.456564
 30
0.0
 11
114.355055
 21
10.456564
 31
0.0
1001
ACAD
1000
ASC_BOUNDS
1002
{
1070
    19
1002
}
  0
TEXT
  5
4B2
100
AcDbEntity
  8
TABELLA
  6
CONTINUOUS
100
AcDbText
 10
79.770815
 20
6.679292
 30
0.0
 40
2.0
  1
Vigolzone ( Piacenza ) - ITALIA
100
AcDbText
  0
LINE
  5
4B3
100
AcDbEntity
  8
TABELLA
  6
CONTINUOUS
100
AcDbLine
 10
125.782064
 20
35.387067
 30
0.0
 11
75.782064
 21
35.387067
 31
0.0
  0
LINE
  5
4B4
100
AcDbEntity
  8
TABELLA
  6
CONTINUOUS
100
AcDbLine
 10
195.782064
 20
45.387067
 30
0.0
 11
5.697058
 21
45.395351
 31
0.0
  0
LINE
  5
4B5
100
AcDbEntity
  8
TABELLA
  6
CONTINUOUS
100
AcDbLine
 10
125.782064
 20
25.387067
 30
0.0
 11
75.782064
 21
25.387067
 31
0.0
  0
LINE
  5
4B6
100
AcDbEntity
  8
TABELLA
  6
CONTINUOUS
100
AcDbLine
 10
195.782064
 20
5.387067
 30
0.0
 11
5.782064
 21
5.387067
 31
0.0
  0
LINE
  5
4B7
100
AcDbEntity
  8
TABELLA
  6
CONTINUOUS
100
AcDbLine
 10
5.782064
 20
282.387067
 30
0.0
 11
195.782064
 21
282.387067
 31
0.0
  0
LINE
  5
4B8
100
AcDbEntity
  8
TABELLA
  6
CONTINUOUS
100
AcDbLine
 10
5.782064
 20
143.887067
 30
0.0
 11
0.782064
 21
141.387067
 31
0.0
  0
LINE
  5
4B9
100
AcDbEntity
  8
TABELLA
  6
CONTINUOUS
100
AcDbLine
 10
0.782064
 20
143.887067
 30
0.0
 11
0.782064
 21
141.387067
 31
0.0
  0
LINE
  5
4BA
100
AcDbEntity
  8
TABELLA
  6
CONTINUOUS
100
AcDbLine
 10
5.782064
 20
5.387067
 30
0.0
 11
5.782064
 21
282.387067
 31
0.0
  0
POLYLINE
  5
4BB
100
AcDbEntity
  8
QUOTE
100
AcDb2dPolyline
 66
     1
 10
0.0
 20
0.0
 30
0.0
 70
     1
  0
VERTEX
  5
4BC
100
AcDbEntity
  8
QUOTE
100
AcDbVertex
100
AcDb2dVertex
 10
11.507487
 20
62.582414
 30
0.0
  0
VERTEX
  5
4BD
100
AcDbEntity
  8
QUOTE
100
AcDbVertex
100
AcDb2dVertex
 10
11.507487
 20
49.867806
 30
0.0
  0
VERTEX
  5
4BE
100
AcDbEntity
  8
QUOTE
100
AcDbVertex
100
AcDb2dVertex
 10
52.626527
 20
49.867806
 30
0.0
  0
VERTEX
  5
4BF
100
AcDbEntity
  8
QUOTE
100
AcDbVertex
100
AcDb2dVertex
 10
52.626527
 20
62.582414
 30
0.0
  0
SEQEND
  5
4C0
100
AcDbEntity
  8
QUOTE
  0
TOLERANCE
  5
4C1
100
AcDbEntity
  8
QUOTE
  6
CONTINUOUS
100
AcDbFcf
  3
ISO-25
 10
30.863585
 20
54.182522
 30
0.0
  1
{\Fgdt;u}%%v0.02%%v%%v%%v%%v
1001
ACAD
1000
DSTYLE
1002
{
1070
   140
1040
2.6
1070
    47
1040
0.02
1070
    73
1070
     0
1070
   272
1070
     2
1070
   147
1040
0.53
1070
    42
1040
0.5261
1070
    44
1040
1.0522
1070
    43
1040
3.1566
1070
   271
1070
     2
1070
   141
1040
2.1044
1070
    41
1040
2.6
1002
}
  0
TEXT
  5
4C2
100
AcDbEntity
  8
QUOTE
100
AcDbText
 10
12.101072
 20
58.118453
 30
0.0
 40
2.5
  1
TOLLERANZE AL METRO
 41
1.1
100
AcDbText
  0
TEXT
  5
4C3
100
AcDbEntity
  8
TABELLA
  6
CONTINUOUS
100
AcDbText
 10
7.271803
 20
15.7314
 30
0.0
 40
2.0
  1
- Angoli su superfici lavorate = +/- 30'
100
AcDbText
  0
TEXT
  5
4C4
100
AcDbEntity
  8
TABELLA
  6
CONTINUOUS
100
AcDbText
 10
7.271803
 20
23.3314
 30
0.0
 40
2.0
  1
   da mm 151 a mm 500 = +/- 0.4
100
AcDbText
  0
TEXT
  5
4C5
100
AcDbEntity
  8
TABELLA
  6
CONTINUOUS
100
AcDbText
 10
7.271803
 20
27.1314
 30
0.0
 40
2.0
  1
   da mm 51 a mm 150 = +/- 0.3
100
AcDbText
  0
TEXT
  5
4C6
100
AcDbEntity
  8
TABELLA
  6
CONTINUOUS
100
AcDbText
 10
7.271803
 20
30.9314
 30
0.0
 40
2.0
  1
- Superfici lavorate da mm 1 a mm 50 = +/- 0.2
100
AcDbText
  0
TEXT
  5
4C7
100
AcDbEntity
  8
TABELLA
  6
CONTINUOUS
100
AcDbText
 10
7.271803
 20
34.7314
 30
0.0
 40
2.0
  1
- Parti fuse con spessori >10 mm = +/- 10%
100
AcDbText
  0
TEXT
  5
4C8
100
AcDbEntity
  8
TABELLA
  6
CONTINUOUS
100
AcDbText
 10
7.271803
 20
38.5314
 30
0.0
 40
2.0
  1
- Parti fuse con spessori <10 mm = +/- 1 mm
100
AcDbText
  0
TOLERANCE
  5
4C9
100
AcDbEntity
  8
QUOTE
  6
CONTINUOUS
100
AcDbFcf
  3
ISO-25
 10
15.305627
 20
54.182522
 30
0.0
  1
{\Fgdt;b}%%v0.02%%v%%v%%v%%v
1001
ACAD
1000
DSTYLE
1002
{
1070
   140
1040
2.6
1070
    47
1040
0.02
1070
    73
1070
     0
1070
   272
1070
     2
1070
   147
1040
0.53
1070
    42
1040
0.5261
1070
    44
1040
1.0522
1070
    43
1040
3.1566
1070
   271
1070
     2
1070
   141
1040
2.1044
1070
    41
1040
2.6
1002
}
  0
TEXT
  5
4CA
100
AcDbEntity
  8
TABELLA
  6
CONTINUOUS
100
AcDbText
 10
0.769342
 20
51.259863
 30
0.0
 40
4.0
  1
B
100
AcDbText
  0
TEXT
  5
4CB
100
AcDbEntity
  8
TABELLA
  6
CONTINUOUS
100
AcDbText
 10
0.353187
 20
15.100813
 30
0.0
 40
4.0
  1
A
100
AcDbText
  0
LINE
  5
4CC
100
AcDbEntity
  8
TABELLA
  6
CONTINUOUS
100
AcDbLine
 10
5.782064
 20
36.262067
 30
0.0
 11
0.782064
 21
36.262067
 31
0.0
  0
TEXT
  5
4CD
100
AcDbEntity
  8
TABELLA
  6
CONTINUOUS
100
AcDbText
 10
15.583223
 20
0.138446
 30
0.0
 40
4.0
  1
6
100
AcDbText
  0
LINE
  5
4CE
100
AcDbEntity
  8
TABELLA
  6
CONTINUOUS
100
AcDbLine
 10
34.115064
 20
5.387067
 30
0.0
 11
34.115064
 21
0.387067
 31
0.0
  0
TEXT
  5
4CF
100
AcDbEntity
  8
TABELLA
  6
CONTINUOUS
100
AcDbText
 10
7.271803
 20
11.9314
 30
0.0
 40
2.0
  1
- Interassi fori = +/- 0.25
100
AcDbText
  0
TEXT
  5
4D0
100
AcDbEntity
  8
TABELLA
  6
CONTINUOUS
100
AcDbText
 10
7.271803
 20
19.5314
 30
0.0
 40
2.0
  1
   oltre 500 mm = +/- 0.5
100
AcDbText
  0
TEXT
  5
4D1
100
AcDbEntity
  8
TABELLA
  6
CONTINUOUS
100
AcDbText
 10
7.271803
 20
42.3314
 30
0.0
 40
2.0
  1
TOLLERANZE GENERALI :
100
AcDbText
  0
LINE
  5
4D2
100
AcDbEntity
  8
TABELLA
  6
CONTINUOUS
100
AcDbLine
 10
5.782064
 20
72.137067
 30
0.0
 11
0.782064
 21
72.137067
 31
0.0
  0
TEXT
  5
4D3
100
AcDbEntity
  8
TABELLA
  6
CONTINUOUS
100
AcDbText
 10
0.769342
 20
87.459725
 30
0.0
 40
4.0
  1
C
100
AcDbText
  0
LINE
  5
4D4
100
AcDbEntity
  8
TABELLA
  6
CONTINUOUS
100
AcDbLine
 10
5.782064
 20
108.012067
 30
0.0
 11
0.782064
 21
108.012067
 31
0.0
  0
TEXT
  5
4D5
100
AcDbEntity
  8
TABELLA
  6
CONTINUOUS
100
AcDbText
 10
0.769342
 20
124.034397
 30
0.0
 40
4.0
  1
D
100
AcDbText
  0
LINE
  5
4D6
100
AcDbEntity
  8
TABELLA
  6
CONTINUOUS
100
AcDbLine
 10
65.792444
 20
45.394891
 30
0.0
 11
65.782064
 21
5.389662
 31
0.0
  0
TEXT
  5
4D7
100
AcDbEntity
  8
TABELLA
  6
CONTINUOUS
100
AcDbText
 10
68.438556
 20
7.454028
 30
0.0
 40
1.5
  1
A termine di legge la Rolleri si riserva la
 50
90.0
100
AcDbText
  0
TEXT
  5
4D8
100
AcDbEntity
  8
TABELLA
  6
CONTINUOUS
100
AcDbText
 10
49.29176
 20
0.138446
 30
0.0
 40
4.0
  1
5
100
AcDbText
  0
LINE
  5
4D9
100
AcDbEntity
  8
TABELLA
  6
CONTINUOUS
100
AcDbLine
 10
67.448064
 20
5.387067
 30
0.0
 11
67.448064
 21
0.387067
 31
0.0
  0
LINE
  5
4DA
100
AcDbEntity
  8
TABELLA
  6
CONTINUOUS
100
AcDbLine
 10
75.792442
 20
45.387067
 30
0.0
 11
75.792442
 21
5.387067
 31
0.0
  0
TEXT
  5
4DB
100
AcDbEntity
  8
TABELLA
  6
CONTINUOUS
100
AcDbText
 10
74.138556
 20
7.454028
 30
0.0
 40
1.5
  1
di riprodurlo e di comunicarlo a terzi.
 50
90.0
100
AcDbText
  0
TEXT
  5
4DC
100
AcDbEntity
  8
TABELLA
  6
CONTINUOUS
100
AcDbText
 10
71.288556
 20
7.454028
 30
0.0
 40
1.5
  1
proprietà di questo disegno, con divieto
 50
90.0
100
AcDbText
  0
TEXT
  5
4DD
100
AcDbEntity
  8
TABELLA
  6
CONTINUOUS
100
AcDbText
 10
83.416451
 20
0.554068
 30
0.0
 40
4.0
  1
4
100
AcDbText
  0
LINE
  5
4DE
100
AcDbEntity
  8
TABELLA
  6
CONTINUOUS
100
AcDbLine
 10
98.281064
 20
0.387067
 30
0.0
 11
100.781064
 21
5.387067
 31
0.0
  0
LINE
  5
4DF
100
AcDbEntity
  8
TABELLA
  6
CONTINUOUS
100
AcDbLine
 10
100.781064
 20
5.387067
 30
0.0
 11
100.781064
 21
0.387067
 31
0.0
  0
LINE
  5
4E0
100
AcDbEntity
  8
TABELLA
  6
CONTINUOUS
100
AcDbLine
 10
100.781064
 20
0.387067
 30
0.0
 11
98.281064
 21
0.387067
 31
0.0
  0
TEXT
  5
4E1
100
AcDbEntity
  8
TABELLA
  6
CONTINUOUS
100
AcDbText
 10
77.180326
 20
42.484843
 30
0.0
 40
2.0
  1
Materiale
100
AcDbText
  0
TEXT
  5
4E2
100
AcDbEntity
  8
TABELLA
  6
CONTINUOUS
100
AcDbText
 10
76.949018
 20
32.320687
 30
0.0
 40
2.0
  1
Disegnato da
100
AcDbText
  0
LINE
  5
4E3
100
AcDbEntity
  8
TABELLA
  6
CONTINUOUS
100
AcDbLine
 10
84.107383
 20
22.612261
 30
0.0
 11
81.051152
 21
14.215335
 31
0.0
1001
ACAD
1000
ASC_BOUNDS
1002
{
1070
    19
1002
}
  0
LINE
  5
4E4
100
AcDbEntity
  8
TABELLA
  6
CONTINUOUS
100
AcDbLine
 10
83.407176
 20
23.612261
 30
0.0
 11
79.986974
 21
14.215335
 31
0.0
1001
ACAD
1000
ASC_BOUNDS
1002
{
1070
    19
1002
}
  0
LINE
  5
4E5
100
AcDbEntity
  8
TABELLA
  6
CONTINUOUS
100
AcDbLine
 10
81.051152
 20
14.215335
 30
0.0
 11
82.055262
 21
11.456564
 31
0.0
1001
ACAD
1000
ASC_BOUNDS
1002
{
1070
    19
1002
}
  0
LINE
  5
4E6
100
AcDbEntity
  8
TABELLA
  6
CONTINUOUS
100
AcDbLine
 10
79.986974
 20
14.215335
 30
0.0
 11
81.355055
 21
10.456564
 31
0.0
1001
ACAD
1000
ASC_BOUNDS
1002
{
1070
    19
1002
}
  0
LINE
  5
4E7
100
AcDbEntity
  8
TABELLA
  6
CONTINUOUS
100
AcDbLine
 10
100.782064
 20
35.387067
 30
0.0
 11
100.782064
 21
25.387067
 31
0.0
  0
TEXT
  5
4E8
100
AcDbEntity
  8
TABELLA
  6
CONTINUOUS
100
AcDbText
 10
1.185497
 20
230.800736
 30
0.0
 40
4.0
  1
G
100
AcDbText
  0
LINE
  5
4E9
100
AcDbEntity
  8
TABELLA
  6
CONTINUOUS
100
AcDbLine
 10
0.782064
 20
146.387067
 30
0.0
 11
5.782064
 21
143.887067
 31
0.0
  0
LINE
  5
4EA
100
AcDbEntity
  8
TABELLA
  6
CONTINUOUS
100
AcDbLine
 10
5.782064
 20
143.887067
 30
0.0
 11
0.782064
 21
143.887067
 31
0.0
  0
LINE
  5
4EB
100
AcDbEntity
  8
TABELLA
  6
CONTINUOUS
100
AcDbLine
 10
0.782064
 20
143.887067
 30
0.0
 11
0.782064
 21
146.387067
 31
0.0
  0
TEXT
  5
4EC
100
AcDbEntity
  8
TABELLA
  6
CONTINUOUS
100
AcDbText
 10
1.601651
 20
158.319393
 30
0.0
 40
4.0
  1
E
100
AcDbText
  0
LINE
  5
4ED
100
AcDbEntity
  8
TABELLA
  6
CONTINUOUS
100
AcDbLine
 10
5.782064
 20
179.762067
 30
0.0
 11
0.782064
 21
179.762067
 31
0.0
  0
TEXT
  5
4EE
100
AcDbEntity
  8
TABELLA
  6
CONTINUOUS
100
AcDbText
 10
1.185497
 20
195.309687
 30
0.0
 40
4.0
  1
F
100
AcDbText
  0
LINE
  5
4EF
100
AcDbEntity
  8
TABELLA
  6
CONTINUOUS
100
AcDbLine
 10
5.782064
 20
215.637067
 30
0.0
 11
0.782064
 21
215.637067
 31
0.0
  0
LINE
  5
4F0
100
AcDbEntity
  8
TABELLA
  6
CONTINUOUS
100
AcDbLine
 10
5.782064
 20
251.512067
 30
0.0
 11
0.782064
 21
251.512067
 31
0.0
  0
TEXT
  5
4F1
100
AcDbEntity
  8
TABELLA
  6
CONTINUOUS
100
AcDbText
 10
1.185497
 20
268.206651
 30
0.0
 40
4.0
  1
H
100
AcDbText
  0
TEXT
  5
4F2
100
AcDbEntity
  8
TABELLA
  6
CONTINUOUS
100
AcDbText
 10
15.583224
 20
283.209827
 30
0.0
 40
4.0
  1
6
100
AcDbText
  0
LINE
  5
4F3
100
AcDbEntity
  8
TABELLA
  6
CONTINUOUS
100
AcDbLine
 10
34.115064
 20
282.387067
 30
0.0
 11
34.115064
 21
287.387067
 31
0.0
  0
TEXT
  5
4F4
100
AcDbEntity
  8
TABELLA
  6
CONTINUOUS
100
AcDbText
 10
50.12407
 20
283.250638
 30
0.0
 40
4.0
  1
5
100
AcDbText
  0
LINE
  5
4F5
100
AcDbEntity
  8
TABELLA
  6
CONTINUOUS
100
AcDbLine
 10
67.448064
 20
282.387067
 30
0.0
 11
67.448064
 21
287.387067
 31
0.0
  0
TEXT
  5
4F6
100
AcDbEntity
  8
TABELLA
  6
CONTINUOUS
100
AcDbText
 10
83.832607
 20
283.250638
 30
0.0
 40
4.0
  1
4
100
AcDbText
  0
LINE
  5
4F7
100
AcDbEntity
  8
TABELLA
  6
CONTINUOUS
100
AcDbLine
 10
100.781064
 20
282.387067
 30
0.0
 11
98.281064
 21
287.387067
 31
0.0
  0
LINE
  5
4F8
100
AcDbEntity
  8
TABELLA
  6
CONTINUOUS
100
AcDbLine
 10
100.781064
 20
282.387067
 30
0.0
 11
100.781064
 21
287.387067
 31
0.0
  0
LINE
  5
4F9
100
AcDbEntity
  8
TABELLA
  6
CONTINUOUS
100
AcDbLine
 10
100.781064
 20
287.387067
 30
0.0
 11
98.281064
 21
287.387067
 31
0.0
  0
LINE
  5
4FA
100
AcDbEntity
  8
TABELLA
  6
CONTINUOUS
100
AcDbLine
 10
200.782064
 20
141.387067
 30
0.0
 11
195.782064
 21
143.887067
 31
0.0
  0
LINE
  5
4FB
100
AcDbEntity
  8
TABELLA
  6
CONTINUOUS
100
AcDbLine
 10
200.782064
 20
143.887067
 30
0.0
 11
200.782064
 21
141.387067
 31
0.0
  0
LINE
  5
4FC
100
AcDbEntity
  8
TABELLA
  6
CONTINUOUS
100
AcDbLine
 10
191.781227
 20
165.387241
 30
0.0
 11
191.781227
 21
45.387241
 31
0.0
  0
LINE
  5
4FD
100
AcDbEntity
  8
TABELLA
  6
CONTINUOUS
100
AcDbLine
 10
195.782064
 20
5.387067
 30
0.0
 11
195.782064
 21
282.387067
 31
0.0
  0
TEXT
  5
4FE
100
AcDbEntity
  8
TABELLA
  6
CONTINUOUS
100
AcDbText
 10
147.267168
 20
42.484843
 30
0.0
 40
2.0
  1
Trattamento Termico
100
AcDbText
  0
TEXT
  5
4FF
100
AcDbEntity
  8
TABELLA
  6
CONTINUOUS
100
AcDbText
 10
161.83968
 20
32.089683
 30
0.0
 40
2.0
  1
Scala
100
AcDbText
  0
TEXT
  5
500
100
AcDbEntity
  8
TABELLA
  6
CONTINUOUS
100
AcDbText
 10
162.070991
 20
12.223377
 30
0.0
 40
2.0
  1
Data
100
AcDbText
  0
LINE
  5
501
100
AcDbEntity
  8
TABELLA
  6
CONTINUOUS
100
AcDbLine
 10
125.782064
 20
35.387067
 30
0.0
 11
195.782064
 21
35.387067
 31
0.0
  0
LINE
  5
502
100
AcDbEntity
  8
TABELLA
  6
CONTINUOUS
100
AcDbLine
 10
125.782064
 20
25.387067
 30
0.0
 11
195.782064
 21
25.387067
 31
0.0
  0
LINE
  5
503
100
AcDbEntity
  8
TABELLA
  6
CONTINUOUS
100
AcDbLine
 10
120.666552
 20
15.457427
 30
0.0
 11
195.782064
 21
15.387067
 31
0.0
  0
TEXT
  5
504
100
AcDbEntity
  8
TABELLA
  6
CONTINUOUS
100
AcDbText
 10
116.965597
 20
42.484843
 30
0.0
 40
2.0
  1
Dimensioni di prelievo
100
AcDbText
  0
TEXT
  5
505
100
AcDbEntity
  8
TABELLA
  6
CONTINUOUS
100
AcDbText
 10
126.911915
 20
32.089683
 30
0.0
 40
2.0
  1
Approvato da - data
100
AcDbText
  0
TEXT
  5
506
100
AcDbEntity
  8
TABELLA
  6
CONTINUOUS
100
AcDbText
 10
121.823101
 20
22.387534
 30
0.0
 40
2.0
  1
Particolare
100
AcDbText
  0
LINE
  5
507
100
AcDbEntity
  8
TABELLA
  6
CONTINUOUS
100
AcDbLine
 10
120.782064
 20
15.387067
 30
0.0
 11
120.782064
 21
5.387067
 31
0.0
  0
TEXT
  5
508
100
AcDbEntity
  8
TABELLA
  6
CONTINUOUS
100
AcDbText
 10
116.708833
 20
0.138446
 30
0.0
 40
4.0
  1
3
100
AcDbText
  0
LINE
  5
509
100
AcDbEntity
  8
TABELLA
  6
CONTINUOUS
100
AcDbLine
 10
116.711078
 20
19.853491
 30
0.0
 11
115.706968
 21
22.612261
 31
0.0
1001
ACAD
1000
ASC_BOUNDS
1002
{
1070
    19
1002
}
  0
LINE
  5
50A
100
AcDbEntity
  8
TABELLA
  6
CONTINUOUS
100
AcDbLine
 10
113.654847
 20
11.456564
 30
0.0
 11
116.711078
 21
19.853491
 31
0.0
1001
ACAD
1000
ASC_BOUNDS
1002
{
1070
    19
1002
}
  0
LINE
  5
50B
100
AcDbEntity
  8
TABELLA
  6
CONTINUOUS
100
AcDbLine
 10
114.355055
 20
10.456564
 30
0.0
 11
117.775256
 21
19.853491
 31
0.0
1001
ACAD
1000
ASC_BOUNDS
1002
{
1070
    19
1002
}
  0
TEXT
  5
50C
100
AcDbEntity
  8
TABELLA
  6
CONTINUOUS
100
AcDbText
 10
101.930465
 20
32.089683
 30
0.0
 40
2.0
  1
Controllato da
100
AcDbText
  0
LINE
  5
50D
100
AcDbEntity
  8
TABELLA
  6
CONTINUOUS
100
AcDbLine
 10
115.782064
 20
35.387067
 30
0.0
 11
115.782064
 21
45.387067
 31
0.0
  0
LINE
  5
50E
100
AcDbEntity
  8
TABELLA
  6
CONTINUOUS
100
AcDbLine
 10
125.782064
 20
35.387067
 30
0.0
 11
125.782064
 21
25.387067
 31
0.0
  0
TEXT
  5
50F
100
AcDbEntity
  8
TABELLA
  6
CONTINUOUS
100
AcDbText
 10
121.591791
 20
12.223377
 30
0.0
 40
2.0
  1
Disegno
100
AcDbText
  0
LINE
  5
510
100
AcDbEntity
  8
TABELLA
  6
CONTINUOUS
100
AcDbLine
 10
117.775256
 20
19.853491
 30
0.0
 11
116.407176
 21
23.612261
 31
0.0
1001
ACAD
1000
ASC_BOUNDS
1002
{
1070
    19
1002
}
  0
LINE
  5
511
100
AcDbEntity
  8
TABELLA
  6
CONTINUOUS
100
AcDbLine
 10
120.782064
 20
25.387067
 30
0.0
 11
120.782064
 21
15.387067
 31
0.0
  0
LINE
  5
512
100
AcDbEntity
  8
TABELLA
  6
CONTINUOUS
100
AcDbLine
 10
160.782064
 20
15.387067
 30
0.0
 11
160.782064
 21
5.387067
 31
0.0
  0
LINE
  5
513
100
AcDbEntity
  8
TABELLA
  6
CONTINUOUS
100
AcDbLine
 10
134.114064
 20
5.387067
 30
0.0
 11
134.114064
 21
0.387067
 31
0.0
  0
TEXT
  5
514
100
AcDbEntity
  8
TABELLA
  6
CONTINUOUS
100
AcDbText
 10
150.41737
 20
0.138446
 30
0.0
 40
4.0
  1
2
100
AcDbText
  0
LINE
  5
515
100
AcDbEntity
  8
TABELLA
  6
CONTINUOUS
100
AcDbLine
 10
145.782064
 20
35.387067
 30
0.0
 11
145.782064
 21
45.387067
 31
0.0
  0
LINE
  5
516
100
AcDbEntity
  8
TABELLA
  6
CONTINUOUS
100
AcDbLine
 10
160.782064
 20
35.387067
 30
0.0
 11
160.782064
 21
25.387067
 31
0.0
  0
TEXT
  5
517
100
AcDbEntity
  8
TABELLA
  6
CONTINUOUS
100
AcDbText
 10
197.026704
 20
51.259863
 30
0.0
 40
4.0
  1
B
100
AcDbText
  0
TEXT
  5
518
100
AcDbEntity
  8
TABELLA
  6
CONTINUOUS
100
AcDbText
 10
195.001816
 20
46.303578
 30
0.0
 40
2.0
  1
N° rev.
 50
90.0
100
AcDbText
  0
LINE
  5
519
100
AcDbEntity
  8
TABELLA
  6
CONTINUOUS
100
AcDbLine
 10
176.747411
 20
30.474182
 30
0.0
 11
194.673913
 21
30.474182
 31
0.0
  0
LINE
  5
51A
100
AcDbEntity
  8
TABELLA
  6
CONTINUOUS
100
AcDbLine
 10
180.782064
 20
15.387067
 30
0.0
 11
180.782064
 21
5.387067
 31
0.0
  0
LINE
  5
51B
100
AcDbEntity
  8
TABELLA
  6
CONTINUOUS
100
AcDbLine
 10
167.447064
 20
5.387067
 30
0.0
 11
167.447064
 21
0.387067
 31
0.0
  0
TEXT
  5
51C
100
AcDbEntity
  8
TABELLA
  6
CONTINUOUS
100
AcDbText
 10
184.542061
 20
0.138446
 30
0.0
 40
4.0
  1
1
100
AcDbText
  0
LINE
  5
51D
100
AcDbEntity
  8
TABELLA
  6
CONTINUOUS
100
AcDbLine
 10
176.747411
 20
31.974182
 30
0.0
 11
182.656258
 21
33.016071
 31
0.0
  0
LINE
  5
51E
100
AcDbEntity
  8
TABELLA
  6
CONTINUOUS
100
AcDbLine
 10
176.747411
 20
28.974182
 30
0.0
 11
182.656258
 21
27.932293
 31
0.0
  0
LINE
  5
51F
100
AcDbEntity
  8
TABELLA
  6
CONTINUOUS
100
AcDbLine
 10
176.747411
 20
31.974182
 30
0.0
 11
176.747411
 21
28.974182
 31
0.0
  0
LINE
  5
520
100
AcDbEntity
  8
TABELLA
  6
CONTINUOUS
100
AcDbLine
 10
175.782064
 20
35.387067
 30
0.0
 11
175.782064
 21
25.387067
 31
0.0
  0
CIRCLE
  5
521
100
AcDbEntity
  8
TABELLA
  6
CONTINUOUS
100
AcDbCircle
 10
189.932065
 20
30.474182
 30
0.0
 40
1.5
  0
LINE
  5
522
100
AcDbEntity
  8
TABELLA
  6
CONTINUOUS
100
AcDbLine
 10
189.932065
 20
28.369782
 30
0.0
 11
189.932065
 21
32.578582
 31
0.0
  0
CIRCLE
  5
523
100
AcDbEntity
  8
TABELLA
  6
CONTINUOUS
100
AcDbCircle
 10
189.932065
 20
30.474182
 30
0.0
 40
2.54
  0
LINE
  5
524
100
AcDbEntity
  8
TABELLA
  6
CONTINUOUS
100
AcDbLine
 10
182.656258
 20
33.016071
 30
0.0
 11
182.656258
 21
27.932293
 31
0.0
  0
TEXT
  5
525
100
AcDbEntity
  8
TABELLA
  6
CONTINUOUS
100
AcDbText
 10
181.963625
 20
11.992375
 30
0.0
 40
2.0
  1
Formato
100
AcDbText
  0
LINE
  5
526
100
AcDbEntity
  8
TABELLA
  6
CONTINUOUS
100
AcDbLine
 10
187.827665
 20
30.474182
 30
0.0
 11
192.036465
 21
30.474182
 31
0.0
  0
LINE
  5
527
100
AcDbEntity
  8
TABELLA
  6
CONTINUOUS
100
AcDbLine
 10
195.782064
 20
5.387067
 30
0.0
 11
195.782064
 21
35.387067
 31
0.0
  0
TEXT
  5
528
100
AcDbEntity
  8
TABELLA
  6
CONTINUOUS
100
AcDbText
 10
197.026704
 20
14.685191
 30
0.0
 40
4.0
  1
A
100
AcDbText
  0
LINE
  5
529
100
AcDbEntity
  8
TABELLA
  6
CONTINUOUS
100
AcDbLine
 10
195.782064
 20
36.262067
 30
0.0
 11
200.782064
 21
36.262067
 31
0.0
  0
TEXT
  5
52A
100
AcDbEntity
  8
TABELLA
  6
CONTINUOUS
100
AcDbText
 10
195.209894
 20
130.984517
 30
0.0
 40
2.0
  1
Data
 50
90.0
100
AcDbText
  0
TEXT
  5
52B
100
AcDbEntity
  8
TABELLA
  6
CONTINUOUS
100
AcDbText
 10
195.209894
 20
56.278486
 30
0.0
 40
2.0
  1
Nota di revisione
 50
90.0
100
AcDbText
  0
LINE
  5
52C
100
AcDbEntity
  8
TABELLA
  6
CONTINUOUS
100
AcDbLine
 10
191.781227
 20
55.387241
 30
0.0
 11
195.782064
 21
55.387241
 31
0.0
  0
LINE
  5
52D
100
AcDbEntity
  8
TABELLA
  6
CONTINUOUS
100
AcDbLine
 10
191.781227
 20
130.387241
 30
0.0
 11
195.782064
 21
130.387241
 31
0.0
  0
LINE
  5
52E
100
AcDbEntity
  8
TABELLA
  6
CONTINUOUS
100
AcDbLine
 10
195.782064
 20
72.137067
 30
0.0
 11
200.782064
 21
72.137067
 31
0.0
  0
TEXT
  5
52F
100
AcDbEntity
  8
TABELLA
  6
CONTINUOUS
100
AcDbText
 10
197.442859
 20
87.459725
 30
0.0
 40
4.0
  1
C
100
AcDbText
  0
LINE
  5
530
100
AcDbEntity
  8
TABELLA
  6
CONTINUOUS
100
AcDbLine
 10
195.782064
 20
108.012067
 30
0.0
 11
200.782064
 21
108.012067
 31
0.0
  0
TEXT
  5
531
100
AcDbEntity
  8
TABELLA
  6
CONTINUOUS
100
AcDbText
 10
197.442859
 20
123.618776
 30
0.0
 40
4.0
  1
D
100
AcDbText
  0
TEXT
  5
532
100
AcDbEntity
  8
TABELLA
  6
CONTINUOUS
100
AcDbText
 10
116.708835
 20
283.250638
 30
0.0
 40
4.0
  1
3
100
AcDbText
  0
LINE
  5
533
100
AcDbEntity
  8
TABELLA
  6
CONTINUOUS
100
AcDbLine
 10
134.114064
 20
282.387067
 30
0.0
 11
134.114064
 21
287.387067
 31
0.0
  0
TEXT
  5
534
100
AcDbEntity
  8
TABELLA
  6
CONTINUOUS
100
AcDbText
 10
150.417372
 20
283.250638
 30
0.0
 40
4.0
  1
2
100
AcDbText
  0
TEXT
  5
535
100
AcDbEntity
  8
TABELLA
  6
CONTINUOUS
100
AcDbText
 10
197.026704
 20
230.800736
 30
0.0
 40
4.0
  1
G
100
AcDbText
  0
TEXT
  5
536
100
AcDbEntity
  8
TABELLA
  6
CONTINUOUS
100
AcDbText
 10
195.209894
 20
155.7956
 30
0.0
 40
2.0
  1
Control.
 50
90.0
100
AcDbText
  0
TEXT
  5
537
100
AcDbEntity
  8
TABELLA
  6
CONTINUOUS
100
AcDbText
 10
195.209894
 20
146.028502
 30
0.0
 40
2.0
  1
Firma
 50
90.0
100
AcDbText
  0
LINE
  5
538
100
AcDbEntity
  8
TABELLA
  6
CONTINUOUS
100
AcDbLine
 10
191.781227
 20
145.387241
 30
0.0
 11
195.782064
 21
145.387241
 31
0.0
  0
LINE
  5
539
100
AcDbEntity
  8
TABELLA
  6
CONTINUOUS
100
AcDbLine
 10
191.781227
 20
155.387241
 30
0.0
 11
195.782064
 21
155.387241
 31
0.0
  0
LINE
  5
53A
100
AcDbEntity
  8
TABELLA
  6
CONTINUOUS
100
AcDbLine
 10
191.781227
 20
165.387241
 30
0.0
 11
195.782064
 21
165.387241
 31
0.0
  0
LINE
  5
53B
100
AcDbEntity
  8
TABELLA
  6
CONTINUOUS
100
AcDbLine
 10
195.782064
 20
143.887067
 30
0.0
 11
200.782064
 21
146.387067
 31
0.0
  0
LINE
  5
53C
100
AcDbEntity
  8
TABELLA
  6
CONTINUOUS
100
AcDbLine
 10
195.782064
 20
143.887067
 30
0.0
 11
200.782064
 21
143.887067
 31
0.0
  0
LINE
  5
53D
100
AcDbEntity
  8
TABELLA
  6
CONTINUOUS
100
AcDbLine
 10
200.782064
 20
143.887067
 30
0.0
 11
200.782064
 21
146.387067
 31
0.0
  0
TEXT
  5
53E
100
AcDbEntity
  8
TABELLA
  6
CONTINUOUS
100
AcDbText
 10
197.442859
 20
158.319393
 30
0.0
 40
4.0
  1
E
100
AcDbText
  0
LINE
  5
53F
100
AcDbEntity
  8
TABELLA
  6
CONTINUOUS
100
AcDbLine
 10
195.782064
 20
179.762067
 30
0.0
 11
200.782064
 21
179.762067
 31
0.0
  0
TEXT
  5
540
100
AcDbEntity
  8
TABELLA
  6
CONTINUOUS
100
AcDbText
 10
197.859013
 20
195.309687
 30
0.0
 40
4.0
  1
F
100
AcDbText
  0
LINE
  5
541
100
AcDbEntity
  8
TABELLA
  6
CONTINUOUS
100
AcDbLine
 10
195.782064
 20
215.637067
 30
0.0
 11
200.782064
 21
215.637067
 31
0.0
  0
LINE
  5
542
100
AcDbEntity
  8
TABELLA
  6
CONTINUOUS
100
AcDbLine
 10
167.447064
 20
282.387067
 30
0.0
 11
167.447064
 21
287.387067
 31
0.0
  0
TEXT
  5
543
100
AcDbEntity
  8
TABELLA
  6
CONTINUOUS
100
AcDbText
 10
184.958217
 20
283.250638
 30
0.0
 40
4.0
  1
1
100
AcDbText
  0
LINE
  5
544
100
AcDbEntity
  8
TABELLA
  6
CONTINUOUS
100
AcDbLine
 10
195.782064
 20
282.387067
 30
0.0
 11
195.782064
 21
278.387067
 31
0.0
  0
LINE
  5
545
100
AcDbEntity
  8
TABELLA
  6
CONTINUOUS
100
AcDbLine
 10
195.782064
 20
251.512067
 30
0.0
 11
200.782064
 21
251.512067
 31
0.0
  0
TEXT
  5
546
100
AcDbEntity
  8
TABELLA
  6
CONTINUOUS
100
AcDbText
 10
197.026704
 20
268.206651
 30
0.0
 40
4.0
  1
H
100
AcDbText
  0
ENDBLK
  5
548
100
AcDbEntity
  8
QUOTE
100
AcDbBlockEnd
  0
BLOCK
  5
660
100
AcDbEntity
  8
DISEGNO
100
AcDbBlockBegin
  2
A$C350
 70
     0
 10
0.0
 20
0.0
 30
0.0
  3
A$C350
  1

  0
LINE
  5
62C
100
AcDbEntity
  8
DISEGNO
100
AcDbLine
 10
8.0579
 20
17.260118
 30
0.0
 11
8.0579
 21
20.260118
 31
0.0
  0
LINE
  5
62D
100
AcDbEntity
  8
DISEGNO
100
AcDbLine
 10
16.0579
 20
17.260118
 30
0.0
 11
8.0579
 21
17.260118
 31
0.0
  0
LINE
  5
62E
100
AcDbEntity
  8
DISEGNO
100
AcDbLine
 10
16.0579
 20
20.260118
 30
0.0
 11
16.0579
 21
17.260118
 31
0.0
  0
LINE
  5
62F
100
AcDbEntity
  8
DISEGNO
100
AcDbLine
 10
8.0579
 20
20.260118
 30
0.0
 11
16.0579
 21
20.260118
 31
0.0
  0
LINE
  5
630
100
AcDbEntity
  8
DISEGNO
100
AcDbLine
 10
50.0579
 20
0.260118
 30
0.0
 11
50.0579
 21
24.260118
 31
0.0
  0
LINE
  5
631
100
AcDbEntity
  8
DISEGNO
100
AcDbLine
 10
0.0579
 20
0.260118
 30
0.0
 11
0.0579
 21
24.260118
 31
0.0
  0
LINE
  5
632
100
AcDbEntity
  8
DISEGNO
100
AcDbLine
 10
0.0579
 20
24.260118
 30
0.0
 11
50.0579
 21
24.260118
 31
0.0
  0
LINE
  5
633
100
AcDbEntity
  8
DISEGNO
100
AcDbLine
 10
0.0579
 20
9.260118
 30
0.0
 11
50.0579
 21
9.260118
 31
0.0
  0
LINE
  5
634
100
AcDbEntity
  8
DISEGNO
100
AcDbLine
 10
0.0579
 20
6.260118
 30
0.0
 11
50.0579
 21
6.260118
 31
0.0
  0
LINE
  5
635
100
AcDbEntity
  8
DISEGNO
100
AcDbLine
 10
0.0579
 20
0.260118
 30
0.0
 11
50.0579
 21
0.260118
 31
0.0
  0
ARC
  5
636
100
AcDbEntity
  8
DISEGNO
100
AcDbCircle
 10
100.198804
 20
122.244193
 30
0.0
 40
1.0
100
AcDbArc
 50
195.0
 51
345.0
1001
ACAD
1000
ASC_BOUNDS
1002
{
1070
    19
1005
0
1002
}
  0
LINE
  5
637
100
AcDbEntity
  8
ASSI
100
AcDbLine
 10
100.198804
 20
65.964984
 30
0.0
 11
100.198804
 21
18.126553
 31
0.0
  0
LINE
  5
638
100
AcDbEntity
  8
ASSI
100
AcDbLine
 10
100.198804
 20
11.442606
 30
0.0
 11
100.198804
 21
10.119892
 31
0.0
  0
ARC
  5
639
100
AcDbEntity
  8
DISEGNO
100
AcDbCircle
 10
105.966131
 20
136.040743
 30
0.0
 40
1.0
100
AcDbArc
 50
90.0
 51
165.0
1001
ACAD
1000
ASC_BOUNDS
1002
{
1070
    19
1005
0
1002
}
  0
ARC
  5
63A
100
AcDbEntity
  8
DISEGNO
100
AcDbCircle
 10
94.431477
 20
136.040743
 30
0.0
 40
1.0
100
AcDbArc
 50
15.0
 51
90.0
1001
ACAD
1000
ASC_BOUNDS
1002
{
1070
    19
1005
0
1002
}
  0
LINE
  5
63B
100
AcDbEntity
  8
DISEGNO
100
AcDbLine
 10
111.698804
 20
82.040743
 30
0.0
 11
112.698804
 21
81.040743
 31
0.0
1001
ACAD
1000
ASC_BOUNDS
1002
{
1070
    19
1002
}
  0
LINE
  5
63C
100
AcDbEntity
  8
DISEGNO
100
AcDbLine
 10
87.698804
 20
81.040743
 30
0.0
 11
88.698804
 21
82.040743
 31
0.0
  0
LINE
  5
63D
100
AcDbEntity
  8
ASSI
100
AcDbLine
 10
100.198804
 20
152.302677
 30
0.0
 11
100.198804
 21
149.197785
 31
0.0
  0
LINE
  5
63E
100
AcDbEntity
  8
DISEGNO
100
AcDbLine
 10
105.966131
 20
137.040743
 30
0.0
 11
109.198804
 21
137.040743
 31
0.0
1001
ACAD
1000
ASC_BOUNDS
1002
{
1070
    19
1005
0
1002
}
  0
LINE
  5
63F
100
AcDbEntity
  8
DISEGNO
100
AcDbLine
 10
95.397403
 20
136.299563
 30
0.0
 11
99.232878
 21
121.985374
 31
0.0
1001
ACAD
1000
ASC_BOUNDS
1002
{
1070
    19
1005
0
1002
}
  0
LINE
  5
640
100
AcDbEntity
  8
DISEGNO
100
AcDbLine
 10
105.000205
 20
136.299563
 30
0.0
 11
101.16473
 21
121.985374
 31
0.0
1001
ACAD
1000
ASC_BOUNDS
1002
{
1070
    19
1005
0
1002
}
  0
LINE
  5
641
100
AcDbEntity
  8
DISEGNO
100
AcDbLine
 10
91.198804
 20
137.040743
 30
0.0
 11
94.431477
 21
137.040743
 31
0.0
1001
ACAD
1000
ASC_BOUNDS
1002
{
1070
    19
1005
0
1002
}
  0
LINE
  5
642
100
AcDbEntity
  8
DISEGNO
100
AcDbLine
 10
90.198804
 20
82.040743
 30
0.0
 11
88.698804
 21
82.040743
 31
0.0
  0
LINE
  5
643
100
AcDbEntity
  8
DISEGNO
100
AcDbLine
 10
87.698804
 20
81.040743
 30
0.0
 11
87.698804
 21
76.540743
 31
0.0
1001
ACAD
1000
ASC_BOUNDS
1002
{
1070
    19
1002
}
  0
LINE
  5
644
100
AcDbEntity
  8
DISEGNO
100
AcDbLine
 10
110.198804
 20
82.040743
 30
0.0
 11
110.198804
 21
136.040743
 31
0.0
1001
ACAD
1000
ASC_BOUNDS
1002
{
1070
    19
1005
0
1002
}
  0
LINE
  5
645
100
AcDbEntity
  8
DISEGNO
100
AcDbLine
 10
111.698804
 20
82.040743
 30
0.0
 11
110.198804
 21
82.040743
 31
0.0
  0
LINE
  5
646
100
AcDbEntity
  8
DISEGNO
100
AcDbLine
 10
109.198804
 20
137.040743
 30
0.0
 11
110.198804
 21
136.040743
 31
0.0
1001
ACAD
1000
ASC_BOUNDS
1002
{
1070
    19
1005
0
1002
}
  0
LINE
  5
647
100
AcDbEntity
  8
DISEGNO
100
AcDbLine
 10
90.198804
 20
136.040743
 30
0.0
 11
91.198804
 21
137.040743
 31
0.0
1001
ACAD
1000
ASC_BOUNDS
1002
{
1070
    19
1005
0
1002
}
  0
LINE
  5
648
100
AcDbEntity
  8
DISEGNO
100
AcDbLine
 10
87.698804
 20
68.040743
 30
0.0
 11
88.698804
 21
67.040743
 31
0.0
  0
LINE
  5
649
100
AcDbEntity
  8
DISEGNO
100
AcDbLine
 10
111.698804
 20
67.040743
 30
0.0
 11
112.698804
 21
68.040743
 31
0.0
  0
LINE
  5
64A
100
AcDbEntity
  8
DISEGNO
100
AcDbLine
 10
105.698804
 20
47.040743
 30
0.0
 11
106.698804
 21
48.040743
 31
0.0
  0
LINE
  5
64B
100
AcDbEntity
  8
DISEGNO
100
AcDbLine
 10
93.698804
 20
48.040743
 30
0.0
 11
94.698804
 21
47.040743
 31
0.0
  0
LINE
  5
64C
100
AcDbEntity
  8
ASSI
100
AcDbLine
 10
75.396992
 20
75.040743
 30
0.0
 11
74.902374
 21
75.040743
 31
0.0
  0
LINE
  5
64D
100
AcDbEntity
  8
DISEGNO
100
AcDbLine
 10
87.698804
 20
73.540743
 30
0.0
 11
87.698804
 21
68.040743
 31
0.0
  0
LINE
  5
64E
100
AcDbEntity
  8
DISEGNO
100
AcDbLine
 10
87.698804
 20
73.540743
 30
0.0
 11
89.198804
 21
75.040743
 31
0.0
  0
LINE
  5
64F
100
AcDbEntity
  8
DISEGNO
100
AcDbLine
 10
87.698804
 20
76.540743
 30
0.0
 11
89.198804
 21
75.040743
 31
0.0
  0
LINE
  5
650
100
AcDbEntity
  8
ASSI
100
AcDbLine
 10
94.698804
 20
75.040743
 30
0.0
 11
79.697732
 21
75.040743
 31
0.0
  0
LINE
  5
651
100
AcDbEntity
  8
DISEGNO
100
AcDbLine
 10
105.638144
 20
66.68719
 30
0.0
 11
107.052358
 21
68.101404
 31
0.0
  0
LINE
  5
652
100
AcDbEntity
  8
DISEGNO
100
AcDbLine
 10
108.113018
 20
67.040743
 30
0.0
 11
107.052358
 21
68.101404
 31
0.0
  0
LINE
  5
653
100
AcDbEntity
  8
DISEGNO
100
AcDbLine
 10
106.698804
 20
65.62653
 30
0.0
 11
105.638144
 21
66.68719
 31
0.0
  0
LINE
  5
654
100
AcDbEntity
  8
DISEGNO
100
AcDbLine
 10
94.759464
 20
66.68719
 30
0.0
 11
93.345251
 21
68.101404
 31
0.0
  0
LINE
  5
655
100
AcDbEntity
  8
DISEGNO
100
AcDbLine
 10
93.698804
 20
65.62653
 30
0.0
 11
94.759464
 21
66.68719
 31
0.0
  0
LINE
  5
656
100
AcDbEntity
  8
DISEGNO
100
AcDbLine
 10
92.284591
 20
67.040743
 30
0.0
 11
93.345251
 21
68.101404
 31
0.0
  0
LINE
  5
657
100
AcDbEntity
  8
ASSI
100
AcDbLine
 10
100.198804
 20
141.638559
 30
0.0
 11
100.198804
 21
74.55863
 31
0.0
  0
LINE
  5
658
100
AcDbEntity
  8
DISEGNO
100
AcDbLine
 10
93.698804
 20
65.62653
 30
0.0
 11
93.698804
 21
48.040743
 31
0.0
  0
LINE
  5
659
100
AcDbEntity
  8
DISEGNO
100
AcDbLine
 10
88.698804
 20
67.040743
 30
0.0
 11
92.284591
 21
67.040743
 31
0.0
  0
LINE
  5
65A
100
AcDbEntity
  8
DISEGNO
100
AcDbLine
 10
90.198804
 20
136.040743
 30
0.0
 11
90.198804
 21
82.040743
 31
0.0
1001
ACAD
1000
ASC_BOUNDS
1002
{
1070
    19
1005
0
1002
}
  0
LINE
  5
65B
100
AcDbEntity
  8
DISEGNO
100
AcDbLine
 10
112.698804
 20
68.040743
 30
0.0
 11
112.698804
 21
81.040743
 31
0.0
1001
ACAD
1000
ASC_BOUNDS
1002
{
1070
    19
1002
}
  0
LINE
  5
65C
100
AcDbEntity
  8
DISEGNO
100
AcDbLine
 10
108.113018
 20
67.040743
 30
0.0
 11
111.698804
 21
67.040743
 31
0.0
  0
LINE
  5
65D
100
AcDbEntity
  8
DISEGNO
100
AcDbLine
 10
106.698804
 20
48.040743
 30
0.0
 11
106.698804
 21
65.62653
 31
0.0
  0
LINE
  5
65E
100
AcDbEntity
  8
DISEGNO
100
AcDbLine
 10
94.698804
 20
47.040743
 30
0.0
 11
105.698804
 21
47.040743
 31
0.0
  0
LINE
  5
65F
100
AcDbEntity
  8
ASSI
100
AcDbLine
 10
100.198804
 20
165.803287
 30
0.0
 11
100.198804
 21
159.62319
 31
0.0
  0
ENDBLK
  5
661
100
AcDbEntity
  8
DISEGNO
100
AcDbBlockEnd
  0
BLOCK
  5
756
100
AcDbEntity
  8
0
100
AcDbBlockBegin
  2
*D3
 70
    65
 10
0.0
 20
0.0
 30
0.0
  3
*D3
  1

  0
LINE
  5
757
100
AcDbEntity
  8
0
  6
BYBLOCK
 62
     0
100
AcDbLine
 10
-1806.221673
 20
-1524.645768
 30
0.0
 11
-1806.221673
 21
-1543.249355
 31
0.0
  0
LINE
  5
758
100
AcDbEntity
  8
0
  6
BYBLOCK
 62
     0
100
AcDbLine
 10
-1819.221673
 20
-1524.645768
 30
0.0
 11
-1819.221673
 21
-1543.249355
 31
0.0
  0
LINE
  5
759
100
AcDbEntity
  8
0
  6
BYBLOCK
 62
     0
100
AcDbLine
 10
-1816.721673
 20
-1541.999355
 30
0.0
 11
-1808.721673
 21
-1541.999355
 31
0.0
  0
LINE
  5
75A
100
AcDbEntity
  8
0
  6
BYBLOCK
 62
     0
100
AcDbLine
 10
-1806.221673
 20
-1541.999355
 30
0.0
 11
-1782.94112
 21
-1541.999355
 31
0.0
  0
SOLID
  5
75B
100
AcDbEntity
  8
0
  6
BYBLOCK
 62
     0
100
AcDbTrace
 10
-1816.721673
 20
-1541.582689
 30
0.0
 11
-1816.721673
 21
-1542.416022
 31
0.0
 12
-1819.221673
 22
-1541.999355
 32
0.0
 13
-1819.221673
 23
-1541.999355
 33
0.0
  0
SOLID
  5
75C
100
AcDbEntity
  8
0
  6
BYBLOCK
 62
     0
100
AcDbTrace
 10
-1808.721673
 20
-1541.582689
 30
0.0
 11
-1808.721673
 21
-1542.416022
 31
0.0
 12
-1806.221673
 22
-1541.999355
 32
0.0
 13
-1806.221673
 23
-1541.999355
 33
0.0
  0
MTEXT
  5
75D
100
AcDbEntity
  8
0
  6
BYBLOCK
 62
     0
100
AcDbMText
 10
-1789.88012
 20
-1539.624355
 30
0.0
 40
3.5
 41
0.0
 71
     5
 72
     1
  1
\A2;13{\H2.800000;±0.01}
  0
POINT
  5
75E
100
AcDbEntity
  8
DEFPOINTS
  6
BYBLOCK
 62
     0
100
AcDbPoint
 10
-1806.221673
 20
-1524.020768
 30
0.0
  0
POINT
  5
75F
100
AcDbEntity
  8
DEFPOINTS
  6
BYBLOCK
 62
     0
100
AcDbPoint
 10
-1819.221673
 20
-1524.020768
 30
0.0
  0
POINT
  5
760
100
AcDbEntity
  8
DEFPOINTS
  6
BYBLOCK
 62
     0
100
AcDbPoint
 10
-1819.221673
 20
-1541.999355
 30
0.0
  0
ENDBLK
  5
761
100
AcDbEntity
  8
0
100
AcDbBlockEnd
  0
BLOCK
  5
15A8
100
AcDbEntity
  8
0
100
AcDbBlockBegin
  2
*D4
 70
    65
 10
0.0
 20
0.0
 30
0.0
  3
*D4
  1

  0
LINE
  5
15A9
100
AcDbEntity
  8
0
  6
BYBLOCK
 62
     0
100
AcDbLine
 10
-1800.596673
 20
-1505.020768
 30
0.0
 11
-1780.030869
 21
-1505.020768
 31
0.0
  0
LINE
  5
15AA
100
AcDbEntity
  8
0
  6
BYBLOCK
 62
     0
100
AcDbLine
 10
-1806.596673
 20
-1525.020768
 30
0.0
 11
-1780.030869
 21
-1525.020768
 31
0.0
  0
LINE
  5
15AB
100
AcDbEntity
  8
0
  6
BYBLOCK
 62
     0
100
AcDbLine
 10
-1781.280869
 20
-1507.520768
 30
0.0
 11
-1781.280869
 21
-1522.520768
 31
0.0
  0
SOLID
  5
15AC
100
AcDbEntity
  8
0
  6
BYBLOCK
 62
     0
100
AcDbTrace
 10
-1781.697536
 20
-1507.520768
 30
0.0
 11
-1780.864203
 21
-1507.520768
 31
0.0
 12
-1781.280869
 22
-1505.020768
 32
0.0
 13
-1781.280869
 23
-1505.020768
 33
0.0
  0
SOLID
  5
15AD
100
AcDbEntity
  8
0
  6
BYBLOCK
 62
     0
100
AcDbTrace
 10
-1781.697536
 20
-1522.520768
 30
0.0
 11
-1780.864203
 21
-1522.520768
 31
0.0
 12
-1781.280869
 22
-1525.020768
 32
0.0
 13
-1781.280869
 23
-1525.020768
 33
0.0
  0
MTEXT
  5
15AE
100
AcDbEntity
  8
0
  6
BYBLOCK
 62
     0
100
AcDbMText
 10
-1783.655869
 20
-1515.020768
 30
0.0
 40
3.5
 41
0.0
 71
     5
 72
     1
  1
\A1;20
 11
0.0
 21
1.0
 31
0.0
  0
POINT
  5
15AF
100
AcDbEntity
  8
DEFPOINTS
  6
BYBLOCK
 62
     0
100
AcDbPoint
 10
-1801.221673
 20
-1505.020768
 30
0.0
  0
POINT
  5
15B0
100
AcDbEntity
  8
DEFPOINTS
  6
BYBLOCK
 62
     0
100
AcDbPoint
 10
-1807.221673
 20
-1525.020768
 30
0.0
  0
POINT
  5
15B1
100
AcDbEntity
  8
DEFPOINTS
  6
BYBLOCK
 62
     0
100
AcDbPoint
 10
-1781.280869
 20
-1525.020768
 30
0.0
  0
ENDBLK
  5
15B2
100
AcDbEntity
  8
0
100
AcDbBlockEnd
  0
BLOCK
  5
724
100
AcDbEntity
  8
0
100
AcDbBlockBegin
  2
*D5
 70
    65
 10
0.0
 20
0.0
 30
0.0
  3
*D5
  1

  0
LINE
  5
725
100
AcDbEntity
  8
0
  6
BYBLOCK
 62
     0
100
AcDbLine
 10
-1820.193945
 20
-1505.462709
 30
0.0
 11
-1819.425308
 21
-1506.231347
 31
0.0
  0
LINE
  5
726
100
AcDbEntity
  8
0
  6
BYBLOCK
 62
     0
100
AcDbLine
 10
-1819.133285
 20
-1504.402049
 30
0.0
 11
-1818.364648
 21
-1505.170687
 31
0.0
  0
LINE
  5
727
100
AcDbEntity
  8
0
  6
BYBLOCK
 62
     0
100
AcDbLine
 10
-1822.076958
 20
-1507.11523
 30
0.0
 11
-1823.844725
 21
-1508.882997
 31
0.0
  0
LINE
  5
728
100
AcDbEntity
  8
0
  6
BYBLOCK
 62
     0
100
AcDbLine
 10
-1817.480764
 20
-1502.519036
 30
0.0
 11
-1811.449516
 21
-1496.487789
 31
0.0
  0
SOLID
  5
729
100
AcDbEntity
  8
0
  6
BYBLOCK
 62
     0
100
AcDbTrace
 10
-1822.371586
 20
-1506.820602
 30
0.0
 11
-1821.78233
 21
-1507.409858
 31
0.0
 12
-1820.309191
 22
-1505.347463
 32
0.0
 13
-1820.309191
 23
-1505.347463
 33
0.0
  0
SOLID
  5
72A
100
AcDbEntity
  8
0
  6
BYBLOCK
 62
     0
100
AcDbTrace
 10
-1817.775392
 20
-1502.224408
 30
0.0
 11
-1817.186136
 21
-1502.813664
 31
0.0
 12
-1819.248531
 22
-1504.286803
 32
0.0
 13
-1819.248531
 23
-1504.286803
 33
0.0
  0
MTEXT
  5
72B
100
AcDbEntity
  8
0
  6
BYBLOCK
 62
     0
100
AcDbMText
 10
-1815.260635
 20
-1496.94015
 30
0.0
 40
3.5
 41
0.0
 71
     5
 72
     1
  1
\A1;1.5
 11
0.707107
 21
0.707107
 31
0.0
  0
POINT
  5
72C
100
AcDbEntity
  8
DEFPOINTS
  6
BYBLOCK
 62
     0
100
AcDbPoint
 10
-1820.635887
 20
-1505.020768
 30
0.0
  0
POINT
  5
72D
100
AcDbEntity
  8
DEFPOINTS
  6
BYBLOCK
 62
     0
100
AcDbPoint
 10
-1819.575227
 20
-1503.960107
 30
0.0
  0
POINT
  5
72E
100
AcDbEntity
  8
DEFPOINTS
  6
BYBLOCK
 62
     0
100
AcDbPoint
 10
-1819.248531
 20
-1504.286803
 30
0.0
  0
ENDBLK
  5
72F
100
AcDbEntity
  8
0
100
AcDbBlockEnd
  0
BLOCK
  5
732
100
AcDbEntity
  8
0
100
AcDbBlockBegin
  2
*D6
 70
    65
 10
0.0
 20
0.0
 30
0.0
  3
*D6
  1

  0
LINE
  5
733
100
AcDbEntity
  8
0
  6
BYBLOCK
 62
     0
100
AcDbLine
 10
-1807.724275
 20
-1504.932379
 30
0.0
 11
-1809.499717
 21
-1503.156938
 31
0.0
  0
LINE
  5
734
100
AcDbEntity
  8
0
  6
BYBLOCK
 62
     0
100
AcDbLine
 10
-1806.310062
 20
-1503.518166
 30
0.0
 11
-1808.085503
 21
-1501.742724
 31
0.0
  0
LINE
  5
735
100
AcDbEntity
  8
0
  6
BYBLOCK
 62
     0
100
AcDbLine
 10
-1810.3836
 20
-1505.808588
 30
0.0
 11
-1812.151367
 21
-1507.576355
 31
0.0
  0
LINE
  5
736
100
AcDbEntity
  8
0
  6
BYBLOCK
 62
     0
100
AcDbLine
 10
-1805.433853
 20
-1500.858841
 30
0.0
 11
-1801.460625
 21
-1496.885613
 31
0.0
  0
SOLID
  5
737
100
AcDbEntity
  8
0
  6
BYBLOCK
 62
     0
100
AcDbTrace
 10
-1810.678228
 20
-1505.51396
 30
0.0
 11
-1810.088972
 21
-1506.103216
 31
0.0
 12
-1808.615833
 22
-1504.040821
 32
0.0
 13
-1808.615833
 23
-1504.040821
 33
0.0
  0
SOLID
  5
738
100
AcDbEntity
  8
0
  6
BYBLOCK
 62
     0
100
AcDbTrace
 10
-1805.728481
 20
-1500.564213
 30
0.0
 11
-1805.139225
 21
-1501.153468
 31
0.0
 12
-1807.20162
 22
-1502.626608
 32
0.0
 13
-1807.20162
 23
-1502.626608
 33
0.0
  0
MTEXT
  5
739
100
AcDbEntity
  8
0
  6
BYBLOCK
 62
     0
100
AcDbMText
 10
-1804.242977
 20
-1496.308721
 30
0.0
 40
3.5
 41
0.0
 71
     5
 72
     1
  1
\A1;2
 11
0.707107
 21
0.707107
 31
0.0
  0
POINT
  5
73A
100
AcDbEntity
  8
DEFPOINTS
  6
BYBLOCK
 62
     0
100
AcDbPoint
 10
-1807.282333
 20
-1505.374321
 30
0.0
  0
POINT
  5
73B
100
AcDbEntity
  8
DEFPOINTS
  6
BYBLOCK
 62
     0
100
AcDbPoint
 10
-1805.86812
 20
-1503.960107
 30
0.0
  0
POINT
  5
73C
100
AcDbEntity
  8
DEFPOINTS
  6
BYBLOCK
 62
     0
100
AcDbPoint
 10
-1807.20162
 20
-1502.626608
 30
0.0
  0
ENDBLK
  5
73D
100
AcDbEntity
  8
0
100
AcDbBlockEnd
  0
BLOCK
  5
7FC
100
AcDbEntity
  8
0
100
AcDbBlockBegin
  2
*D7
 70
    65
 10
0.0
 20
0.0
 30
0.0
  3
*D7
  1

  0
LINE
  5
7FD
100
AcDbEntity
  8
0
  6
BYBLOCK
 62
     0
100
AcDbLine
 10
-1862.862577
 20
-1572.426394
 30
0.0
 11
-1862.862577
 21
-1584.164194
 31
0.0
  0
LINE
  5
7FE
100
AcDbEntity
  8
0
  6
BYBLOCK
 62
     0
100
AcDbLine
 10
-1912.862577
 20
-1572.426394
 30
0.0
 11
-1912.862577
 21
-1584.164194
 31
0.0
  0
LINE
  5
7FF
100
AcDbEntity
  8
0
  6
BYBLOCK
 62
     0
100
AcDbLine
 10
-1865.362577
 20
-1582.914194
 30
0.0
 11
-1910.362577
 21
-1582.914194
 31
0.0
  0
SOLID
  5
800
100
AcDbEntity
  8
0
  6
BYBLOCK
 62
     0
100
AcDbTrace
 10
-1865.362577
 20
-1582.497527
 30
0.0
 11
-1865.362577
 21
-1583.330861
 31
0.0
 12
-1862.862577
 22
-1582.914194
 32
0.0
 13
-1862.862577
 23
-1582.914194
 33
0.0
  0
SOLID
  5
801
100
AcDbEntity
  8
0
  6
BYBLOCK
 62
     0
100
AcDbTrace
 10
-1910.362577
 20
-1582.497527
 30
0.0
 11
-1910.362577
 21
-1583.330861
 31
0.0
 12
-1912.862577
 22
-1582.914194
 32
0.0
 13
-1912.862577
 23
-1582.914194
 33
0.0
  0
MTEXT
  5
802
100
AcDbEntity
  8
0
  6
BYBLOCK
 62
     0
100
AcDbMText
 10
-1887.862577
 20
-1580.539194
 30
0.0
 40
3.5
 41
0.0
 71
     5
 72
     1
  1
\A1;{1000 +/- 0,1}
  0
POINT
  5
803
100
AcDbEntity
  8
DEFPOINTS
  6
BYBLOCK
 62
     0
100
AcDbPoint
 10
-1862.862577
 20
-1571.801394
 30
0.0
  0
POINT
  5
804
100
AcDbEntity
  8
DEFPOINTS
  6
BYBLOCK
 62
     0
100
AcDbPoint
 10
-1912.862577
 20
-1571.801394
 30
0.0
  0
POINT
  5
805
100
AcDbEntity
  8
DEFPOINTS
  6
BYBLOCK
 62
     0
100
AcDbPoint
 10
-1912.862577
 20
-1582.914194
 30
0.0
  0
ENDBLK
  5
806
100
AcDbEntity
  8
0
100
AcDbBlockEnd
  0
BLOCK
  5
830
100
AcDbEntity
  8
0
100
AcDbBlockBegin
  2
*D8
 70
    65
 10
0.0
 20
0.0
 30
0.0
  3
*D8
  1

  0
LINE
  5
831
100
AcDbEntity
  8
0
  6
BYBLOCK
 62
     0
100
AcDbLine
 10
-1862.237577
 20
-1571.801394
 30
0.0
 11
-1855.846704
 21
-1571.801394
 31
0.0
  0
ARC
  5
832
100
AcDbEntity
  8
0
  6
BYBLOCK
 62
     0
100
AcDbCircle
 10
-1862.862577
 20
-1571.801394
 30
0.0
 40
5.765874
100
AcDbArc
 50
25.041459
 51
64.958541
  0
SOLID
  5
833
100
AcDbEntity
  8
0
  6
BYBLOCK
 62
     0
100
AcDbTrace
 10
-1857.231928
 20
-1569.270519
 30
0.0
 11
-1858.045443
 21
-1569.45118
 31
0.0
 12
-1857.096704
 22
-1571.801394
 32
0.0
 13
-1857.096704
 23
-1571.801394
 33
0.0
  0
SOLID
  5
834
100
AcDbEntity
  8
0
  6
BYBLOCK
 62
     0
100
AcDbTrace
 10
-1860.512363
 20
-1566.984259
 30
0.0
 11
-1860.331703
 21
-1566.170745
 31
0.0
 12
-1862.862577
 22
-1566.03552
 32
0.0
 13
-1862.862577
 23
-1566.03552
 33
0.0
  0
MTEXT
  5
835
100
AcDbEntity
  8
0
  6
BYBLOCK
 62
     0
100
AcDbMText
 10
-1855.78581
 20
-1565.331761
 30
0.0
 40
3.5
 41
0.0
 71
     5
 72
     1
  1
\A2;90°{\H2.800000;\S-0°2'^  0°0';}
 11
0.674738
 21
-0.738058
 31
0.0
  0
POINT
  5
836
100
AcDbEntity
  8
DEFPOINTS
  6
BYBLOCK
 62
     0
100
AcDbPoint
 10
-1859.97964
 20
-1566.808001
 30
0.0
  0
POINT
  5
837
100
AcDbEntity
  8
DEFPOINTS
  6
BYBLOCK
 62
     0
100
AcDbPoint
 10
-1912.862577
 20
-1571.801394
 30
0.0
  0
POINT
  5
838
100
AcDbEntity
  8
DEFPOINTS
  6
BYBLOCK
 62
     0
100
AcDbPoint
 10
-1862.862577
 20
-1571.801394
 30
0.0
  0
POINT
  5
839
100
AcDbEntity
  8
DEFPOINTS
  6
BYBLOCK
 62
     0
100
AcDbPoint
 10
-1862.862577
 20
-1547.801394
 30
0.0
  0
POINT
  5
83A
100
AcDbEntity
  8
DEFPOINTS
  6
BYBLOCK
 62
     0
100
AcDbPoint
 10
-1862.862577
 20
-1571.801394
 30
0.0
  0
ENDBLK
  5
83B
100
AcDbEntity
  8
0
100
AcDbBlockEnd
  0
BLOCK
  5
855
100
AcDbEntity
  8
0
100
AcDbBlockBegin
  2
*D9
 70
    65
 10
0.0
 20
0.0
 30
0.0
  3
*D9
  1

  0
LINE
  5
856
100
AcDbEntity
  8
0
  6
BYBLOCK
 62
     0
100
AcDbLine
 10
-1913.487577
 20
-1571.801394
 30
0.0
 11
-1919.170275
 21
-1571.801394
 31
0.0
  0
ARC
  5
857
100
AcDbEntity
  8
0
  6
BYBLOCK
 62
     0
100
AcDbCircle
 10
-1912.862577
 20
-1571.801394
 30
0.0
 40
5.057697
100
AcDbArc
 50
118.617624
 51
151.382376
  0
SOLID
  5
858
100
AcDbEntity
  8
0
  6
BYBLOCK
 62
     0
100
AcDbTrace
 10
-1915.388
 20
-1566.957825
 30
0.0
 11
-1915.182043
 21
-1567.765307
 31
0.0
 12
-1912.862577
 22
-1566.743696
 32
0.0
 13
-1912.862577
 23
-1566.743696
 33
0.0
  0
SOLID
  5
859
100
AcDbEntity
  8
0
  6
BYBLOCK
 62
     0
100
AcDbTrace
 10
-1916.898664
 20
-1569.481928
 30
0.0
 11
-1917.706145
 21
-1569.275971
 31
0.0
 12
-1917.920275
 22
-1571.801394
 32
0.0
 13
-1917.920275
 23
-1571.801394
 33
0.0
  0
MTEXT
  5
85A
100
AcDbEntity
  8
0
  6
BYBLOCK
 62
     0
100
AcDbMText
 10
-1920.044252
 20
-1566.57824
 30
0.0
 40
3.5
 41
0.0
 71
     5
 72
     1
  1
\A2;90°{\H2.800000;\S-0°2'^  0°0';}
 11
0.58818
 21
0.80873
 31
0.0
  0
POINT
  5
85B
100
AcDbEntity
  8
DEFPOINTS
  6
BYBLOCK
 62
     0
100
AcDbPoint
 10
-1915.391426
 20
-1567.421299
 30
0.0
  0
POINT
  5
85C
100
AcDbEntity
  8
DEFPOINTS
  6
BYBLOCK
 62
     0
100
AcDbPoint
 10
-1912.862577
 20
-1571.801394
 30
0.0
  0
POINT
  5
85D
100
AcDbEntity
  8
DEFPOINTS
  6
BYBLOCK
 62
     0
100
AcDbPoint
 10
-1912.862577
 20
-1571.801394
 30
0.0
  0
POINT
  5
85E
100
AcDbEntity
  8
DEFPOINTS
  6
BYBLOCK
 62
     0
100
AcDbPoint
 10
-1912.862577
 20
-1547.801394
 30
0.0
  0
POINT
  5
85F
100
AcDbEntity
  8
DEFPOINTS
  6
BYBLOCK
 62
     0
100
AcDbPoint
 10
-1862.862577
 20
-1571.801394
 30
0.0
  0
ENDBLK
  5
860
100
AcDbEntity
  8
0
100
AcDbBlockEnd
  0
BLOCK
  5
886
100
AcDbEntity
  8
0
100
AcDbBlockBegin
  2
*D10
 70
    65
 10
0.0
 20
0.0
 30
0.0
  3
*D10
  1

  0
LINE
  5
887
100
AcDbEntity
  8
0
  6
BYBLOCK
 62
     0
100
AcDbLine
 10
-1904.862577
 20
-1551.176394
 30
0.0
 11
-1904.862577
 21
-1537.971706
 31
0.0
  0
LINE
  5
888
100
AcDbEntity
  8
0
  6
BYBLOCK
 62
     0
100
AcDbLine
 10
-1912.862577
 20
-1547.176394
 30
0.0
 11
-1912.862577
 21
-1537.971706
 31
0.0
  0
LINE
  5
889
100
AcDbEntity
  8
0
  6
BYBLOCK
 62
     0
100
AcDbLine
 10
-1902.362577
 20
-1539.221706
 30
0.0
 11
-1899.862577
 21
-1539.221706
 31
0.0
  0
LINE
  5
88A
100
AcDbEntity
  8
0
  6
BYBLOCK
 62
     0
100
AcDbLine
 10
-1915.362577
 20
-1539.221706
 30
0.0
 11
-1917.862577
 21
-1539.221706
 31
0.0
  0
SOLID
  5
88B
100
AcDbEntity
  8
0
  6
BYBLOCK
 62
     0
100
AcDbTrace
 10
-1902.362577
 20
-1538.805039
 30
0.0
 11
-1902.362577
 21
-1539.638373
 31
0.0
 12
-1904.862577
 22
-1539.221706
 32
0.0
 13
-1904.862577
 23
-1539.221706
 33
0.0
  0
SOLID
  5
88C
100
AcDbEntity
  8
0
  6
BYBLOCK
 62
     0
100
AcDbTrace
 10
-1915.362577
 20
-1538.805039
 30
0.0
 11
-1915.362577
 21
-1539.638373
 31
0.0
 12
-1912.862577
 22
-1539.221706
 32
0.0
 13
-1912.862577
 23
-1539.221706
 33
0.0
  0
MTEXT
  5
88D
100
AcDbEntity
  8
0
  6
BYBLOCK
 62
     0
100
AcDbMText
 10
-1908.862577
 20
-1536.846706
 30
0.0
 40
3.5
 41
0.0
 71
     5
 72
     1
  1
\A1;{50}
  0
POINT
  5
88E
100
AcDbEntity
  8
DEFPOINTS
  6
BYBLOCK
 62
     0
100
AcDbPoint
 10
-1904.862577
 20
-1551.801394
 30
0.0
  0
POINT
  5
88F
100
AcDbEntity
  8
DEFPOINTS
  6
BYBLOCK
 62
     0
100
AcDbPoint
 10
-1912.862577
 20
-1547.801394
 30
0.0
  0
POINT
  5
890
100
AcDbEntity
  8
DEFPOINTS
  6
BYBLOCK
 62
     0
100
AcDbPoint
 10
-1912.862577
 20
-1539.221706
 30
0.0
  0
ENDBLK
  5
891
100
AcDbEntity
  8
0
100
AcDbBlockEnd
  0
BLOCK
  5
8B8
100
AcDbEntity
  8
0
100
AcDbBlockBegin
  2
*D11
 70
    65
 10
0.0
 20
0.0
 30
0.0
  3
*D11
  1

  0
LINE
  5
8B9
100
AcDbEntity
  8
0
  6
BYBLOCK
 62
     0
100
AcDbLine
 10
-1896.237577
 20
-1551.801394
 30
0.0
 11
-1883.016989
 21
-1551.801394
 31
0.0
  0
LINE
  5
8BA
100
AcDbEntity
  8
0
  6
BYBLOCK
 62
     0
100
AcDbLine
 10
-1884.281038
 20
-1547.801394
 30
0.0
 11
-1885.516989
 21
-1547.801394
 31
0.0
  0
LINE
  5
8BB
100
AcDbEntity
  8
0
  6
BYBLOCK
 62
     0
100
AcDbLine
 10
-1884.266989
 20
-1554.301394
 30
0.0
 11
-1884.266989
 21
-1556.801394
 31
0.0
  0
LINE
  5
8BC
100
AcDbEntity
  8
0
  6
BYBLOCK
 62
     0
100
AcDbLine
 10
-1884.266989
 20
-1545.301394
 30
0.0
 11
-1884.266989
 21
-1537.310331
 31
0.0
  0
SOLID
  5
8BD
100
AcDbEntity
  8
0
  6
BYBLOCK
 62
     0
100
AcDbTrace
 10
-1884.683656
 20
-1554.301394
 30
0.0
 11
-1883.850323
 21
-1554.301394
 31
0.0
 12
-1884.266989
 22
-1551.801394
 32
0.0
 13
-1884.266989
 23
-1551.801394
 33
0.0
  0
SOLID
  5
8BE
100
AcDbEntity
  8
0
  6
BYBLOCK
 62
     0
100
AcDbTrace
 10
-1884.683656
 20
-1545.301394
 30
0.0
 11
-1883.850323
 21
-1545.301394
 31
0.0
 12
-1884.266989
 22
-1547.801394
 32
0.0
 13
-1884.266989
 23
-1547.801394
 33
0.0
  0
MTEXT
  5
8BF
100
AcDbEntity
  8
0
  6
BYBLOCK
 62
     0
100
AcDbMText
 10
-1886.641989
 20
-1540.055862
 30
0.0
 40
3.5
 41
0.0
 71
     5
 72
     1
  1
\A1;{20}
 11
0.0
 21
1.0
 31
0.0
  0
POINT
  5
8C0
100
AcDbEntity
  8
DEFPOINTS
  6
BYBLOCK
 62
     0
100
AcDbPoint
 10
-1896.862577
 20
-1551.801394
 30
0.0
  0
POINT
  5
8C1
100
AcDbEntity
  8
DEFPOINTS
  6
BYBLOCK
 62
     0
100
AcDbPoint
 10
-1883.656038
 20
-1547.801394
 30
0.0
  0
POINT
  5
8C2
100
AcDbEntity
  8
DEFPOINTS
  6
BYBLOCK
 62
     0
100
AcDbPoint
 10
-1884.266989
 20
-1547.801394
 30
0.0
  0
ENDBLK
  5
8C3
100
AcDbEntity
  8
0
100
AcDbBlockEnd
  0
BLOCK
  5
927
100
AcDbEntity
  8
0
100
AcDbBlockBegin
  2
*D12
 70
    65
 10
0.0
 20
0.0
 30
0.0
  3
*D12
  1

  0
LINE
  5
928
100
AcDbEntity
  8
0
  6
BYBLOCK
 62
     0
100
AcDbLine
 10
-1838.643103
 20
-1497.020768
 30
0.0
 11
-1847.959048
 21
-1497.020768
 31
0.0
  0
LINE
  5
929
100
AcDbEntity
  8
0
  6
BYBLOCK
 62
     0
100
AcDbLine
 10
-1824.846673
 20
-1505.020768
 30
0.0
 11
-1847.959048
 21
-1505.020768
 31
0.0
  0
LINE
  5
92A
100
AcDbEntity
  8
0
  6
BYBLOCK
 62
     0
100
AcDbLine
 10
-1846.709048
 20
-1499.520768
 30
0.0
 11
-1846.709048
 21
-1502.520768
 31
0.0
  0
SOLID
  5
92B
100
AcDbEntity
  8
0
  6
BYBLOCK
 62
     0
100
AcDbTrace
 10
-1847.125715
 20
-1499.520768
 30
0.0
 11
-1846.292381
 21
-1499.520768
 31
0.0
 12
-1846.709048
 22
-1497.020768
 32
0.0
 13
-1846.709048
 23
-1497.020768
 33
0.0
  0
SOLID
  5
92C
100
AcDbEntity
  8
0
  6
BYBLOCK
 62
     0
100
AcDbTrace
 10
-1847.125715
 20
-1502.520768
 30
0.0
 11
-1846.292381
 21
-1502.520768
 31
0.0
 12
-1846.709048
 22
-1505.020768
 32
0.0
 13
-1846.709048
 23
-1505.020768
 33
0.0
  0
MTEXT
  5
92D
100
AcDbEntity
  8
0
  6
BYBLOCK
 62
     0
100
AcDbMText
 10
-1849.084048
 20
-1501.020768
 30
0.0
 40
3.5
 41
0.0
 71
     5
 72
     1
  1
\A1;8
 11
0.0
 21
1.0
 31
0.0
  0
POINT
  5
92E
100
AcDbEntity
  8
DEFPOINTS
  6
BYBLOCK
 62
     0
100
AcDbPoint
 10
-1838.018103
 20
-1497.020768
 30
0.0
  0
POINT
  5
92F
100
AcDbEntity
  8
DEFPOINTS
  6
BYBLOCK
 62
     0
100
AcDbPoint
 10
-1824.221673
 20
-1505.020768
 30
0.0
  0
POINT
  5
930
100
AcDbEntity
  8
DEFPOINTS
  6
BYBLOCK
 62
     0
100
AcDbPoint
 10
-1846.709048
 20
-1505.020768
 30
0.0
  0
ENDBLK
  5
931
100
AcDbEntity
  8
0
100
AcDbBlockEnd
  0
BLOCK
  5
934
100
AcDbEntity
  8
0
100
AcDbBlockBegin
  2
*D13
 70
    65
 10
0.0
 20
0.0
 30
0.0
  3
*D13
  1

  0
LINE
  5
935
100
AcDbEntity
  8
0
  6
BYBLOCK
 62
     0
100
AcDbLine
 10
-1825.846673
 20
-1495.520768
 30
0.0
 11
-1834.059904
 21
-1495.520768
 31
0.0
  0
LINE
  5
936
100
AcDbEntity
  8
0
  6
BYBLOCK
 62
     0
100
AcDbLine
 10
-1825.846673
 20
-1498.520768
 30
0.0
 11
-1834.059904
 21
-1498.520768
 31
0.0
  0
LINE
  5
937
100
AcDbEntity
  8
0
  6
BYBLOCK
 62
     0
100
AcDbLine
 10
-1832.809904
 20
-1493.020768
 30
0.0
 11
-1832.809904
 21
-1490.520768
 31
0.0
  0
LINE
  5
938
100
AcDbEntity
  8
0
  6
BYBLOCK
 62
     0
100
AcDbLine
 10
-1832.809904
 20
-1501.020768
 30
0.0
 11
-1832.809904
 21
-1503.520768
 31
0.0
  0
SOLID
  5
939
100
AcDbEntity
  8
0
  6
BYBLOCK
 62
     0
100
AcDbTrace
 10
-1833.22657
 20
-1493.020768
 30
0.0
 11
-1832.393237
 21
-1493.020768
 31
0.0
 12
-1832.809904
 22
-1495.520768
 32
0.0
 13
-1832.809904
 23
-1495.520768
 33
0.0
  0
SOLID
  5
93A
100
AcDbEntity
  8
0
  6
BYBLOCK
 62
     0
100
AcDbTrace
 10
-1833.22657
 20
-1501.020768
 30
0.0
 11
-1832.393237
 21
-1501.020768
 31
0.0
 12
-1832.809904
 22
-1498.520768
 32
0.0
 13
-1832.809904
 23
-1498.520768
 33
0.0
  0
MTEXT
  5
93B
100
AcDbEntity
  8
0
  6
BYBLOCK
 62
     0
100
AcDbMText
 10
-1835.184904
 20
-1497.020768
 30
0.0
 40
3.5
 41
0.0
 71
     5
 72
     1
  1
\A1;3
 11
0.0
 21
1.0
 31
0.0
  0
POINT
  5
93C
100
AcDbEntity
  8
DEFPOINTS
  6
BYBLOCK
 62
     0
100
AcDbPoint
 10
-1825.221673
 20
-1495.520768
 30
0.0
  0
POINT
  5
93D
100
AcDbEntity
  8
DEFPOINTS
  6
BYBLOCK
 62
     0
100
AcDbPoint
 10
-1825.221673
 20
-1498.520768
 30
0.0
  0
POINT
  5
93E
100
AcDbEntity
  8
DEFPOINTS
  6
BYBLOCK
 62
     0
100
AcDbPoint
 10
-1832.809904
 20
-1498.520768
 30
0.0
  0
ENDBLK
  5
93F
100
AcDbEntity
  8
0
100
AcDbBlockEnd
  0
BLOCK
  5
942
100
AcDbEntity
  8
0
100
AcDbBlockBegin
  2
*D14
 70
    65
 10
0.0
 20
0.0
 30
0.0
  3
*D14
  1

  0
LINE
  5
943
100
AcDbEntity
  8
0
  6
BYBLOCK
 62
     0
100
AcDbLine
 10
-1825.663615
 20
-1495.078826
 30
0.0
 11
-1845.101867
 21
-1475.640574
 31
0.0
  0
LINE
  5
944
100
AcDbEntity
  8
0
  6
BYBLOCK
 62
     0
100
AcDbLine
 10
-1825.663615
 20
-1498.962709
 30
0.0
 11
-1845.101867
 21
-1518.400961
 31
0.0
  0
ARC
  5
945
100
AcDbEntity
  8
0
  6
BYBLOCK
 62
     0
100
AcDbCircle
 10
-1823.721673
 20
-1497.020768
 30
0.0
 40
28.98616
100
AcDbArc
 50
139.943183
 51
220.056817
  0
SOLID
  5
946
100
AcDbEntity
  8
0
  6
BYBLOCK
 62
     0
100
AcDbTrace
 10
-1846.214932
 20
-1478.085165
 30
0.0
 11
-1845.600813
 21
-1478.648462
 31
0.0
 12
-1844.217983
 22
-1476.524458
 32
0.0
 13
-1844.217983
 23
-1476.524458
 33
0.0
  0
SOLID
  5
947
100
AcDbEntity
  8
0
  6
BYBLOCK
 62
     0
100
AcDbTrace
 10
-1845.600813
 20
-1515.393074
 30
0.0
 11
-1846.214932
 21
-1515.95637
 31
0.0
 12
-1844.217983
 22
-1517.517078
 32
0.0
 13
-1844.217983
 23
-1517.517078
 33
0.0
  0
MTEXT
  5
948
100
AcDbEntity
  8
0
  6
BYBLOCK
 62
     0
100
AcDbMText
 10
-1855.082833
 20
-1497.020768
 30
0.0
 40
3.5
 41
0.0
 71
     5
 72
     1
  1
\A1;90°
 11
0.0
 21
1.0
 31
0.0
  0
POINT
  5
949
100
AcDbEntity
  8
DEFPOINTS
  6
BYBLOCK
 62
     0
100
AcDbPoint
 10
-1851.720153
 20
-1489.518598
 30
0.0
  0
POINT
  5
94A
100
AcDbEntity
  8
DEFPOINTS
  6
BYBLOCK
 62
     0
100
AcDbPoint
 10
-1825.221673
 20
-1495.520768
 30
0.0
  0
POINT
  5
94B
100
AcDbEntity
  8
DEFPOINTS
  6
BYBLOCK
 62
     0
100
AcDbPoint
 10
-1825.221673
 20
-1498.520768
 30
0.0
  0
POINT
  5
94C
100
AcDbEntity
  8
DEFPOINTS
  6
BYBLOCK
 62
     0
100
AcDbPoint
 10
-1823.721673
 20
-1497.020768
 30
0.0
  0
POINT
  5
94D
100
AcDbEntity
  8
DEFPOINTS
  6
BYBLOCK
 62
     0
100
AcDbPoint
 10
-1823.721673
 20
-1497.020768
 30
0.0
  0
ENDBLK
  5
94E
100
AcDbEntity
  8
0
100
AcDbBlockEnd
  0
BLOCK
  5
AE1
100
AcDbEntity
  8
0
100
AcDbBlockBegin
  2
*D15
 70
    65
 10
0.0
 20
0.0
 30
0.0
  3
*D15
  1

  0
LINE
  5
AE2
100
AcDbEntity
  8
0
  6
BYBLOCK
 62
     0
100
AcDbLine
 10
-1862.862577
 20
-1572.426394
 30
0.0
 11
-1862.862577
 21
-1584.164194
 31
0.0
  0
LINE
  5
AE3
100
AcDbEntity
  8
0
  6
BYBLOCK
 62
     0
100
AcDbLine
 10
-1912.862577
 20
-1572.426394
 30
0.0
 11
-1912.862577
 21
-1584.164194
 31
0.0
  0
LINE
  5
AE4
100
AcDbEntity
  8
0
  6
BYBLOCK
 62
     0
100
AcDbLine
 10
-1865.362577
 20
-1582.914194
 30
0.0
 11
-1910.362577
 21
-1582.914194
 31
0.0
  0
SOLID
  5
AE5
100
AcDbEntity
  8
0
  6
BYBLOCK
 62
     0
100
AcDbTrace
 10
-1865.362577
 20
-1582.497527
 30
0.0
 11
-1865.362577
 21
-1583.330861
 31
0.0
 12
-1862.862577
 22
-1582.914194
 32
0.0
 13
-1862.862577
 23
-1582.914194
 33
0.0
  0
SOLID
  5
AE6
100
AcDbEntity
  8
0
  6
BYBLOCK
 62
     0
100
AcDbTrace
 10
-1910.362577
 20
-1582.497527
 30
0.0
 11
-1910.362577
 21
-1583.330861
 31
0.0
 12
-1912.862577
 22
-1582.914194
 32
0.0
 13
-1912.862577
 23
-1582.914194
 33
0.0
  0
MTEXT
  5
AE7
100
AcDbEntity
  8
0
  6
BYBLOCK
 62
     0
100
AcDbMText
 10
-1887.862577
 20
-1580.539194
 30
0.0
 40
3.5
 41
0.0
 71
     5
 72
     1
  1
\A1;{1000 +/- 0,1}
  0
POINT
  5
AE8
100
AcDbEntity
  8
DEFPOINTS
  6
BYBLOCK
 62
     0
100
AcDbPoint
 10
-1862.862577
 20
-1571.801394
 30
0.0
  0
POINT
  5
AE9
100
AcDbEntity
  8
DEFPOINTS
  6
BYBLOCK
 62
     0
100
AcDbPoint
 10
-1912.862577
 20
-1571.801394
 30
0.0
  0
POINT
  5
AEA
100
AcDbEntity
  8
DEFPOINTS
  6
BYBLOCK
 62
     0
100
AcDbPoint
 10
-1912.862577
 20
-1582.914194
 30
0.0
  0
ENDBLK
  5
AEB
100
AcDbEntity
  8
0
100
AcDbBlockEnd
  0
BLOCK
  5
AED
100
AcDbEntity
  8
0
100
AcDbBlockBegin
  2
*D16
 70
    65
 10
0.0
 20
0.0
 30
0.0
  3
*D16
  1

  0
LINE
  5
AEE
100
AcDbEntity
  8
0
  6
BYBLOCK
 62
     0
100
AcDbLine
 10
-1862.237577
 20
-1571.801394
 30
0.0
 11
-1855.846704
 21
-1571.801394
 31
0.0
  0
ARC
  5
AEF
100
AcDbEntity
  8
0
  6
BYBLOCK
 62
     0
100
AcDbCircle
 10
-1862.862577
 20
-1571.801394
 30
0.0
 40
5.765874
100
AcDbArc
 50
25.041459
 51
64.958541
  0
SOLID
  5
AF0
100
AcDbEntity
  8
0
  6
BYBLOCK
 62
     0
100
AcDbTrace
 10
-1857.231928
 20
-1569.270519
 30
0.0
 11
-1858.045443
 21
-1569.45118
 31
0.0
 12
-1857.096704
 22
-1571.801394
 32
0.0
 13
-1857.096704
 23
-1571.801394
 33
0.0
  0
SOLID
  5
AF1
100
AcDbEntity
  8
0
  6
BYBLOCK
 62
     0
100
AcDbTrace
 10
-1860.512363
 20
-1566.984259
 30
0.0
 11
-1860.331703
 21
-1566.170745
 31
0.0
 12
-1862.862577
 22
-1566.03552
 32
0.0
 13
-1862.862577
 23
-1566.03552
 33
0.0
  0
MTEXT
  5
AF2
100
AcDbEntity
  8
0
  6
BYBLOCK
 62
     0
100
AcDbMText
 10
-1855.78581
 20
-1565.331761
 30
0.0
 40
3.5
 41
0.0
 71
     5
 72
     1
  1
\A2;90°{\H2.800000;\S-0°2'^  0°0';}
 11
0.674738
 21
-0.738058
 31
0.0
  0
POINT
  5
AF3
100
AcDbEntity
  8
DEFPOINTS
  6
BYBLOCK
 62
     0
100
AcDbPoint
 10
-1859.97964
 20
-1566.808001
 30
0.0
  0
POINT
  5
AF4
100
AcDbEntity
  8
DEFPOINTS
  6
BYBLOCK
 62
     0
100
AcDbPoint
 10
-1912.862577
 20
-1571.801394
 30
0.0
  0
POINT
  5
AF5
100
AcDbEntity
  8
DEFPOINTS
  6
BYBLOCK
 62
     0
100
AcDbPoint
 10
-1862.862577
 20
-1571.801394
 30
0.0
  0
POINT
  5
AF6
100
AcDbEntity
  8
DEFPOINTS
  6
BYBLOCK
 62
     0
100
AcDbPoint
 10
-1862.862577
 20
-1547.801394
 30
0.0
  0
POINT
  5
AF7
100
AcDbEntity
  8
DEFPOINTS
  6
BYBLOCK
 62
     0
100
AcDbPoint
 10
-1862.862577
 20
-1571.801394
 30
0.0
  0
ENDBLK
  5
AF8
100
AcDbEntity
  8
0
100
AcDbBlockEnd
  0
BLOCK
  5
AFA
100
AcDbEntity
  8
0
100
AcDbBlockBegin
  2
*D17
 70
    65
 10
0.0
 20
0.0
 30
0.0
  3
*D17
  1

  0
LINE
  5
AFB
100
AcDbEntity
  8
0
  6
BYBLOCK
 62
     0
100
AcDbLine
 10
-1913.487577
 20
-1571.801394
 30
0.0
 11
-1919.170275
 21
-1571.801394
 31
0.0
  0
ARC
  5
AFC
100
AcDbEntity
  8
0
  6
BYBLOCK
 62
     0
100
AcDbCircle
 10
-1912.862577
 20
-1571.801394
 30
0.0
 40
5.057697
100
AcDbArc
 50
118.617624
 51
151.382376
  0
SOLID
  5
AFD
100
AcDbEntity
  8
0
  6
BYBLOCK
 62
     0
100
AcDbTrace
 10
-1915.388
 20
-1566.957825
 30
0.0
 11
-1915.182043
 21
-1567.765307
 31
0.0
 12
-1912.862577
 22
-1566.743696
 32
0.0
 13
-1912.862577
 23
-1566.743696
 33
0.0
  0
SOLID
  5
AFE
100
AcDbEntity
  8
0
  6
BYBLOCK
 62
     0
100
AcDbTrace
 10
-1916.898664
 20
-1569.481928
 30
0.0
 11
-1917.706145
 21
-1569.275971
 31
0.0
 12
-1917.920275
 22
-1571.801394
 32
0.0
 13
-1917.920275
 23
-1571.801394
 33
0.0
  0
MTEXT
  5
AFF
100
AcDbEntity
  8
0
  6
BYBLOCK
 62
     0
100
AcDbMText
 10
-1920.044252
 20
-1566.57824
 30
0.0
 40
3.5
 41
0.0
 71
     5
 72
     1
  1
\A2;90°{\H2.800000;\S-0°2'^  0°0';}
 11
0.58818
 21
0.80873
 31
0.0
  0
POINT
  5
B00
100
AcDbEntity
  8
DEFPOINTS
  6
BYBLOCK
 62
     0
100
AcDbPoint
 10
-1915.391426
 20
-1567.421299
 30
0.0
  0
POINT
  5
B01
100
AcDbEntity
  8
DEFPOINTS
  6
BYBLOCK
 62
     0
100
AcDbPoint
 10
-1912.862577
 20
-1571.801394
 30
0.0
  0
POINT
  5
B02
100
AcDbEntity
  8
DEFPOINTS
  6
BYBLOCK
 62
     0
100
AcDbPoint
 10
-1912.862577
 20
-1571.801394
 30
0.0
  0
POINT
  5
B03
100
AcDbEntity
  8
DEFPOINTS
  6
BYBLOCK
 62
     0
100
AcDbPoint
 10
-1912.862577
 20
-1547.801394
 30
0.0
  0
POINT
  5
B04
100
AcDbEntity
  8
DEFPOINTS
  6
BYBLOCK
 62
     0
100
AcDbPoint
 10
-1862.862577
 20
-1571.801394
 30
0.0
  0
ENDBLK
  5
B05
100
AcDbEntity
  8
0
100
AcDbBlockEnd
  0
BLOCK
  5
17EA
100
AcDbEntity
  8
0
100
AcDbBlockBegin
  2
*D18
 70
    65
 10
0.0
 20
0.0
 30
0.0
  3
*D18
  1

  0
LINE
  5
17EB
100
AcDbEntity
  8
0
  6
BYBLOCK
 62
     0
100
AcDbLine
 10
-1560.125628
 20
-1505.320768
 30
0.0
 11
-1536.473331
 21
-1505.320768
 31
0.0
  0
LINE
  5
17EC
100
AcDbEntity
  8
0
  6
BYBLOCK
 62
     0
100
AcDbLine
 10
-1566.125628
 20
-1525.320768
 30
0.0
 11
-1536.473331
 21
-1525.320768
 31
0.0
  0
LINE
  5
17ED
100
AcDbEntity
  8
0
  6
BYBLOCK
 62
     0
100
AcDbLine
 10
-1537.723331
 20
-1507.820768
 30
0.0
 11
-1537.723331
 21
-1522.820768
 31
0.0
  0
SOLID
  5
17EE
100
AcDbEntity
  8
0
  6
BYBLOCK
 62
     0
100
AcDbTrace
 10
-1538.139998
 20
-1507.820768
 30
0.0
 11
-1537.306665
 21
-1507.820768
 31
0.0
 12
-1537.723331
 22
-1505.320768
 32
0.0
 13
-1537.723331
 23
-1505.320768
 33
0.0
  0
SOLID
  5
17EF
100
AcDbEntity
  8
0
  6
BYBLOCK
 62
     0
100
AcDbTrace
 10
-1538.139998
 20
-1522.820768
 30
0.0
 11
-1537.306665
 21
-1522.820768
 31
0.0
 12
-1537.723331
 22
-1525.320768
 32
0.0
 13
-1537.723331
 23
-1525.320768
 33
0.0
  0
MTEXT
  5
17F0
100
AcDbEntity
  8
0
  6
BYBLOCK
 62
     0
100
AcDbMText
 10
-1540.098331
 20
-1515.320768
 30
0.0
 40
3.5
 41
0.0
 71
     5
 72
     1
  1
\A1;20
 11
0.0
 21
1.0
 31
0.0
  0
POINT
  5
17F1
100
AcDbEntity
  8
DEFPOINTS
  6
BYBLOCK
 62
     0
100
AcDbPoint
 10
-1560.750628
 20
-1505.320768
 30
0.0
  0
POINT
  5
17F2
100
AcDbEntity
  8
DEFPOINTS
  6
BYBLOCK
 62
     0
100
AcDbPoint
 10
-1566.750628
 20
-1525.320768
 30
0.0
  0
POINT
  5
17F3
100
AcDbEntity
  8
DEFPOINTS
  6
BYBLOCK
 62
     0
100
AcDbPoint
 10
-1537.723331
 20
-1525.320768
 30
0.0
  0
ENDBLK
  5
17F4
100
AcDbEntity
  8
0
100
AcDbBlockEnd
  0
BLOCK
  5
CDE
100
AcDbEntity
  8
0
100
AcDbBlockBegin
  2
*D19
 70
    65
 10
0.0
 20
0.0
 30
0.0
  3
*D19
  1

  0
LINE
  5
CDF
100
AcDbEntity
  8
0
  6
BYBLOCK
 62
     0
100
AcDbLine
 10
-1567.700628
 20
-1524.395768
 30
0.0
 11
-1567.700628
 21
-1541.320167
 31
0.0
  0
LINE
  5
CE0
100
AcDbEntity
  8
0
  6
BYBLOCK
 62
     0
100
AcDbLine
 10
-1581.200628
 20
-1524.395768
 30
0.0
 11
-1581.200628
 21
-1541.320167
 31
0.0
  0
LINE
  5
CE1
100
AcDbEntity
  8
0
  6
BYBLOCK
 62
     0
100
AcDbLine
 10
-1578.700628
 20
-1540.070167
 30
0.0
 11
-1570.200628
 21
-1540.070167
 31
0.0
  0
LINE
  5
CE2
100
AcDbEntity
  8
0
  6
BYBLOCK
 62
     0
100
AcDbLine
 10
-1567.700628
 20
-1540.070167
 30
0.0
 11
-1540.190587
 21
-1540.070167
 31
0.0
  0
SOLID
  5
CE3
100
AcDbEntity
  8
0
  6
BYBLOCK
 62
     0
100
AcDbTrace
 10
-1578.700628
 20
-1539.6535
 30
0.0
 11
-1578.700628
 21
-1540.486834
 31
0.0
 12
-1581.200628
 22
-1540.070167
 32
0.0
 13
-1581.200628
 23
-1540.070167
 33
0.0
  0
SOLID
  5
CE4
100
AcDbEntity
  8
0
  6
BYBLOCK
 62
     0
100
AcDbTrace
 10
-1570.200628
 20
-1539.6535
 30
0.0
 11
-1570.200628
 21
-1540.486834
 31
0.0
 12
-1567.700628
 22
-1540.070167
 32
0.0
 13
-1567.700628
 23
-1540.070167
 33
0.0
  0
MTEXT
  5
CE5
100
AcDbEntity
  8
0
  6
BYBLOCK
 62
     0
100
AcDbMText
 10
-1548.438587
 20
-1536.317398
 30
0.0
 40
3.5
 41
0.0
 71
     5
 72
     1
  1
\A2;13.5{\H2.800000;\S+0.1^  0;}
  0
POINT
  5
CE6
100
AcDbEntity
  8
DEFPOINTS
  6
BYBLOCK
 62
     0
100
AcDbPoint
 10
-1567.700628
 20
-1523.770768
 30
0.0
  0
POINT
  5
CE7
100
AcDbEntity
  8
DEFPOINTS
  6
BYBLOCK
 62
     0
100
AcDbPoint
 10
-1581.200628
 20
-1523.770768
 30
0.0
  0
POINT
  5
CE8
100
AcDbEntity
  8
DEFPOINTS
  6
BYBLOCK
 62
     0
100
AcDbPoint
 10
-1581.200628
 20
-1540.070167
 30
0.0
  0
ENDBLK
  5
CE9
100
AcDbEntity
  8
0
100
AcDbBlockEnd
  0
BLOCK
  5
1045
100
AcDbEntity
  8
0
100
AcDbBlockBegin
  2
*D20
 70
    65
 10
0.0
 20
0.0
 30
0.0
  3
*D20
  1

  0
LINE
  5
1046
100
AcDbEntity
  8
0
  6
BYBLOCK
 62
     0
100
AcDbLine
 10
-1600.372058
 20
-1497.020768
 30
0.0
 11
-1606.057728
 21
-1497.020768
 31
0.0
  0
LINE
  5
1047
100
AcDbEntity
  8
0
  6
BYBLOCK
 62
     0
100
AcDbLine
 10
-1586.275628
 20
-1505.320768
 30
0.0
 11
-1606.057728
 21
-1505.320768
 31
0.0
  0
LINE
  5
1048
100
AcDbEntity
  8
0
  6
BYBLOCK
 62
     0
100
AcDbLine
 10
-1604.807728
 20
-1499.520768
 30
0.0
 11
-1604.807728
 21
-1502.820768
 31
0.0
  0
LINE
  5
1049
100
AcDbEntity
  8
0
  6
BYBLOCK
 62
     0
100
AcDbLine
 10
-1604.807728
 20
-1505.320768
 30
0.0
 11
-1604.807728
 21
-1539.976883
 31
0.0
  0
SOLID
  5
104A
100
AcDbEntity
  8
0
  6
BYBLOCK
 62
     0
100
AcDbTrace
 10
-1605.224395
 20
-1499.520768
 30
0.0
 11
-1604.391061
 21
-1499.520768
 31
0.0
 12
-1604.807728
 22
-1497.020768
 32
0.0
 13
-1604.807728
 23
-1497.020768
 33
0.0
  0
SOLID
  5
104B
100
AcDbEntity
  8
0
  6
BYBLOCK
 62
     0
100
AcDbTrace
 10
-1605.224395
 20
-1502.820768
 30
0.0
 11
-1604.391061
 21
-1502.820768
 31
0.0
 12
-1604.807728
 22
-1505.320768
 32
0.0
 13
-1604.807728
 23
-1505.320768
 33
0.0
  0
MTEXT
  5
104C
100
AcDbEntity
  8
0
  6
BYBLOCK
 62
     0
100
AcDbMText
 10
-1607.182728
 20
-1533.153383
 30
0.0
 40
3.5
 41
0.0
 71
     5
 72
     1
  1
\A2;8.3{\H2.800000;±0.1}
 11
0.0
 21
1.0
 31
0.0
  0
POINT
  5
104D
100
AcDbEntity
  8
DEFPOINTS
  6
BYBLOCK
 62
     0
100
AcDbPoint
 10
-1599.747058
 20
-1497.020768
 30
0.0
  0
POINT
  5
104E
100
AcDbEntity
  8
DEFPOINTS
  6
BYBLOCK
 62
     0
100
AcDbPoint
 10
-1585.650628
 20
-1505.320768
 30
0.0
  0
POINT
  5
104F
100
AcDbEntity
  8
DEFPOINTS
  6
BYBLOCK
 62
     0
100
AcDbPoint
 10
-1604.807728
 20
-1505.320768
 30
0.0
  0
ENDBLK
  5
1050
100
AcDbEntity
  8
0
100
AcDbBlockEnd
  0
BLOCK
  5
BDD
100
AcDbEntity
  8
0
100
AcDbBlockBegin
  2
*D21
 70
    65
 10
0.0
 20
0.0
 30
0.0
  3
*D21
  1

  0
LINE
  5
BDE
100
AcDbEntity
  8
0
  6
BYBLOCK
 62
     0
100
AcDbLine
 10
-1587.64257
 20
-1494.828826
 30
0.0
 11
-1607.429074
 21
-1475.042322
 31
0.0
  0
LINE
  5
BDF
100
AcDbEntity
  8
0
  6
BYBLOCK
 62
     0
100
AcDbLine
 10
-1587.64257
 20
-1499.212709
 30
0.0
 11
-1607.429074
 21
-1518.999213
 31
0.0
  0
ARC
  5
BE0
100
AcDbEntity
  8
0
  6
BYBLOCK
 62
     0
100
AcDbCircle
 10
-1585.450628
 20
-1497.020768
 30
0.0
 40
29.832216
100
AcDbArc
 50
139.802908
 51
220.197092
  0
SOLID
  5
BE1
100
AcDbEntity
  8
0
  6
BYBLOCK
 62
     0
100
AcDbTrace
 10
-1608.544048
 20
-1477.484467
 30
0.0
 11
-1607.930619
 21
-1478.048515
 31
0.0
 12
-1606.54519
 22
-1475.926205
 32
0.0
 13
-1606.54519
 23
-1475.926205
 33
0.0
  0
SOLID
  5
BE2
100
AcDbEntity
  8
0
  6
BYBLOCK
 62
     0
100
AcDbTrace
 10
-1607.930619
 20
-1515.99302
 30
0.0
 11
-1608.544048
 21
-1516.557068
 31
0.0
 12
-1606.54519
 22
-1518.11533
 32
0.0
 13
-1606.54519
 23
-1518.11533
 33
0.0
  0
MTEXT
  5
BE3
100
AcDbEntity
  8
0
  6
BYBLOCK
 62
     0
100
AcDbMText
 10
-1617.657844
 20
-1497.020768
 30
0.0
 40
3.5
 41
0.0
 71
     5
 72
     1
  1
\A1;90°
 11
0.0
 21
1.0
 31
0.0
  0
POINT
  5
BE4
100
AcDbEntity
  8
DEFPOINTS
  6
BYBLOCK
 62
     0
100
AcDbPoint
 10
-1614.266336
 20
-1489.299622
 30
0.0
  0
POINT
  5
BE5
100
AcDbEntity
  8
DEFPOINTS
  6
BYBLOCK
 62
     0
100
AcDbPoint
 10
-1587.200628
 20
-1495.270768
 30
0.0
  0
POINT
  5
BE6
100
AcDbEntity
  8
DEFPOINTS
  6
BYBLOCK
 62
     0
100
AcDbPoint
 10
-1587.200628
 20
-1498.770768
 30
0.0
  0
POINT
  5
BE7
100
AcDbEntity
  8
DEFPOINTS
  6
BYBLOCK
 62
     0
100
AcDbPoint
 10
-1585.450628
 20
-1497.020768
 30
0.0
  0
POINT
  5
BE8
100
AcDbEntity
  8
DEFPOINTS
  6
BYBLOCK
 62
     0
100
AcDbPoint
 10
-1585.450628
 20
-1497.020768
 30
0.0
  0
ENDBLK
  5
BE9
100
AcDbEntity
  8
0
100
AcDbBlockEnd
  0
BLOCK
  5
BF8
100
AcDbEntity
  8
0
100
AcDbBlockBegin
  2
*D22
 70
    65
 10
0.0
 20
0.0
 30
0.0
  3
*D22
  1

  0
LINE
  5
BF9
100
AcDbEntity
  8
0
  6
BYBLOCK
 62
     0
100
AcDbLine
 10
-1587.825628
 20
-1495.270768
 30
0.0
 11
-1600.933948
 21
-1495.270768
 31
0.0
  0
LINE
  5
BFA
100
AcDbEntity
  8
0
  6
BYBLOCK
 62
     0
100
AcDbLine
 10
-1587.825628
 20
-1498.770768
 30
0.0
 11
-1600.933948
 21
-1498.770768
 31
0.0
  0
LINE
  5
BFB
100
AcDbEntity
  8
0
  6
BYBLOCK
 62
     0
100
AcDbLine
 10
-1599.683948
 20
-1501.270768
 30
0.0
 11
-1599.683948
 21
-1503.770768
 31
0.0
  0
LINE
  5
BFC
100
AcDbEntity
  8
0
  6
BYBLOCK
 62
     0
100
AcDbLine
 10
-1599.683948
 20
-1492.770768
 30
0.0
 11
-1599.683948
 21
-1471.673381
 31
0.0
  0
SOLID
  5
BFD
100
AcDbEntity
  8
0
  6
BYBLOCK
 62
     0
100
AcDbTrace
 10
-1600.100614
 20
-1501.270768
 30
0.0
 11
-1599.267281
 21
-1501.270768
 31
0.0
 12
-1599.683948
 22
-1498.770768
 32
0.0
 13
-1599.683948
 23
-1498.770768
 33
0.0
  0
SOLID
  5
BFE
100
AcDbEntity
  8
0
  6
BYBLOCK
 62
     0
100
AcDbTrace
 10
-1600.100614
 20
-1492.770768
 30
0.0
 11
-1599.267281
 21
-1492.770768
 31
0.0
 12
-1599.683948
 22
-1495.270768
 32
0.0
 13
-1599.683948
 23
-1495.270768
 33
0.0
  0
MTEXT
  5
BFF
100
AcDbEntity
  8
0
  6
BYBLOCK
 62
     0
100
AcDbMText
 10
-1602.058948
 20
-1475.073117
 30
0.0
 40
3.5
 41
0.0
 71
     5
 72
     1
  1
\A1;3.5
 11
0.0
 21
1.0
 31
0.0
  0
POINT
  5
C00
100
AcDbEntity
  8
DEFPOINTS
  6
BYBLOCK
 62
     0
100
AcDbPoint
 10
-1587.200628
 20
-1495.270768
 30
0.0
  0
POINT
  5
C01
100
AcDbEntity
  8
DEFPOINTS
  6
BYBLOCK
 62
     0
100
AcDbPoint
 10
-1587.200628
 20
-1498.770768
 30
0.0
  0
POINT
  5
C02
100
AcDbEntity
  8
DEFPOINTS
  6
BYBLOCK
 62
     0
100
AcDbPoint
 10
-1599.683948
 20
-1498.770768
 30
0.0
  0
ENDBLK
  5
C03
100
AcDbEntity
  8
0
100
AcDbBlockEnd
  0
BLOCK
  5
C06
100
AcDbEntity
  8
0
100
AcDbBlockBegin
  2
*D23
 70
    65
 10
0.0
 20
0.0
 30
0.0
  3
*D23
  1

  0
LINE
  5
C07
100
AcDbEntity
  8
0
  6
BYBLOCK
 62
     0
100
AcDbLine
 10
-1583.106783
 20
-1504.878826
 30
0.0
 11
-1584.928911
 21
-1503.056699
 31
0.0
  0
LINE
  5
C08
100
AcDbEntity
  8
0
  6
BYBLOCK
 62
     0
100
AcDbLine
 10
-1581.746123
 20
-1503.518166
 30
0.0
 11
-1583.56825
 21
-1501.696038
 31
0.0
  0
LINE
  5
C09
100
AcDbEntity
  8
0
  6
BYBLOCK
 62
     0
100
AcDbLine
 10
-1585.812794
 20
-1505.708349
 30
0.0
 11
-1587.580561
 21
-1507.476116
 31
0.0
  0
LINE
  5
C0A
100
AcDbEntity
  8
0
  6
BYBLOCK
 62
     0
100
AcDbLine
 10
-1580.9166
 20
-1500.812155
 30
0.0
 11
-1572.850317
 21
-1492.745872
 31
0.0
  0
SOLID
  5
C0B
100
AcDbEntity
  8
0
  6
BYBLOCK
 62
     0
100
AcDbTrace
 10
-1586.107422
 20
-1505.413721
 30
0.0
 11
-1585.518166
 21
-1506.002977
 31
0.0
 12
-1584.045027
 22
-1503.940582
 32
0.0
 13
-1584.045027
 23
-1503.940582
 33
0.0
  0
SOLID
  5
C0C
100
AcDbEntity
  8
0
  6
BYBLOCK
 62
     0
100
AcDbTrace
 10
-1581.211228
 20
-1500.517527
 30
0.0
 11
-1580.621972
 21
-1501.106783
 31
0.0
 12
-1582.684367
 22
-1502.579922
 32
0.0
 13
-1582.684367
 23
-1502.579922
 33
0.0
  0
MTEXT
  5
C0D
100
AcDbEntity
  8
0
  6
BYBLOCK
 62
     0
100
AcDbMText
 10
-1577.679197
 20
-1494.215508
 30
0.0
 40
3.5
 41
0.0
 71
     5
 72
     1
  1
\A1;1.92
 11
0.707107
 21
0.707107
 31
0.0
  0
POINT
  5
C0E
100
AcDbEntity
  8
DEFPOINTS
  6
BYBLOCK
 62
     0
100
AcDbPoint
 10
-1582.664841
 20
-1505.320768
 30
0.0
  0
POINT
  5
C0F
100
AcDbEntity
  8
DEFPOINTS
  6
BYBLOCK
 62
     0
100
AcDbPoint
 10
-1581.304181
 20
-1503.960107
 30
0.0
  0
POINT
  5
C10
100
AcDbEntity
  8
DEFPOINTS
  6
BYBLOCK
 62
     0
100
AcDbPoint
 10
-1582.684367
 20
-1502.579922
 30
0.0
  0
ENDBLK
  5
C11
100
AcDbEntity
  8
0
100
AcDbBlockEnd
  0
BLOCK
  5
C14
100
AcDbEntity
  8
0
100
AcDbBlockBegin
  2
*D24
 70
    65
 10
0.0
 20
0.0
 30
0.0
  3
*D24
  1

  0
LINE
  5
C15
100
AcDbEntity
  8
0
  6
BYBLOCK
 62
     0
100
AcDbLine
 10
-1569.45323
 20
-1504.932379
 30
0.0
 11
-1572.095563
 21
-1502.290047
 31
0.0
  0
LINE
  5
C16
100
AcDbEntity
  8
0
  6
BYBLOCK
 62
     0
100
AcDbLine
 10
-1568.039016
 20
-1503.518166
 30
0.0
 11
-1570.681349
 21
-1500.875833
 31
0.0
  0
LINE
  5
C17
100
AcDbEntity
  8
0
  6
BYBLOCK
 62
     0
100
AcDbLine
 10
-1572.979446
 20
-1504.941697
 30
0.0
 11
-1574.747213
 21
-1506.709464
 31
0.0
  0
LINE
  5
C18
100
AcDbEntity
  8
0
  6
BYBLOCK
 62
     0
100
AcDbLine
 10
-1568.029699
 20
-1499.99195
 30
0.0
 11
-1564.05647
 21
-1496.018721
 31
0.0
  0
SOLID
  5
C19
100
AcDbEntity
  8
0
  6
BYBLOCK
 62
     0
100
AcDbTrace
 10
-1573.274074
 20
-1504.647069
 30
0.0
 11
-1572.684818
 21
-1505.236325
 31
0.0
 12
-1571.211679
 22
-1503.17393
 32
0.0
 13
-1571.211679
 23
-1503.17393
 33
0.0
  0
SOLID
  5
C1A
100
AcDbEntity
  8
0
  6
BYBLOCK
 62
     0
100
AcDbTrace
 10
-1568.324326
 20
-1499.697322
 30
0.0
 11
-1567.735071
 21
-1500.286577
 31
0.0
 12
-1569.797466
 22
-1501.759716
 32
0.0
 13
-1569.797466
 23
-1501.759716
 33
0.0
  0
MTEXT
  5
C1B
100
AcDbEntity
  8
0
  6
BYBLOCK
 62
     0
100
AcDbMText
 10
-1566.838823
 20
-1495.44183
 30
0.0
 40
3.5
 41
0.0
 71
     5
 72
     1
  1
\A1;2
 11
0.707107
 21
0.707107
 31
0.0
  0
POINT
  5
C1C
100
AcDbEntity
  8
DEFPOINTS
  6
BYBLOCK
 62
     0
100
AcDbPoint
 10
-1569.011288
 20
-1505.374321
 30
0.0
  0
POINT
  5
C1D
100
AcDbEntity
  8
DEFPOINTS
  6
BYBLOCK
 62
     0
100
AcDbPoint
 10
-1567.597075
 20
-1503.960107
 30
0.0
  0
POINT
  5
C1E
100
AcDbEntity
  8
DEFPOINTS
  6
BYBLOCK
 62
     0
100
AcDbPoint
 10
-1569.797466
 20
-1501.759716
 30
0.0
  0
ENDBLK
  5
C1F
100
AcDbEntity
  8
0
100
AcDbBlockEnd
  0
BLOCK
  5
11EC
100
AcDbEntity
  8
0
100
AcDbBlockBegin
  2
*D25
 70
    65
 10
0.0
 20
0.0
 30
0.0
  3
*D25
  1

  0
LINE
  5
11ED
100
AcDbEntity
  8
0
  6
BYBLOCK
 62
     0
100
AcDbLine
 10
-1564.375628
 20
-1449.520768
 30
0.0
 11
-1541.029576
 21
-1449.520768
 31
0.0
  0
LINE
  5
11EE
100
AcDbEntity
  8
0
  6
BYBLOCK
 62
     0
100
AcDbLine
 10
-1562.625628
 20
-1505.320768
 30
0.0
 11
-1541.029576
 21
-1505.320768
 31
0.0
  0
LINE
  5
11EF
100
AcDbEntity
  8
0
  6
BYBLOCK
 62
     0
100
AcDbLine
 10
-1542.279576
 20
-1452.020768
 30
0.0
 11
-1542.279576
 21
-1502.820768
 31
0.0
  0
SOLID
  5
11F0
100
AcDbEntity
  8
0
  6
BYBLOCK
 62
     0
100
AcDbTrace
 10
-1542.696242
 20
-1452.020768
 30
0.0
 11
-1541.862909
 21
-1452.020768
 31
0.0
 12
-1542.279576
 22
-1449.520768
 32
0.0
 13
-1542.279576
 23
-1449.520768
 33
0.0
  0
SOLID
  5
11F1
100
AcDbEntity
  8
0
  6
BYBLOCK
 62
     0
100
AcDbTrace
 10
-1542.696242
 20
-1502.820768
 30
0.0
 11
-1541.862909
 21
-1502.820768
 31
0.0
 12
-1542.279576
 22
-1505.320768
 32
0.0
 13
-1542.279576
 23
-1505.320768
 33
0.0
  0
MTEXT
  5
11F2
100
AcDbEntity
  8
0
  6
BYBLOCK
 62
     0
100
AcDbMText
 10
-1546.032345
 20
-1477.420768
 30
0.0
 40
3.5
 41
0.0
 71
     5
 72
     1
  1
\A2;55.8{\H2.800000;\S+0.1^  0;}
 11
0.0
 21
1.0
 31
0.0
  0
POINT
  5
11F3
100
AcDbEntity
  8
DEFPOINTS
  6
BYBLOCK
 62
     0
100
AcDbPoint
 10
-1565.000628
 20
-1449.520768
 30
0.0
  0
POINT
  5
11F4
100
AcDbEntity
  8
DEFPOINTS
  6
BYBLOCK
 62
     0
100
AcDbPoint
 10
-1563.250628
 20
-1505.320768
 30
0.0
  0
POINT
  5
11F5
100
AcDbEntity
  8
DEFPOINTS
  6
BYBLOCK
 62
     0
100
AcDbPoint
 10
-1542.279576
 20
-1505.320768
 30
0.0
  0
ENDBLK
  5
11F6
100
AcDbEntity
  8
0
100
AcDbBlockEnd
  0
BLOCK
  5
11D6
100
AcDbEntity
  8
0
100
AcDbBlockBegin
  2
*D26
 70
    65
 10
0.0
 20
0.0
 30
0.0
  3
*D26
  1

  0
LINE
  5
11D7
100
AcDbEntity
  8
0
  6
BYBLOCK
 62
     0
100
AcDbLine
 10
-1564.375628
 20
-1449.520768
 30
0.0
 11
-1528.810548
 21
-1449.520768
 31
0.0
  0
LINE
  5
11D8
100
AcDbEntity
  8
0
  6
BYBLOCK
 62
     0
100
AcDbLine
 10
-1568.625628
 20
-1525.320768
 30
0.0
 11
-1528.810548
 21
-1525.320768
 31
0.0
  0
LINE
  5
11D9
100
AcDbEntity
  8
0
  6
BYBLOCK
 62
     0
100
AcDbLine
 10
-1530.060548
 20
-1452.020768
 30
0.0
 11
-1530.060548
 21
-1522.820768
 31
0.0
  0
SOLID
  5
11DA
100
AcDbEntity
  8
0
  6
BYBLOCK
 62
     0
100
AcDbTrace
 10
-1530.477215
 20
-1452.020768
 30
0.0
 11
-1529.643881
 21
-1452.020768
 31
0.0
 12
-1530.060548
 22
-1449.520768
 32
0.0
 13
-1530.060548
 23
-1449.520768
 33
0.0
  0
SOLID
  5
11DB
100
AcDbEntity
  8
0
  6
BYBLOCK
 62
     0
100
AcDbTrace
 10
-1530.477215
 20
-1522.820768
 30
0.0
 11
-1529.643881
 21
-1522.820768
 31
0.0
 12
-1530.060548
 22
-1525.320768
 32
0.0
 13
-1530.060548
 23
-1525.320768
 33
0.0
  0
MTEXT
  5
11DC
100
AcDbEntity
  8
0
  6
BYBLOCK
 62
     0
100
AcDbMText
 10
-1533.813317
 20
-1487.420768
 30
0.0
 40
3.5
 41
0.0
 71
     5
 72
     1
  1
\A2;75.8{\H2.800000;\S+0.1^  0;}
 11
0.0
 21
1.0
 31
0.0
  0
POINT
  5
11DD
100
AcDbEntity
  8
DEFPOINTS
  6
BYBLOCK
 62
     0
100
AcDbPoint
 10
-1565.000628
 20
-1449.520768
 30
0.0
  0
POINT
  5
11DE
100
AcDbEntity
  8
DEFPOINTS
  6
BYBLOCK
 62
     0
100
AcDbPoint
 10
-1569.250628
 20
-1525.320768
 30
0.0
  0
POINT
  5
11DF
100
AcDbEntity
  8
DEFPOINTS
  6
BYBLOCK
 62
     0
100
AcDbPoint
 10
-1530.060548
 20
-1525.320768
 30
0.0
  0
ENDBLK
  5
11E0
100
AcDbEntity
  8
0
100
AcDbBlockEnd
  0
BLOCK
  5
146D
100
AcDbEntity
  8
QUOTE
100
AcDbBlockBegin
  2
A$C170
 70
     0
 10
0.0
 20
0.0
 30
0.0
  3
A$C170
  1

  0
TEXT
  5
146C
100
AcDbEntity
  8
MARCATURA
100
AcDbText
 10
-0.234398
 20
0.048995
 30
0.0
 40
3.0
  1
MAX 100 T/m
 41
1.1
  7
STYLE3
100
AcDbText
  0
ENDBLK
  5
146E
100
AcDbEntity
  8
QUOTE
100
AcDbBlockEnd
  0
BLOCK
  5
14A1
100
AcDbEntity
  8
0
100
AcDbBlockBegin
  2
*D28
 70
    65
 10
0.0
 20
0.0
 30
0.0
  3
*D28
  1

  0
LINE
  5
14A2
100
AcDbEntity
  8
0
  6
BYBLOCK
 62
     0
100
AcDbLine
 10
-1804.721673
 20
-1449.395768
 30
0.0
 11
-1804.721673
 21
-1429.241452
 31
0.0
  0
LINE
  5
14A3
100
AcDbEntity
  8
0
  6
BYBLOCK
 62
     0
100
AcDbLine
 10
-1820.721673
 20
-1449.395768
 30
0.0
 11
-1820.721673
 21
-1429.241452
 31
0.0
  0
LINE
  5
14A4
100
AcDbEntity
  8
0
  6
BYBLOCK
 62
     0
100
AcDbLine
 10
-1802.221673
 20
-1430.491452
 30
0.0
 11
-1799.721673
 21
-1430.491452
 31
0.0
  0
LINE
  5
14A5
100
AcDbEntity
  8
0
  6
BYBLOCK
 62
     0
100
AcDbLine
 10
-1823.221673
 20
-1430.491452
 30
0.0
 11
-1825.721673
 21
-1430.491452
 31
0.0
  0
SOLID
  5
14A6
100
AcDbEntity
  8
0
  6
BYBLOCK
 62
     0
100
AcDbTrace
 10
-1802.221673
 20
-1430.074785
 30
0.0
 11
-1802.221673
 21
-1430.908118
 31
0.0
 12
-1804.721673
 22
-1430.491452
 32
0.0
 13
-1804.721673
 23
-1430.491452
 33
0.0
  0
SOLID
  5
14A7
100
AcDbEntity
  8
0
  6
BYBLOCK
 62
     0
100
AcDbTrace
 10
-1823.221673
 20
-1430.074785
 30
0.0
 11
-1823.221673
 21
-1430.908118
 31
0.0
 12
-1820.721673
 22
-1430.491452
 32
0.0
 13
-1820.721673
 23
-1430.491452
 33
0.0
  0
MTEXT
  5
14A8
100
AcDbEntity
  8
0
  6
BYBLOCK
 62
     0
100
AcDbMText
 10
-1812.721673
 20
-1428.116452
 30
0.0
 40
3.5
 41
0.0
 71
     5
 72
     1
  1
\A2;16{\H2.800000;±0.01}
  0
POINT
  5
14A9
100
AcDbEntity
  8
DEFPOINTS
  6
BYBLOCK
 62
     0
100
AcDbPoint
 10
-1804.721673
 20
-1450.020768
 30
0.0
  0
POINT
  5
14AA
100
AcDbEntity
  8
DEFPOINTS
  6
BYBLOCK
 62
     0
100
AcDbPoint
 10
-1820.721673
 20
-1450.020768
 30
0.0
  0
POINT
  5
14AB
100
AcDbEntity
  8
DEFPOINTS
  6
BYBLOCK
 62
     0
100
AcDbPoint
 10
-1820.721673
 20
-1430.491452
 30
0.0
  0
ENDBLK
  5
14AC
100
AcDbEntity
  8
0
100
AcDbBlockEnd
  0
BLOCK
  5
14D3
100
AcDbEntity
  8
0
100
AcDbBlockBegin
  2
*D29
 70
    65
 10
0.0
 20
0.0
 30
0.0
  3
*D29
  1

  0
LINE
  5
14D4
100
AcDbEntity
  8
0
  6
BYBLOCK
 62
     0
100
AcDbLine
 10
-1800.596673
 20
-1450.020768
 30
0.0
 11
-1782.589605
 21
-1450.020768
 31
0.0
  0
LINE
  5
14D5
100
AcDbEntity
  8
0
  6
BYBLOCK
 62
     0
100
AcDbLine
 10
-1800.596673
 20
-1505.020768
 30
0.0
 11
-1782.589605
 21
-1505.020768
 31
0.0
  0
LINE
  5
14D6
100
AcDbEntity
  8
0
  6
BYBLOCK
 62
     0
100
AcDbLine
 10
-1783.839605
 20
-1452.520768
 30
0.0
 11
-1783.839605
 21
-1502.520768
 31
0.0
  0
SOLID
  5
14D7
100
AcDbEntity
  8
0
  6
BYBLOCK
 62
     0
100
AcDbTrace
 10
-1784.256272
 20
-1452.520768
 30
0.0
 11
-1783.422938
 21
-1452.520768
 31
0.0
 12
-1783.839605
 22
-1450.020768
 32
0.0
 13
-1783.839605
 23
-1450.020768
 33
0.0
  0
SOLID
  5
14D8
100
AcDbEntity
  8
0
  6
BYBLOCK
 62
     0
100
AcDbTrace
 10
-1784.256272
 20
-1502.520768
 30
0.0
 11
-1783.422938
 21
-1502.520768
 31
0.0
 12
-1783.839605
 22
-1505.020768
 32
0.0
 13
-1783.839605
 23
-1505.020768
 33
0.0
  0
MTEXT
  5
14D9
100
AcDbEntity
  8
0
  6
BYBLOCK
 62
     0
100
AcDbMText
 10
-1786.214605
 20
-1477.520768
 30
0.0
 40
3.5
 41
0.0
 71
     5
 72
     1
  1
\A2;55{\H2.800000;±0.01}
 11
0.0
 21
1.0
 31
0.0
  0
POINT
  5
14DA
100
AcDbEntity
  8
DEFPOINTS
  6
BYBLOCK
 62
     0
100
AcDbPoint
 10
-1801.221673
 20
-1450.020768
 30
0.0
  0
POINT
  5
14DB
100
AcDbEntity
  8
DEFPOINTS
  6
BYBLOCK
 62
     0
100
AcDbPoint
 10
-1801.221673
 20
-1505.020768
 30
0.0
  0
POINT
  5
14DC
100
AcDbEntity
  8
DEFPOINTS
  6
BYBLOCK
 62
     0
100
AcDbPoint
 10
-1783.839605
 20
-1505.020768
 30
0.0
  0
ENDBLK
  5
14DD
100
AcDbEntity
  8
0
100
AcDbBlockEnd
  0
BLOCK
  5
14E9
100
AcDbEntity
  8
0
100
AcDbBlockBegin
  2
*D30
 70
    65
 10
0.0
 20
0.0
 30
0.0
  3
*D30
  1

  0
LINE
  5
14EA
100
AcDbEntity
  8
0
  6
BYBLOCK
 62
     0
100
AcDbLine
 10
-1800.596673
 20
-1450.020768
 30
0.0
 11
-1770.8338
 21
-1450.020768
 31
0.0
  0
LINE
  5
14EB
100
AcDbEntity
  8
0
  6
BYBLOCK
 62
     0
100
AcDbLine
 10
-1806.596673
 20
-1525.020768
 30
0.0
 11
-1770.8338
 21
-1525.020768
 31
0.0
  0
LINE
  5
14EC
100
AcDbEntity
  8
0
  6
BYBLOCK
 62
     0
100
AcDbLine
 10
-1772.0838
 20
-1452.520768
 30
0.0
 11
-1772.0838
 21
-1522.520768
 31
0.0
  0
SOLID
  5
14ED
100
AcDbEntity
  8
0
  6
BYBLOCK
 62
     0
100
AcDbTrace
 10
-1772.500467
 20
-1452.520768
 30
0.0
 11
-1771.667133
 21
-1452.520768
 31
0.0
 12
-1772.0838
 22
-1450.020768
 32
0.0
 13
-1772.0838
 23
-1450.020768
 33
0.0
  0
SOLID
  5
14EE
100
AcDbEntity
  8
0
  6
BYBLOCK
 62
     0
100
AcDbTrace
 10
-1772.500467
 20
-1522.520768
 30
0.0
 11
-1771.667133
 21
-1522.520768
 31
0.0
 12
-1772.0838
 22
-1525.020768
 32
0.0
 13
-1772.0838
 23
-1525.020768
 33
0.0
  0
MTEXT
  5
14EF
100
AcDbEntity
  8
0
  6
BYBLOCK
 62
     0
100
AcDbMText
 10
-1774.4588
 20
-1487.520768
 30
0.0
 40
3.5
 41
0.0
 71
     5
 72
     1
  1
\A2;75{\H2.800000;±0.01}
 11
0.0
 21
1.0
 31
0.0
  0
POINT
  5
14F0
100
AcDbEntity
  8
DEFPOINTS
  6
BYBLOCK
 62
     0
100
AcDbPoint
 10
-1801.221673
 20
-1450.020768
 30
0.0
  0
POINT
  5
14F1
100
AcDbEntity
  8
DEFPOINTS
  6
BYBLOCK
 62
     0
100
AcDbPoint
 10
-1807.221673
 20
-1525.020768
 30
0.0
  0
POINT
  5
14F2
100
AcDbEntity
  8
DEFPOINTS
  6
BYBLOCK
 62
     0
100
AcDbPoint
 10
-1772.0838
 20
-1525.020768
 30
0.0
  0
ENDBLK
  5
14F3
100
AcDbEntity
  8
0
100
AcDbBlockEnd
  0
BLOCK
  5
15CE
100
AcDbEntity
  8
0
100
AcDbBlockBegin
  2
*D31
 70
    65
 10
0.0
 20
0.0
 30
0.0
  3
*D31
  1

  0
LINE
  5
15CF
100
AcDbEntity
  8
0
  6
BYBLOCK
 62
     0
100
AcDbLine
 10
-1797.721673
 20
-1504.645768
 30
0.0
 11
-1797.721673
 21
-1558.461991
 31
0.0
  0
LINE
  5
15D0
100
AcDbEntity
  8
0
  6
BYBLOCK
 62
     0
100
AcDbLine
 10
-1827.721673
 20
-1504.645768
 30
0.0
 11
-1827.721673
 21
-1558.461991
 31
0.0
  0
LINE
  5
15D1
100
AcDbEntity
  8
0
  6
BYBLOCK
 62
     0
100
AcDbLine
 10
-1800.221673
 20
-1557.211991
 30
0.0
 11
-1825.221673
 21
-1557.211991
 31
0.0
  0
SOLID
  5
15D2
100
AcDbEntity
  8
0
  6
BYBLOCK
 62
     0
100
AcDbTrace
 10
-1800.221673
 20
-1556.795324
 30
0.0
 11
-1800.221673
 21
-1557.628657
 31
0.0
 12
-1797.721673
 22
-1557.211991
 32
0.0
 13
-1797.721673
 23
-1557.211991
 33
0.0
  0
SOLID
  5
15D3
100
AcDbEntity
  8
0
  6
BYBLOCK
 62
     0
100
AcDbTrace
 10
-1825.221673
 20
-1556.795324
 30
0.0
 11
-1825.221673
 21
-1557.628657
 31
0.0
 12
-1827.721673
 22
-1557.211991
 32
0.0
 13
-1827.721673
 23
-1557.211991
 33
0.0
  0
MTEXT
  5
15D4
100
AcDbEntity
  8
0
  6
BYBLOCK
 62
     0
100
AcDbMText
 10
-1812.721673
 20
-1554.836991
 30
0.0
 40
3.5
 41
0.0
 71
     5
 72
     1
  1
\A2;30{\H2.800000;±0.01}
  0
POINT
  5
15D5
100
AcDbEntity
  8
DEFPOINTS
  6
BYBLOCK
 62
     0
100
AcDbPoint
 10
-1797.721673
 20
-1504.020768
 30
0.0
  0
POINT
  5
15D6
100
AcDbEntity
  8
DEFPOINTS
  6
BYBLOCK
 62
     0
100
AcDbPoint
 10
-1827.721673
 20
-1504.020768
 30
0.0
  0
POINT
  5
15D7
100
AcDbEntity
  8
DEFPOINTS
  6
BYBLOCK
 62
     0
100
AcDbPoint
 10
-1827.721673
 20
-1557.211991
 30
0.0
  0
ENDBLK
  5
15D8
100
AcDbEntity
  8
0
100
AcDbBlockEnd
  0
BLOCK
  5
172B
100
AcDbEntity
  8
0
100
AcDbBlockBegin
  2
*D32
 70
    65
 10
0.0
 20
0.0
 30
0.0
  3
*D32
  1

  0
LINE
  5
172C
100
AcDbEntity
  8
0
  6
BYBLOCK
 62
     0
100
AcDbLine
 10
-1566.664068
 20
-1448.895768
 30
0.0
 11
-1566.664068
 21
-1423.383524
 31
0.0
  0
LINE
  5
172D
100
AcDbEntity
  8
0
  6
BYBLOCK
 62
     0
100
AcDbLine
 10
-1582.237188
 20
-1448.895768
 30
0.0
 11
-1582.237188
 21
-1423.383524
 31
0.0
  0
LINE
  5
172E
100
AcDbEntity
  8
0
  6
BYBLOCK
 62
     0
100
AcDbLine
 10
-1569.164068
 20
-1424.633524
 30
0.0
 11
-1579.737188
 21
-1424.633524
 31
0.0
  0
LINE
  5
172F
100
AcDbEntity
  8
0
  6
BYBLOCK
 62
     0
100
AcDbLine
 10
-1582.237188
 20
-1424.633524
 30
0.0
 11
-1624.145429
 21
-1424.633524
 31
0.0
  0
SOLID
  5
1730
100
AcDbEntity
  8
0
  6
BYBLOCK
 62
     0
100
AcDbTrace
 10
-1569.164068
 20
-1424.216857
 30
0.0
 11
-1569.164068
 21
-1425.050191
 31
0.0
 12
-1566.664068
 22
-1424.633524
 32
0.0
 13
-1566.664068
 23
-1424.633524
 33
0.0
  0
SOLID
  5
1731
100
AcDbEntity
  8
0
  6
BYBLOCK
 62
     0
100
AcDbTrace
 10
-1579.737188
 20
-1424.216857
 30
0.0
 11
-1579.737188
 21
-1425.050191
 31
0.0
 12
-1582.237188
 22
-1424.633524
 32
0.0
 13
-1582.237188
 23
-1424.633524
 33
0.0
  0
MTEXT
  5
1732
100
AcDbEntity
  8
0
  6
BYBLOCK
 62
     0
100
AcDbMText
 10
-1614.549929
 20
-1420.880755
 30
0.0
 40
3.5
 41
0.0
 71
     5
 72
     1
  1
\A2;15.57{\H2.800000;\S-0.1^  0;}
  0
POINT
  5
1733
100
AcDbEntity
  8
DEFPOINTS
  6
BYBLOCK
 62
     0
100
AcDbPoint
 10
-1566.664068
 20
-1449.520768
 30
0.0
  0
POINT
  5
1734
100
AcDbEntity
  8
DEFPOINTS
  6
BYBLOCK
 62
     0
100
AcDbPoint
 10
-1582.237188
 20
-1449.520768
 30
0.0
  0
POINT
  5
1735
100
AcDbEntity
  8
DEFPOINTS
  6
BYBLOCK
 62
     0
100
AcDbPoint
 10
-1582.237188
 20
-1424.633524
 30
0.0
  0
ENDBLK
  5
1736
100
AcDbEntity
  8
0
100
AcDbBlockEnd
  0
BLOCK
  5
171D
100
AcDbEntity
  8
0
100
AcDbBlockBegin
  2
*D33
 70
    65
 10
0.0
 20
0.0
 30
0.0
  3
*D33
  1

  0
LINE
  5
171E
100
AcDbEntity
  8
0
  6
BYBLOCK
 62
     0
100
AcDbLine
 10
-1566.222126
 20
-1449.078826
 30
0.0
 11
-1546.54141
 21
-1429.39811
 31
0.0
  0
LINE
  5
171F
100
AcDbEntity
  8
0
  6
BYBLOCK
 62
     0
100
AcDbLine
 10
-1582.67913
 20
-1449.078826
 30
0.0
 11
-1602.359846
 21
-1429.39811
 31
0.0
  0
ARC
  5
1720
100
AcDbEntity
  8
0
  6
BYBLOCK
 62
     0
100
AcDbCircle
 10
-1574.450628
 20
-1457.307328
 30
0.0
 40
38.219594
100
AcDbArc
 50
48.74847
 51
131.25153
  0
SOLID
  5
1721
100
AcDbEntity
  8
0
  6
BYBLOCK
 62
     0
100
AcDbTrace
 10
-1548.965097
 20
-1428.268882
 30
0.0
 11
-1549.534765
 21
-1428.877095
 31
0.0
 12
-1547.425294
 22
-1430.281993
 32
0.0
 13
-1547.425294
 23
-1430.281993
 33
0.0
  0
SOLID
  5
1722
100
AcDbEntity
  8
0
  6
BYBLOCK
 62
     0
100
AcDbTrace
 10
-1599.366491
 20
-1428.877095
 30
0.0
 11
-1599.936159
 21
-1428.268882
 31
0.0
 12
-1601.475962
 22
-1430.281993
 32
0.0
 13
-1601.475962
 23
-1430.281993
 33
0.0
  0
MTEXT
  5
1723
100
AcDbEntity
  8
0
  6
BYBLOCK
 62
     0
100
AcDbMText
 10
-1574.450628
 20
-1416.712733
 30
0.0
 40
3.5
 41
0.0
 71
     5
 72
     1
  1
\A1;90°
  0
POINT
  5
1724
100
AcDbEntity
  8
DEFPOINTS
  6
BYBLOCK
 62
     0
100
AcDbPoint
 10
-1584.342587
 20
-1420.390035
 30
0.0
  0
POINT
  5
1725
100
AcDbEntity
  8
DEFPOINTS
  6
BYBLOCK
 62
     0
100
AcDbPoint
 10
-1566.664068
 20
-1449.520768
 30
0.0
  0
POINT
  5
1726
100
AcDbEntity
  8
DEFPOINTS
  6
BYBLOCK
 62
     0
100
AcDbPoint
 10
-1582.237188
 20
-1449.520768
 30
0.0
  0
POINT
  5
1727
100
AcDbEntity
  8
DEFPOINTS
  6
BYBLOCK
 62
     0
100
AcDbPoint
 10
-1575.016313
 20
-1456.741642
 30
0.0
  0
POINT
  5
1728
100
AcDbEntity
  8
DEFPOINTS
  6
BYBLOCK
 62
     0
100
AcDbPoint
 10
-1573.884942
 20
-1456.741642
 30
0.0
  0
ENDBLK
  5
1729
100
AcDbEntity
  8
0
100
AcDbBlockEnd
  0
BLOCK
  5
1754
100
AcDbEntity
  8
0
100
AcDbBlockBegin
  2
*D34
 70
    65
 10
0.0
 20
0.0
 30
0.0
  3
*D34
  1

  0
LINE
  5
1755
100
AcDbEntity
  8
0
  6
BYBLOCK
 62
     0
100
AcDbLine
 10
-1559.200628
 20
-1504.395768
 30
0.0
 11
-1559.200628
 21
-1561.4618
 31
0.0
  0
LINE
  5
1756
100
AcDbEntity
  8
0
  6
BYBLOCK
 62
     0
100
AcDbLine
 10
-1589.700628
 20
-1504.395768
 30
0.0
 11
-1589.700628
 21
-1561.4618
 31
0.0
  0
LINE
  5
1757
100
AcDbEntity
  8
0
  6
BYBLOCK
 62
     0
100
AcDbLine
 10
-1561.700628
 20
-1560.2118
 30
0.0
 11
-1587.200628
 21
-1560.2118
 31
0.0
  0
SOLID
  5
1758
100
AcDbEntity
  8
0
  6
BYBLOCK
 62
     0
100
AcDbTrace
 10
-1561.700628
 20
-1559.795133
 30
0.0
 11
-1561.700628
 21
-1560.628466
 31
0.0
 12
-1559.200628
 22
-1560.2118
 32
0.0
 13
-1559.200628
 23
-1560.2118
 33
0.0
  0
SOLID
  5
1759
100
AcDbEntity
  8
0
  6
BYBLOCK
 62
     0
100
AcDbTrace
 10
-1587.200628
 20
-1559.795133
 30
0.0
 11
-1587.200628
 21
-1560.628466
 31
0.0
 12
-1589.700628
 22
-1560.2118
 32
0.0
 13
-1589.700628
 23
-1560.2118
 33
0.0
  0
MTEXT
  5
175A
100
AcDbEntity
  8
0
  6
BYBLOCK
 62
     0
100
AcDbMText
 10
-1574.450628
 20
-1556.459031
 30
0.0
 40
3.5
 41
0.0
 71
     5
 72
     1
  1
\A2;30.5{\H2.800000;\S+0.1^  0;}
  0
POINT
  5
175B
100
AcDbEntity
  8
DEFPOINTS
  6
BYBLOCK
 62
     0
100
AcDbPoint
 10
-1559.200628
 20
-1503.770768
 30
0.0
  0
POINT
  5
175C
100
AcDbEntity
  8
DEFPOINTS
  6
BYBLOCK
 62
     0
100
AcDbPoint
 10
-1589.700628
 20
-1503.770768
 30
0.0
  0
POINT
  5
175D
100
AcDbEntity
  8
DEFPOINTS
  6
BYBLOCK
 62
     0
100
AcDbPoint
 10
-1589.700628
 20
-1560.2118
 30
0.0
  0
ENDBLK
  5
175E
100
AcDbEntity
  8
0
100
AcDbBlockEnd
  0
BLOCK
  5
1782
100
AcDbEntity
  8
0
100
AcDbBlockBegin
  2
*X35
 70
    65
 10
0.0
 20
0.0
 30
0.0
  3
*X35
  1

  0
LINE
  5
1784
100
AcDbEntity
  8
0
 62
     0
100
AcDbLine
 10
-1577.462667
 20
-1454.343356
 30
0.0
 11
-1577.438634
 21
-1454.319322
 31
0.0
  0
LINE
  5
1785
100
AcDbEntity
  8
0
 62
     0
100
AcDbLine
 10
-1577.658226
 20
-1454.269507
 30
0.0
 11
-1577.573337
 21
-1454.184618
 31
0.0
  0
LINE
  5
1786
100
AcDbEntity
  8
0
 62
     0
100
AcDbLine
 10
-1577.854012
 20
-1454.195886
 30
0.0
 11
-1577.708041
 21
-1454.049914
 31
0.0
  0
LINE
  5
1787
100
AcDbEntity
  8
0
 62
     0
100
AcDbLine
 10
-1578.05019
 20
-1454.122655
 30
0.0
 11
-1577.842745
 21
-1453.915211
 31
0.0
  0
LINE
  5
1788
100
AcDbEntity
  8
0
 62
     0
100
AcDbLine
 10
-1578.246925
 20
-1454.049983
 30
0.0
 11
-1577.977449
 21
-1453.780507
 31
0.0
  0
LINE
  5
1789
100
AcDbEntity
  8
0
 62
     0
100
AcDbLine
 10
-1578.44439
 20
-1453.97804
 30
0.0
 11
-1578.112153
 21
-1453.645803
 31
0.0
  0
LINE
  5
178A
100
AcDbEntity
  8
0
 62
     0
100
AcDbLine
 10
-1578.642761
 20
-1453.907003
 30
0.0
 11
-1578.246857
 21
-1453.511099
 31
0.0
  0
LINE
  5
178B
100
AcDbEntity
  8
0
 62
     0
100
AcDbLine
 10
-1578.842222
 20
-1453.837056
 30
0.0
 11
-1578.38156
 21
-1453.376395
 31
0.0
  0
LINE
  5
178C
100
AcDbEntity
  8
0
 62
     0
100
AcDbLine
 10
-1579.042964
 20
-1453.768391
 30
0.0
 11
-1578.516264
 21
-1453.241691
 31
0.0
  0
LINE
  5
178D
100
AcDbEntity
  8
0
 62
     0
100
AcDbLine
 10
-1579.245191
 20
-1453.701211
 30
0.0
 11
-1578.650968
 21
-1453.106988
 31
0.0
  0
LINE
  5
178E
100
AcDbEntity
  8
0
 62
     0
100
AcDbLine
 10
-1579.449118
 20
-1453.63573
 30
0.0
 11
-1578.785672
 21
-1452.972284
 31
0.0
  0
LINE
  5
178F
100
AcDbEntity
  8
0
 62
     0
100
AcDbLine
 10
-1579.654973
 20
-1453.572178
 30
0.0
 11
-1578.920376
 21
-1452.83758
 31
0.0
  0
LINE
  5
1790
100
AcDbEntity
  8
0
 62
     0
100
AcDbLine
 10
-1579.863006
 20
-1453.510802
 30
0.0
 11
-1579.05508
 21
-1452.702876
 31
0.0
  0
LINE
  5
1791
100
AcDbEntity
  8
0
 62
     0
100
AcDbLine
 10
-1580.073482
 20
-1453.451871
 30
0.0
 11
-1579.189783
 21
-1452.568172
 31
0.0
  0
LINE
  5
1792
100
AcDbEntity
  8
0
 62
     0
100
AcDbLine
 10
-1580.286697
 20
-1453.395678
 30
0.0
 11
-1579.324487
 21
-1452.433468
 31
0.0
  0
LINE
  5
1793
100
AcDbEntity
  8
0
 62
     0
100
AcDbLine
 10
-1580.502971
 20
-1453.342545
 30
0.0
 11
-1579.459191
 21
-1452.298764
 31
0.0
  0
LINE
  5
1794
100
AcDbEntity
  8
0
 62
     0
100
AcDbLine
 10
-1580.722664
 20
-1453.292829
 30
0.0
 11
-1579.593895
 21
-1452.164061
 31
0.0
  0
LINE
  5
1795
100
AcDbEntity
  8
0
 62
     0
100
AcDbLine
 10
-1580.946174
 20
-1453.246932
 30
0.0
 11
-1579.728599
 21
-1452.029357
 31
0.0
  0
LINE
  5
1796
100
AcDbEntity
  8
0
 62
     0
100
AcDbLine
 10
-1581.173953
 20
-1453.205303
 30
0.0
 11
-1579.863303
 21
-1451.894653
 31
0.0
  0
LINE
  5
1797
100
AcDbEntity
  8
0
 62
     0
100
AcDbLine
 10
-1581.406515
 20
-1453.168457
 30
0.0
 11
-1579.998007
 21
-1451.759949
 31
0.0
  0
LINE
  5
1798
100
AcDbEntity
  8
0
 62
     0
100
AcDbLine
 10
-1581.64445
 20
-1453.136985
 30
0.0
 11
-1580.13271
 21
-1451.625245
 31
0.0
  0
LINE
  5
1799
100
AcDbEntity
  8
0
 62
     0
100
AcDbLine
 10
-1581.888446
 20
-1453.111573
 30
0.0
 11
-1580.267414
 21
-1451.490541
 31
0.0
  0
LINE
  5
179A
100
AcDbEntity
  8
0
 62
     0
100
AcDbLine
 10
-1582.13931
 20
-1453.093029
 30
0.0
 11
-1580.402118
 21
-1451.355838
 31
0.0
  0
LINE
  5
179B
100
AcDbEntity
  8
0
 62
     0
100
AcDbLine
 10
-1582.39777
 20
-1453.082081
 30
0.0
 11
-1580.536822
 21
-1451.221134
 31
0.0
  0
LINE
  5
179C
100
AcDbEntity
  8
0
 62
     0
100
AcDbLine
 10
-1582.663665
 20
-1453.078569
 30
0.0
 11
-1580.671526
 21
-1451.08643
 31
0.0
  0
LINE
  5
179D
100
AcDbEntity
  8
0
 62
     0
100
AcDbLine
 10
-1582.936437
 20
-1453.081933
 30
0.0
 11
-1580.80623
 21
-1450.951726
 31
0.0
  0
LINE
  5
179E
100
AcDbEntity
  8
0
 62
     0
100
AcDbLine
 10
-1583.215321
 20
-1453.09141
 30
0.0
 11
-1580.940933
 21
-1450.817022
 31
0.0
  0
LINE
  5
179F
100
AcDbEntity
  8
0
 62
     0
100
AcDbLine
 10
-1583.499347
 20
-1453.106028
 30
0.0
 11
-1581.075637
 21
-1450.682318
 31
0.0
  0
LINE
  5
17A0
100
AcDbEntity
  8
0
 62
     0
100
AcDbLine
 10
-1583.787348
 20
-1453.124622
 30
0.0
 11
-1581.210341
 21
-1450.547615
 31
0.0
  0
LINE
  5
17A1
100
AcDbEntity
  8
0
 62
     0
100
AcDbLine
 10
-1584.077997
 20
-1453.145863
 30
0.0
 11
-1581.345045
 21
-1450.412911
 31
0.0
  0
LINE
  5
17A2
100
AcDbEntity
  8
0
 62
     0
100
AcDbLine
 10
-1584.369853
 20
-1453.168311
 30
0.0
 11
-1581.479749
 21
-1450.278207
 31
0.0
  0
LINE
  5
17A3
100
AcDbEntity
  8
0
 62
     0
100
AcDbLine
 10
-1584.661424
 20
-1453.190474
 30
0.0
 11
-1581.614453
 21
-1450.143503
 31
0.0
  0
LINE
  5
17A4
100
AcDbEntity
  8
0
 62
     0
100
AcDbLine
 10
-1584.951238
 20
-1453.210881
 30
0.0
 11
-1581.749156
 21
-1450.008799
 31
0.0
  0
LINE
  5
17A5
100
AcDbEntity
  8
0
 62
     0
100
AcDbLine
 10
-1585.237909
 20
-1453.228144
 30
0.0
 11
-1581.88386
 21
-1449.874095
 31
0.0
  0
LINE
  5
17A6
100
AcDbEntity
  8
0
 62
     0
100
AcDbLine
 10
-1585.520189
 20
-1453.241016
 30
0.0
 11
-1582.018564
 21
-1449.739391
 31
0.0
  0
LINE
  5
17A7
100
AcDbEntity
  8
0
 62
     0
100
AcDbLine
 10
-1585.797014
 20
-1453.248433
 30
0.0
 11
-1582.153268
 21
-1449.604688
 31
0.0
  0
LINE
  5
17A8
100
AcDbEntity
  8
0
 62
     0
100
AcDbLine
 10
-1586.067519
 20
-1453.249531
 30
0.0
 11
-1582.338756
 21
-1449.520768
 31
0.0
  0
LINE
  5
17A9
100
AcDbEntity
  8
0
 62
     0
100
AcDbLine
 10
-1586.331319
 20
-1453.243924
 30
0.0
 11
-1582.608163
 21
-1449.520768
 31
0.0
  0
LINE
  5
17AA
100
AcDbEntity
  8
0
 62
     0
100
AcDbLine
 10
-1586.589092
 20
-1453.232289
 30
0.0
 11
-1582.877571
 21
-1449.520768
 31
0.0
  0
LINE
  5
17AB
100
AcDbEntity
  8
0
 62
     0
100
AcDbLine
 10
-1586.841627
 20
-1453.215416
 30
0.0
 11
-1583.146979
 21
-1449.520768
 31
0.0
  0
LINE
  5
17AC
100
AcDbEntity
  8
0
 62
     0
100
AcDbLine
 10
-1587.089601
 20
-1453.193983
 30
0.0
 11
-1583.416386
 21
-1449.520768
 31
0.0
  0
LINE
  5
17AD
100
AcDbEntity
  8
0
 62
     0
100
AcDbLine
 10
-1587.333604
 20
-1453.168578
 30
0.0
 11
-1583.685794
 21
-1449.520768
 31
0.0
  0
LINE
  5
17AE
100
AcDbEntity
  8
0
 62
     0
100
AcDbLine
 10
-1587.574155
 20
-1453.139721
 30
0.0
 11
-1583.955202
 21
-1449.520768
 31
0.0
  0
LINE
  5
17AF
100
AcDbEntity
  8
0
 62
     0
100
AcDbLine
 10
-1587.811718
 20
-1453.107876
 30
0.0
 11
-1584.224609
 21
-1449.520768
 31
0.0
  0
LINE
  5
17B0
100
AcDbEntity
  8
0
 62
     0
100
AcDbLine
 10
-1588.04671
 20
-1453.073461
 30
0.0
 11
-1584.494017
 21
-1449.520768
 31
0.0
  0
LINE
  5
17B1
100
AcDbEntity
  8
0
 62
     0
100
AcDbLine
 10
-1588.279514
 20
-1453.036857
 30
0.0
 11
-1584.763425
 21
-1449.520768
 31
0.0
  0
LINE
  5
17B2
100
AcDbEntity
  8
0
 62
     0
100
AcDbLine
 10
-1588.510482
 20
-1452.998417
 30
0.0
 11
-1585.032833
 21
-1449.520768
 31
0.0
  0
LINE
  5
17B3
100
AcDbEntity
  8
0
 62
     0
100
AcDbLine
 10
-1588.739943
 20
-1452.95847
 30
0.0
 11
-1585.30224
 21
-1449.520768
 31
0.0
  0
LINE
  5
17B4
100
AcDbEntity
  8
0
 62
     0
100
AcDbLine
 10
-1588.968206
 20
-1452.917326
 30
0.0
 11
-1585.571648
 21
-1449.520768
 31
0.0
  0
LINE
  5
17B5
100
AcDbEntity
  8
0
 62
     0
100
AcDbLine
 10
-1589.195569
 20
-1452.875281
 30
0.0
 11
-1585.841056
 21
-1449.520768
 31
0.0
  0
LINE
  5
17B6
100
AcDbEntity
  8
0
 62
     0
100
AcDbLine
 10
-1589.422315
 20
-1452.83262
 30
0.0
 11
-1586.110463
 21
-1449.520768
 31
0.0
  0
LINE
  5
17B7
100
AcDbEntity
  8
0
 62
     0
100
AcDbLine
 10
-1589.648725
 20
-1452.789622
 30
0.0
 11
-1586.379871
 21
-1449.520768
 31
0.0
  0
LINE
  5
17B8
100
AcDbEntity
  8
0
 62
     0
100
AcDbLine
 10
-1589.700628
 20
-1452.572117
 30
0.0
 11
-1586.649279
 21
-1449.520768
 31
0.0
  0
LINE
  5
17B9
100
AcDbEntity
  8
0
 62
     0
100
AcDbLine
 10
-1589.700628
 20
-1452.302709
 30
0.0
 11
-1586.918686
 21
-1449.520768
 31
0.0
  0
LINE
  5
17BA
100
AcDbEntity
  8
0
 62
     0
100
AcDbLine
 10
-1589.700628
 20
-1452.033302
 30
0.0
 11
-1587.188094
 21
-1449.520768
 31
0.0
  0
LINE
  5
17BB
100
AcDbEntity
  8
0
 62
     0
100
AcDbLine
 10
-1589.700628
 20
-1451.763894
 30
0.0
 11
-1587.457502
 21
-1449.520768
 31
0.0
  0
LINE
  5
17BC
100
AcDbEntity
  8
0
 62
     0
100
AcDbLine
 10
-1589.700628
 20
-1451.494486
 30
0.0
 11
-1587.726909
 21
-1449.520768
 31
0.0
  0
LINE
  5
17BD
100
AcDbEntity
  8
0
 62
     0
100
AcDbLine
 10
-1589.700628
 20
-1451.225079
 30
0.0
 11
-1587.996317
 21
-1449.520768
 31
0.0
  0
LINE
  5
17BE
100
AcDbEntity
  8
0
 62
     0
100
AcDbLine
 10
-1589.700628
 20
-1450.955671
 30
0.0
 11
-1588.265725
 21
-1449.520768
 31
0.0
  0
LINE
  5
17BF
100
AcDbEntity
  8
0
 62
     0
100
AcDbLine
 10
-1589.700628
 20
-1450.686263
 30
0.0
 11
-1588.535132
 21
-1449.520768
 31
0.0
  0
LINE
  5
17C0
100
AcDbEntity
  8
0
 62
     0
100
AcDbLine
 10
-1571.161874
 20
-1454.23894
 30
0.0
 11
-1566.443702
 21
-1449.520768
 31
0.0
  0
LINE
  5
17C1
100
AcDbEntity
  8
0
 62
     0
100
AcDbLine
 10
-1570.732149
 20
-1454.078622
 30
0.0
 11
-1566.174295
 21
-1449.520768
 31
0.0
  0
LINE
  5
17C2
100
AcDbEntity
  8
0
 62
     0
100
AcDbLine
 10
-1570.309122
 20
-1453.925002
 30
0.0
 11
-1565.904887
 21
-1449.520768
 31
0.0
  0
LINE
  5
17C3
100
AcDbEntity
  8
0
 62
     0
100
AcDbLine
 10
-1569.895785
 20
-1453.781074
 30
0.0
 11
-1565.635479
 21
-1449.520768
 31
0.0
  0
LINE
  5
17C4
100
AcDbEntity
  8
0
 62
     0
100
AcDbLine
 10
-1569.494408
 20
-1453.649104
 30
0.0
 11
-1565.366072
 21
-1449.520768
 31
0.0
  0
LINE
  5
17C5
100
AcDbEntity
  8
0
 62
     0
100
AcDbLine
 10
-1569.106504
 20
-1453.530608
 30
0.0
 11
-1565.096664
 21
-1449.520768
 31
0.0
  0
LINE
  5
17C6
100
AcDbEntity
  8
0
 62
     0
100
AcDbLine
 10
-1568.732906
 20
-1453.426418
 30
0.0
 11
-1564.827256
 21
-1449.520768
 31
0.0
  0
LINE
  5
17C7
100
AcDbEntity
  8
0
 62
     0
100
AcDbLine
 10
-1568.373888
 20
-1453.336807
 30
0.0
 11
-1564.557849
 21
-1449.520768
 31
0.0
  0
LINE
  5
17C8
100
AcDbEntity
  8
0
 62
     0
100
AcDbLine
 10
-1568.029306
 20
-1453.261633
 30
0.0
 11
-1564.288441
 21
-1449.520768
 31
0.0
  0
LINE
  5
17C9
100
AcDbEntity
  8
0
 62
     0
100
AcDbLine
 10
-1567.698727
 20
-1453.200462
 30
0.0
 11
-1564.019033
 21
-1449.520768
 31
0.0
  0
LINE
  5
17CA
100
AcDbEntity
  8
0
 62
     0
100
AcDbLine
 10
-1567.381537
 20
-1453.152679
 30
0.0
 11
-1563.749626
 21
-1449.520768
 31
0.0
  0
LINE
  5
17CB
100
AcDbEntity
  8
0
 62
     0
100
AcDbLine
 10
-1567.077019
 20
-1453.117568
 30
0.0
 11
-1563.480218
 21
-1449.520768
 31
0.0
  0
LINE
  5
17CC
100
AcDbEntity
  8
0
 62
     0
100
AcDbLine
 10
-1566.78441
 20
-1453.094367
 30
0.0
 11
-1563.21081
 21
-1449.520768
 31
0.0
  0
LINE
  5
17CD
100
AcDbEntity
  8
0
 62
     0
100
AcDbLine
 10
-1566.502695
 20
-1453.08206
 30
0.0
 11
-1562.941402
 21
-1449.520768
 31
0.0
  0
LINE
  5
17CE
100
AcDbEntity
  8
0
 62
     0
100
AcDbLine
 10
-1566.2298
 20
-1453.078573
 30
0.0
 11
-1562.671995
 21
-1449.520768
 31
0.0
  0
LINE
  5
17CF
100
AcDbEntity
  8
0
 62
     0
100
AcDbLine
 10
-1565.963778
 20
-1453.081958
 30
0.0
 11
-1562.402587
 21
-1449.520768
 31
0.0
  0
LINE
  5
17D0
100
AcDbEntity
  8
0
 62
     0
100
AcDbLine
 10
-1565.703086
 20
-1453.090675
 30
0.0
 11
-1562.133179
 21
-1449.520768
 31
0.0
  0
LINE
  5
17D1
100
AcDbEntity
  8
0
 62
     0
100
AcDbLine
 10
-1565.446461
 20
-1453.103457
 30
0.0
 11
-1561.863772
 21
-1449.520768
 31
0.0
  0
LINE
  5
17D2
100
AcDbEntity
  8
0
 62
     0
100
AcDbLine
 10
-1565.192823
 20
-1453.119226
 30
0.0
 11
-1561.594364
 21
-1449.520768
 31
0.0
  0
LINE
  5
17D3
100
AcDbEntity
  8
0
 62
     0
100
AcDbLine
 10
-1564.941219
 20
-1453.13703
 30
0.0
 11
-1561.324956
 21
-1449.520768
 31
0.0
  0
LINE
  5
17D4
100
AcDbEntity
  8
0
 62
     0
100
AcDbLine
 10
-1564.690778
 20
-1453.155997
 30
0.0
 11
-1561.055549
 21
-1449.520768
 31
0.0
  0
LINE
  5
17D5
100
AcDbEntity
  8
0
 62
     0
100
AcDbLine
 10
-1564.440674
 20
-1453.1753
 30
0.0
 11
-1560.786141
 21
-1449.520768
 31
0.0
  0
LINE
  5
17D6
100
AcDbEntity
  8
0
 62
     0
100
AcDbLine
 10
-1564.190095
 20
-1453.194129
 30
0.0
 11
-1560.516733
 21
-1449.520768
 31
0.0
  0
LINE
  5
17D7
100
AcDbEntity
  8
0
 62
     0
100
AcDbLine
 10
-1563.938216
 20
-1453.211658
 30
0.0
 11
-1560.247326
 21
-1449.520768
 31
0.0
  0
LINE
  5
17D8
100
AcDbEntity
  8
0
 62
     0
100
AcDbLine
 10
-1563.684167
 20
-1453.227016
 30
0.0
 11
-1560.089273
 21
-1449.632123
 31
0.0
  0
LINE
  5
17D9
100
AcDbEntity
  8
0
 62
     0
100
AcDbLine
 10
-1563.426996
 20
-1453.239254
 30
0.0
 11
-1559.954569
 21
-1449.766826
 31
0.0
  0
LINE
  5
17DA
100
AcDbEntity
  8
0
 62
     0
100
AcDbLine
 10
-1563.165631
 20
-1453.247296
 30
0.0
 11
-1559.819865
 21
-1449.90153
 31
0.0
  0
LINE
  5
17DB
100
AcDbEntity
  8
0
 62
     0
100
AcDbLine
 10
-1562.898812
 20
-1453.249884
 30
0.0
 11
-1559.685161
 21
-1450.036234
 31
0.0
  0
LINE
  5
17DC
100
AcDbEntity
  8
0
 62
     0
100
AcDbLine
 10
-1562.62516
 20
-1453.24564
 30
0.0
 11
-1559.550458
 21
-1450.170938
 31
0.0
  0
LINE
  5
17DD
100
AcDbEntity
  8
0
 62
     0
100
AcDbLine
 10
-1562.344161
 20
-1453.234049
 30
0.0
 11
-1559.415754
 21
-1450.305642
 31
0.0
  0
LINE
  5
17DE
100
AcDbEntity
  8
0
 62
     0
100
AcDbLine
 10
-1562.055827
 20
-1453.215123
 30
0.0
 11
-1559.28105
 21
-1450.440346
 31
0.0
  0
LINE
  5
17DF
100
AcDbEntity
  8
0
 62
     0
100
AcDbLine
 10
-1561.760272
 20
-1453.188975
 30
0.0
 11
-1559.200628
 21
-1450.629331
 31
0.0
  0
LINE
  5
17E0
100
AcDbEntity
  8
0
 62
     0
100
AcDbLine
 10
-1561.457727
 20
-1453.155838
 30
0.0
 11
-1559.200628
 21
-1450.898739
 31
0.0
  0
LINE
  5
17E1
100
AcDbEntity
  8
0
 62
     0
100
AcDbLine
 10
-1561.148559
 20
-1453.116078
 30
0.0
 11
-1559.200628
 21
-1451.168147
 31
0.0
  0
LINE
  5
17E2
100
AcDbEntity
  8
0
 62
     0
100
AcDbLine
 10
-1560.83329
 20
-1453.070217
 30
0.0
 11
-1559.200628
 21
-1451.437554
 31
0.0
  0
LINE
  5
17E3
100
AcDbEntity
  8
0
 62
     0
100
AcDbLine
 10
-1560.512601
 20
-1453.018936
 30
0.0
 11
-1559.200628
 21
-1451.706962
 31
0.0
  0
LINE
  5
17E4
100
AcDbEntity
  8
0
 62
     0
100
AcDbLine
 10
-1560.187336
 20
-1452.963078
 30
0.0
 11
-1559.200628
 21
-1451.97637
 31
0.0
  0
LINE
  5
17E5
100
AcDbEntity
  8
0
 62
     0
100
AcDbLine
 10
-1559.858489
 20
-1452.903639
 30
0.0
 11
-1559.200628
 21
-1452.245777
 31
0.0
  0
LINE
  5
17E6
100
AcDbEntity
  8
0
 62
     0
100
AcDbLine
 10
-1559.527184
 20
-1452.841741
 30
0.0
 11
-1559.200628
 21
-1452.515185
 31
0.0
  0
ENDBLK
  5
17E7
100
AcDbEntity
  8
0
100
AcDbBlockEnd
  0
BLOCK
  5
17F6
100
AcDbEntity
  8
0
100
AcDbBlockBegin
  2
*D36
 70
    65
 10
0.0
 20
0.0
 30
0.0
  3
*D36
  1

  0
LINE
  5
17F7
100
AcDbEntity
  8
0
  6
BYBLOCK
 62
     0
100
AcDbLine
 10
-1576.031854
 20
-1459.072459
 30
0.0
 11
-1581.887182
 21
-1469.798294
 31
0.0
  0
SOLID
  5
17F8
100
AcDbEntity
  8
0
  6
BYBLOCK
 62
     0
100
AcDbTrace
 10
-1576.397574
 20
-1458.872809
 30
0.0
 11
-1575.666134
 21
-1459.272109
 31
0.0
 12
-1574.833955
 22
-1456.878139
 32
0.0
 13
-1574.833955
 23
-1456.878139
 33
0.0
  0
MTEXT
  5
17F9
100
AcDbEntity
  8
0
  6
BYBLOCK
 62
     0
100
AcDbMText
 10
-1581.643071
 20
-1464.394533
 30
0.0
 40
3.5
 41
0.0
 71
     5
 72
     1
  1
\A1;R0.8
 11
0.479159
 21
0.877728
 31
0.0
  0
POINT
  5
17FA
100
AcDbEntity
  8
DEFPOINTS
  6
BYBLOCK
 62
     0
100
AcDbPoint
 10
-1574.833955
 20
-1456.878139
 30
0.0
  0
POINT
  5
17FB
100
AcDbEntity
  8
DEFPOINTS
  6
BYBLOCK
 62
     0
100
AcDbPoint
 10
-1574.450628
 20
-1456.175957
 30
0.0
  0
ENDBLK
  5
17FC
100
AcDbEntity
  8
0
100
AcDbBlockEnd
  0
BLOCK
  5
1830
100
AcDbEntity
  8
0
100
AcDbBlockBegin
  2
*D37
 70
    65
 10
0.0
 20
0.0
 30
0.0
  3
*D37
  1

  0
LINE
  5
1831
100
AcDbEntity
  8
0
  6
BYBLOCK
 62
     0
100
AcDbLine
 10
-1674.146911
 20
-1417.633116
 30
0.0
 11
-1691.135623
 21
-1417.633116
 31
0.0
  0
LINE
  5
1832
100
AcDbEntity
  8
0
  6
BYBLOCK
 62
     0
100
AcDbLine
 10
-1688.396911
 20
-1429.160265
 30
0.0
 11
-1691.135623
 21
-1429.160265
 31
0.0
  0
LINE
  5
1833
100
AcDbEntity
  8
0
  6
BYBLOCK
 62
     0
100
AcDbLine
 10
-1689.885623
 20
-1420.133116
 30
0.0
 11
-1689.885623
 21
-1426.660265
 31
0.0
  0
LINE
  5
1834
100
AcDbEntity
  8
0
  6
BYBLOCK
 62
     0
100
AcDbLine
 10
-1689.885623
 20
-1429.160265
 30
0.0
 11
-1689.885623
 21
-1450.081265
 31
0.0
  0
SOLID
  5
1835
100
AcDbEntity
  8
0
  6
BYBLOCK
 62
     0
100
AcDbTrace
 10
-1690.30229
 20
-1420.133116
 30
0.0
 11
-1689.468956
 21
-1420.133116
 31
0.0
 12
-1689.885623
 22
-1417.633116
 32
0.0
 13
-1689.885623
 23
-1417.633116
 33
0.0
  0
SOLID
  5
1836
100
AcDbEntity
  8
0
  6
BYBLOCK
 62
     0
100
AcDbTrace
 10
-1690.30229
 20
-1426.660265
 30
0.0
 11
-1689.468956
 21
-1426.660265
 31
0.0
 12
-1689.885623
 22
-1429.160265
 32
0.0
 13
-1689.885623
 23
-1429.160265
 33
0.0
  0
MTEXT
  5
1837
100
AcDbEntity
  8
0
  6
BYBLOCK
 62
     0
100
AcDbMText
 10
-1693.638392
 20
-1440.870765
 30
0.0
 40
3.5
 41
0.0
 71
     5
 72
     1
  1
\A2;11.53{\H2.800000;\S+0.1^  0;}
 11
0.0
 21
1.0
 31
0.0
  0
POINT
  5
1838
100
AcDbEntity
  8
DEFPOINTS
  6
BYBLOCK
 62
     0
100
AcDbPoint
 10
-1673.521911
 20
-1417.633116
 30
0.0
  0
POINT
  5
1839
100
AcDbEntity
  8
DEFPOINTS
  6
BYBLOCK
 62
     0
100
AcDbPoint
 10
-1687.771911
 20
-1429.160265
 30
0.0
  0
POINT
  5
183A
100
AcDbEntity
  8
DEFPOINTS
  6
BYBLOCK
 62
     0
100
AcDbPoint
 10
-1689.885623
 20
-1429.160265
 30
0.0
  0
ENDBLK
  5
183B
100
AcDbEntity
  8
0
100
AcDbBlockEnd
  0
BLOCK
  5
1857
100
AcDbEntity
  8
0
100
AcDbBlockBegin
  2
*D38
 70
    65
 10
0.0
 20
0.0
 30
0.0
  3
*D38
  1

  0
LINE
  5
1858
100
AcDbEntity
  8
0
  6
BYBLOCK
 62
     0
100
AcDbLine
 10
-1681.171476
 20
-1432.825762
 30
0.0
 11
-1682.992801
 21
-1434.538297
 31
0.0
  0
LINE
  5
1859
100
AcDbEntity
  8
0
  6
BYBLOCK
 62
     0
100
AcDbLine
 10
-1665.872346
 20
-1418.44047
 30
0.0
 11
-1664.051021
 21
-1416.727935
 31
0.0
  0
SOLID
  5
185A
100
AcDbEntity
  8
0
  6
BYBLOCK
 62
     0
100
AcDbTrace
 10
-1681.456898
 20
-1432.522208
 30
0.0
 11
-1680.886053
 21
-1433.129316
 31
0.0
 12
-1679.350151
 22
-1431.113227
 32
0.0
 13
-1679.350151
 23
-1431.113227
 33
0.0
  0
SOLID
  5
185B
100
AcDbEntity
  8
0
  6
BYBLOCK
 62
     0
100
AcDbTrace
 10
-1666.157768
 20
-1418.136916
 30
0.0
 11
-1665.586923
 21
-1418.744024
 31
0.0
 12
-1667.693671
 22
-1420.153005
 32
0.0
 13
-1667.693671
 23
-1420.153005
 33
0.0
  0
MTEXT
  5
185C
100
AcDbEntity
  8
0
  6
BYBLOCK
 62
     0
100
AcDbMText
 10
-1675.148819
 20
-1423.902857
 30
0.0
 40
3.5
 41
0.0
 71
     5
 72
     1
  1
\A1;{\U+220516h7}
 11
0.72853
 21
0.685014
 31
0.0
  0
POINT
  5
185D
100
AcDbEntity
  8
DEFPOINTS
  6
BYBLOCK
 62
     0
100
AcDbPoint
 10
-1667.693671
 20
-1420.153005
 30
0.0
  0
POINT
  5
185E
100
AcDbEntity
  8
DEFPOINTS
  6
BYBLOCK
 62
     0
100
AcDbPoint
 10
-1679.350151
 20
-1431.113227
 30
0.0
  0
ENDBLK
  5
185F
100
AcDbEntity
  8
0
100
AcDbBlockEnd
  0
BLOCK
  5
188B
100
AcDbEntity
  8
0
100
AcDbBlockBegin
  2
*D39
 70
    65
 10
0.0
 20
0.0
 30
0.0
  3
*D39
  1

  0
LINE
  5
188C
100
AcDbEntity
  8
0
  6
BYBLOCK
 62
     0
100
AcDbLine
 10
-1804.287512
 20
-1449.57118
 30
0.0
 11
-1785.808402
 21
-1430.435502
 31
0.0
  0
LINE
  5
188D
100
AcDbEntity
  8
0
  6
BYBLOCK
 62
     0
100
AcDbLine
 10
-1821.155835
 20
-1449.57118
 30
0.0
 11
-1839.634945
 21
-1430.435502
 31
0.0
  0
ARC
  5
188E
100
AcDbEntity
  8
0
  6
BYBLOCK
 62
     0
100
AcDbCircle
 10
-1812.721673
 20
-1458.30501
 30
0.0
 40
37.493176
100
AcDbArc
 50
49.821122
 51
130.178878
  0
SOLID
  5
188F
100
AcDbEntity
  8
0
  6
BYBLOCK
 62
     0
100
AcDbTrace
 10
-1788.252686
 20
-1429.349744
 30
0.0
 11
-1788.811261
 21
-1429.96816
 31
0.0
 12
-1786.676725
 22
-1431.334677
 32
0.0
 13
-1786.676725
 23
-1431.334677
 33
0.0
  0
SOLID
  5
1890
100
AcDbEntity
  8
0
  6
BYBLOCK
 62
     0
100
AcDbTrace
 10
-1836.632086
 20
-1429.96816
 30
0.0
 11
-1837.190661
 21
-1429.349744
 31
0.0
 12
-1838.766622
 22
-1431.334677
 32
0.0
 13
-1838.766622
 23
-1431.334677
 33
0.0
  0
MTEXT
  5
1891
100
AcDbEntity
  8
0
  6
BYBLOCK
 62
     0
100
AcDbMText
 10
-1812.721673
 20
-1418.436834
 30
0.0
 40
3.5
 41
0.0
 71
     5
 72
     1
  1
\A2;88°{\H2.800000;±0°5'}
  0
POINT
  5
1892
100
AcDbEntity
  8
DEFPOINTS
  6
BYBLOCK
 62
     0
100
AcDbPoint
 10
-1822.214764
 20
-1422.033541
 30
0.0
  0
POINT
  5
1893
100
AcDbEntity
  8
DEFPOINTS
  6
BYBLOCK
 62
     0
100
AcDbPoint
 10
-1804.721673
 20
-1450.020768
 30
0.0
  0
POINT
  5
1894
100
AcDbEntity
  8
DEFPOINTS
  6
BYBLOCK
 62
     0
100
AcDbPoint
 10
-1820.721673
 20
-1450.020768
 30
0.0
  0
POINT
  5
1895
100
AcDbEntity
  8
DEFPOINTS
  6
BYBLOCK
 62
     0
100
AcDbPoint
 10
-1813.297145
 20
-1457.709092
 30
0.0
  0
POINT
  5
1896
100
AcDbEntity
  8
DEFPOINTS
  6
BYBLOCK
 62
     0
100
AcDbPoint
 10
-1812.146201
 20
-1457.709092
 30
0.0
  0
ENDBLK
  5
1897
100
AcDbEntity
  8
0
100
AcDbBlockEnd
  0
BLOCK
  5
18AB
100
AcDbEntity
  8
0
100
AcDbBlockBegin
  2
*D40
 70
    65
 10
0.0
 20
0.0
 30
0.0
  3
*D40
  1

  0
LINE
  5
18AC
100
AcDbEntity
  8
0
  6
BYBLOCK
 62
     0
100
AcDbLine
 10
-1818.333594
 20
-1448.894805
 30
0.0
 11
-1805.08897
 21
-1436.10462
 31
0.0
  0
SOLID
  5
18AD
100
AcDbEntity
  8
0
  6
BYBLOCK
 62
     0
100
AcDbTrace
 10
-1818.623035
 20
-1448.59508
 30
0.0
 11
-1818.044153
 21
-1449.19453
 31
0.0
 12
-1820.131943
 22
-1450.631451
 32
0.0
 13
-1820.131943
 23
-1450.631451
 33
0.0
  0
MTEXT
  5
18AE
100
AcDbEntity
  8
0
  6
BYBLOCK
 62
     0
100
AcDbMText
 10
-1812.46216
 20
-1439.92271
 30
0.0
 40
3.5
 41
0.0
 71
     5
 72
     1
  1
\A2;R2{\H2.800000;±0.02}
 11
0.71934
 21
0.694658
 31
0.0
  0
POINT
  5
18AF
100
AcDbEntity
  8
DEFPOINTS
  6
BYBLOCK
 62
     0
100
AcDbPoint
 10
-1820.131943
 20
-1450.631451
 30
0.0
  0
POINT
  5
18B0
100
AcDbEntity
  8
DEFPOINTS
  6
BYBLOCK
 62
     0
100
AcDbPoint
 10
-1821.570623
 20
-1452.020768
 30
0.0
  0
ENDBLK
  5
18B1
100
AcDbEntity
  8
0
100
AcDbBlockEnd
  0
BLOCK
  5
18D6
100
AcDbEntity
  8
0
100
AcDbBlockBegin
  2
*X41
 70
    65
 10
0.0
 20
0.0
 30
0.0
  3
*X41
  1

  0
LINE
  5
18D8
100
AcDbEntity
  8
0
 62
     0
100
AcDbLine
 10
-1815.694181
 20
-1456.304331
 30
0.0
 11
-1815.164863
 21
-1455.775013
 31
0.0
  0
LINE
  5
18D9
100
AcDbEntity
  8
0
 62
     0
100
AcDbLine
 10
-1815.958502
 20
-1456.299244
 30
0.0
 11
-1815.297216
 21
-1455.637958
 31
0.0
  0
LINE
  5
18DA
100
AcDbEntity
  8
0
 62
     0
100
AcDbLine
 10
-1816.219512
 20
-1456.290847
 30
0.0
 11
-1815.429568
 21
-1455.500903
 31
0.0
  0
LINE
  5
18DB
100
AcDbEntity
  8
0
 62
     0
100
AcDbLine
 10
-1816.476719
 20
-1456.278646
 30
0.0
 11
-1815.561921
 21
-1455.363848
 31
0.0
  0
LINE
  5
18DC
100
AcDbEntity
  8
0
 62
     0
100
AcDbLine
 10
-1816.729673
 20
-1456.262192
 30
0.0
 11
-1815.694273
 21
-1455.226793
 31
0.0
  0
LINE
  5
18DD
100
AcDbEntity
  8
0
 62
     0
100
AcDbLine
 10
-1816.977966
 20
-1456.241078
 30
0.0
 11
-1815.826626
 21
-1455.089738
 31
0.0
  0
LINE
  5
18DE
100
AcDbEntity
  8
0
 62
     0
100
AcDbLine
 10
-1817.221237
 20
-1456.214941
 30
0.0
 11
-1815.958979
 21
-1454.952682
 31
0.0
  0
LINE
  5
18DF
100
AcDbEntity
  8
0
 62
     0
100
AcDbLine
 10
-1817.459171
 20
-1456.183467
 30
0.0
 11
-1816.091331
 21
-1454.815627
 31
0.0
  0
LINE
  5
18E0
100
AcDbEntity
  8
0
 62
     0
100
AcDbLine
 10
-1817.691495
 20
-1456.146384
 30
0.0
 11
-1816.223684
 21
-1454.678572
 31
0.0
  0
LINE
  5
18E1
100
AcDbEntity
  8
0
 62
     0
100
AcDbLine
 10
-1817.917984
 20
-1456.103465
 30
0.0
 11
-1816.356036
 21
-1454.541517
 31
0.0
  0
LINE
  5
18E2
100
AcDbEntity
  8
0
 62
     0
100
AcDbLine
 10
-1818.138451
 20
-1456.054524
 30
0.0
 11
-1816.488389
 21
-1454.404462
 31
0.0
  0
LINE
  5
18E3
100
AcDbEntity
  8
0
 62
     0
100
AcDbLine
 10
-1818.35275
 20
-1455.999416
 30
0.0
 11
-1816.620741
 21
-1454.267407
 31
0.0
  0
LINE
  5
18E4
100
AcDbEntity
  8
0
 62
     0
100
AcDbLine
 10
-1818.560773
 20
-1455.938031
 30
0.0
 11
-1816.753094
 21
-1454.130352
 31
0.0
  0
LINE
  5
18E5
100
AcDbEntity
  8
0
 62
     0
100
AcDbLine
 10
-1818.762445
 20
-1455.870295
 30
0.0
 11
-1816.885447
 21
-1453.993297
 31
0.0
  0
LINE
  5
18E6
100
AcDbEntity
  8
0
 62
     0
100
AcDbLine
 10
-1818.957719
 20
-1455.796162
 30
0.0
 11
-1817.017799
 21
-1453.856242
 31
0.0
  0
LINE
  5
18E7
100
AcDbEntity
  8
0
 62
     0
100
AcDbLine
 10
-1819.14658
 20
-1455.715615
 30
0.0
 11
-1817.150152
 21
-1453.719186
 31
0.0
  0
LINE
  5
18E8
100
AcDbEntity
  8
0
 62
     0
100
AcDbLine
 10
-1819.329033
 20
-1455.628661
 30
0.0
 11
-1817.282504
 21
-1453.582131
 31
0.0
  0
LINE
  5
18E9
100
AcDbEntity
  8
0
 62
     0
100
AcDbLine
 10
-1819.505109
 20
-1455.535328
 30
0.0
 11
-1817.414857
 21
-1453.445076
 31
0.0
  0
LINE
  5
18EA
100
AcDbEntity
  8
0
 62
     0
100
AcDbLine
 10
-1819.674853
 20
-1455.435665
 30
0.0
 11
-1817.547209
 21
-1453.308021
 31
0.0
  0
LINE
  5
18EB
100
AcDbEntity
  8
0
 62
     0
100
AcDbLine
 10
-1819.838329
 20
-1455.329733
 30
0.0
 11
-1817.679562
 21
-1453.170966
 31
0.0
  0
LINE
  5
18EC
100
AcDbEntity
  8
0
 62
     0
100
AcDbLine
 10
-1819.995697
 20
-1455.217694
 30
0.0
 11
-1817.811915
 21
-1453.033911
 31
0.0
  0
LINE
  5
18ED
100
AcDbEntity
  8
0
 62
     0
100
AcDbLine
 10
-1820.147738
 20
-1455.100327
 30
0.0
 11
-1817.944267
 21
-1452.896856
 31
0.0
  0
LINE
  5
18EE
100
AcDbEntity
  8
0
 62
     0
100
AcDbLine
 10
-1820.295428
 20
-1454.978609
 30
0.0
 11
-1818.07662
 21
-1452.759801
 31
0.0
  0
LINE
  5
18EF
100
AcDbEntity
  8
0
 62
     0
100
AcDbLine
 10
-1820.439642
 20
-1454.853415
 30
0.0
 11
-1818.208972
 21
-1452.622746
 31
0.0
  0
LINE
  5
18F0
100
AcDbEntity
  8
0
 62
     0
100
AcDbLine
 10
-1820.581178
 20
-1454.725543
 30
0.0
 11
-1818.341325
 21
-1452.485691
 31
0.0
  0
LINE
  5
18F1
100
AcDbEntity
  8
0
 62
     0
100
AcDbLine
 10
-1820.720781
 20
-1454.595738
 30
0.0
 11
-1818.473677
 21
-1452.348635
 31
0.0
  0
LINE
  5
18F2
100
AcDbEntity
  8
0
 62
     0
100
AcDbLine
 10
-1820.859159
 20
-1454.46471
 30
0.0
 11
-1818.60603
 21
-1452.21158
 31
0.0
  0
LINE
  5
18F3
100
AcDbEntity
  8
0
 62
     0
100
AcDbLine
 10
-1820.997003
 20
-1454.333146
 30
0.0
 11
-1818.738383
 21
-1452.074525
 31
0.0
  0
LINE
  5
18F4
100
AcDbEntity
  8
0
 62
     0
100
AcDbLine
 10
-1821.134996
 20
-1454.201731
 30
0.0
 11
-1818.870735
 21
-1451.93747
 31
0.0
  0
LINE
  5
18F5
100
AcDbEntity
  8
0
 62
     0
100
AcDbLine
 10
-1821.273834
 20
-1454.071161
 30
0.0
 11
-1819.003088
 21
-1451.800415
 31
0.0
  0
LINE
  5
18F6
100
AcDbEntity
  8
0
 62
     0
100
AcDbLine
 10
-1821.414236
 20
-1453.942156
 30
0.0
 11
-1819.13544
 21
-1451.66336
 31
0.0
  0
LINE
  5
18F7
100
AcDbEntity
  8
0
 62
     0
100
AcDbLine
 10
-1821.556968
 20
-1453.81548
 30
0.0
 11
-1819.267793
 21
-1451.526305
 31
0.0
  0
LINE
  5
18F8
100
AcDbEntity
  8
0
 62
     0
100
AcDbLine
 10
-1821.702856
 20
-1453.69196
 30
0.0
 11
-1819.400146
 21
-1451.38925
 31
0.0
  0
LINE
  5
18F9
100
AcDbEntity
  8
0
 62
     0
100
AcDbLine
 10
-1821.852816
 20
-1453.572512
 30
0.0
 11
-1819.532498
 21
-1451.252195
 31
0.0
  0
LINE
  5
18FA
100
AcDbEntity
  8
0
 62
     0
100
AcDbLine
 10
-1822.007886
 20
-1453.458174
 30
0.0
 11
-1819.664851
 21
-1451.115139
 31
0.0
  0
LINE
  5
18FB
100
AcDbEntity
  8
0
 62
     0
100
AcDbLine
 10
-1822.169265
 20
-1453.350146
 30
0.0
 11
-1819.797203
 21
-1450.978084
 31
0.0
  0
LINE
  5
18FC
100
AcDbEntity
  8
0
 62
     0
100
AcDbLine
 10
-1822.338375
 20
-1453.249849
 30
0.0
 11
-1819.929556
 21
-1450.841029
 31
0.0
  0
LINE
  5
18FD
100
AcDbEntity
  8
0
 62
     0
100
AcDbLine
 10
-1822.516499
 20
-1453.158564
 30
0.0
 11
-1820.061908
 21
-1450.703974
 31
0.0
  0
LINE
  5
18FE
100
AcDbEntity
  8
0
 62
     0
100
AcDbLine
 10
-1822.704152
 20
-1453.07681
 30
0.0
 11
-1820.195683
 21
-1450.568342
 31
0.0
  0
LINE
  5
18FF
100
AcDbEntity
  8
0
 62
     0
100
AcDbLine
 10
-1822.90174
 20
-1453.004991
 30
0.0
 11
-1820.340533
 21
-1450.443783
 31
0.0
  0
LINE
  5
1900
100
AcDbEntity
  8
0
 62
     0
100
AcDbLine
 10
-1823.109661
 20
-1452.943504
 30
0.0
 11
-1820.498541
 21
-1450.332384
 31
0.0
  0
LINE
  5
1901
100
AcDbEntity
  8
0
 62
     0
100
AcDbLine
 10
-1823.328297
 20
-1452.892732
 30
0.0
 11
-1820.670392
 21
-1450.234827
 31
0.0
  0
LINE
  5
1902
100
AcDbEntity
  8
0
 62
     0
100
AcDbLine
 10
-1823.558
 20
-1452.853027
 30
0.0
 11
-1820.85728
 21
-1450.152308
 31
0.0
  0
LINE
  5
1903
100
AcDbEntity
  8
0
 62
     0
100
AcDbLine
 10
-1823.799081
 20
-1452.8247
 30
0.0
 11
-1821.061132
 21
-1450.086751
 31
0.0
  0
LINE
  5
1904
100
AcDbEntity
  8
0
 62
     0
100
AcDbLine
 10
-1824.051787
 20
-1452.807999
 30
0.0
 11
-1821.285049
 21
-1450.041261
 31
0.0
  0
LINE
  5
1905
100
AcDbEntity
  8
0
 62
     0
100
AcDbLine
 10
-1824.31628
 20
-1452.803085
 30
0.0
 11
-1821.534293
 21
-1450.021098
 31
0.0
  0
LINE
  5
1906
100
AcDbEntity
  8
0
 62
     0
100
AcDbLine
 10
-1824.592611
 20
-1452.810008
 30
0.0
 11
-1821.803371
 21
-1450.020768
 31
0.0
  0
LINE
  5
1907
100
AcDbEntity
  8
0
 62
     0
100
AcDbLine
 10
-1824.880689
 20
-1452.828678
 30
0.0
 11
-1822.072779
 21
-1450.020768
 31
0.0
  0
LINE
  5
1908
100
AcDbEntity
  8
0
 62
     0
100
AcDbLine
 10
-1825.180251
 20
-1452.858832
 30
0.0
 11
-1822.342186
 21
-1450.020768
 31
0.0
  0
LINE
  5
1909
100
AcDbEntity
  8
0
 62
     0
100
AcDbLine
 10
-1825.49083
 20
-1452.900003
 30
0.0
 11
-1822.611594
 21
-1450.020768
 31
0.0
  0
LINE
  5
190A
100
AcDbEntity
  8
0
 62
     0
100
AcDbLine
 10
-1825.811727
 20
-1452.951493
 30
0.0
 11
-1822.881002
 21
-1450.020768
 31
0.0
  0
LINE
  5
190B
100
AcDbEntity
  8
0
 62
     0
100
AcDbLine
 10
-1826.141992
 20
-1453.01235
 30
0.0
 11
-1823.150409
 21
-1450.020768
 31
0.0
  0
LINE
  5
190C
100
AcDbEntity
  8
0
 62
     0
100
AcDbLine
 10
-1826.480412
 20
-1453.081363
 30
0.0
 11
-1823.419817
 21
-1450.020768
 31
0.0
  0
LINE
  5
190D
100
AcDbEntity
  8
0
 62
     0
100
AcDbLine
 10
-1826.825521
 20
-1453.157064
 30
0.0
 11
-1823.689225
 21
-1450.020768
 31
0.0
  0
LINE
  5
190E
100
AcDbEntity
  8
0
 62
     0
100
AcDbLine
 10
-1827.175621
 20
-1453.237756
 30
0.0
 11
-1823.958633
 21
-1450.020768
 31
0.0
  0
LINE
  5
190F
100
AcDbEntity
  8
0
 62
     0
100
AcDbLine
 10
-1827.528832
 20
-1453.32156
 30
0.0
 11
-1824.22804
 21
-1450.020768
 31
0.0
  0
LINE
  5
1910
100
AcDbEntity
  8
0
 62
     0
100
AcDbLine
 10
-1827.721673
 20
-1453.244993
 30
0.0
 11
-1824.497448
 21
-1450.020768
 31
0.0
  0
LINE
  5
1911
100
AcDbEntity
  8
0
 62
     0
100
AcDbLine
 10
-1827.721673
 20
-1452.975585
 30
0.0
 11
-1824.766856
 21
-1450.020768
 31
0.0
  0
LINE
  5
1912
100
AcDbEntity
  8
0
 62
     0
100
AcDbLine
 10
-1827.721673
 20
-1452.706178
 30
0.0
 11
-1825.036263
 21
-1450.020768
 31
0.0
  0
LINE
  5
1913
100
AcDbEntity
  8
0
 62
     0
100
AcDbLine
 10
-1827.721673
 20
-1452.43677
 30
0.0
 11
-1825.305671
 21
-1450.020768
 31
0.0
  0
LINE
  5
1914
100
AcDbEntity
  8
0
 62
     0
100
AcDbLine
 10
-1827.721673
 20
-1452.167362
 30
0.0
 11
-1825.575079
 21
-1450.020768
 31
0.0
  0
LINE
  5
1915
100
AcDbEntity
  8
0
 62
     0
100
AcDbLine
 10
-1827.721673
 20
-1451.897955
 30
0.0
 11
-1825.844486
 21
-1450.020768
 31
0.0
  0
LINE
  5
1916
100
AcDbEntity
  8
0
 62
     0
100
AcDbLine
 10
-1827.721673
 20
-1451.628547
 30
0.0
 11
-1826.113894
 21
-1450.020768
 31
0.0
  0
LINE
  5
1917
100
AcDbEntity
  8
0
 62
     0
100
AcDbLine
 10
-1827.721673
 20
-1451.359139
 30
0.0
 11
-1826.383302
 21
-1450.020768
 31
0.0
  0
LINE
  5
1918
100
AcDbEntity
  8
0
 62
     0
100
AcDbLine
 10
-1827.721673
 20
-1451.089732
 30
0.0
 11
-1826.652709
 21
-1450.020768
 31
0.0
  0
LINE
  5
1919
100
AcDbEntity
  8
0
 62
     0
100
AcDbLine
 10
-1815.427078
 20
-1456.306636
 30
0.0
 11
-1815.03251
 21
-1455.912068
 31
0.0
  0
LINE
  5
191A
100
AcDbEntity
  8
0
 62
     0
100
AcDbLine
 10
-1815.157755
 20
-1456.306721
 30
0.0
 11
-1814.900158
 21
-1456.049123
 31
0.0
  0
LINE
  5
191B
100
AcDbEntity
  8
0
 62
     0
100
AcDbLine
 10
-1814.886802
 20
-1456.305175
 30
0.0
 11
-1814.767805
 21
-1456.186178
 31
0.0
  0
LINE
  5
191C
100
AcDbEntity
  8
0
 62
     0
100
AcDbLine
 10
-1809.235958
 20
-1454.695446
 30
0.0
 11
-1804.777778
 21
-1450.237267
 31
0.0
  0
LINE
  5
191D
100
AcDbEntity
  8
0
 62
     0
100
AcDbLine
 10
-1810.569106
 20
-1456.298002
 30
0.0
 11
-1804.349542
 21
-1450.078438
 31
0.0
  0
LINE
  5
191E
100
AcDbEntity
  8
0
 62
     0
100
AcDbLine
 10
-1810.296952
 20
-1456.295255
 30
0.0
 11
-1804.028543
 21
-1450.026847
 31
0.0
  0
LINE
  5
191F
100
AcDbEntity
  8
0
 62
     0
100
AcDbLine
 10
-1810.023279
 20
-1456.29099
 30
0.0
 11
-1803.753056
 21
-1450.020768
 31
0.0
  0
LINE
  5
1920
100
AcDbEntity
  8
0
 62
     0
100
AcDbLine
 10
-1809.747431
 20
-1456.28455
 30
0.0
 11
-1803.483649
 21
-1450.020768
 31
0.0
  0
LINE
  5
1921
100
AcDbEntity
  8
0
 62
     0
100
AcDbLine
 10
-1809.468675
 20
-1456.275202
 30
0.0
 11
-1803.214241
 21
-1450.020768
 31
0.0
  0
LINE
  5
1922
100
AcDbEntity
  8
0
 62
     0
100
AcDbLine
 10
-1809.186167
 20
-1456.262101
 30
0.0
 11
-1802.944833
 21
-1450.020768
 31
0.0
  0
LINE
  5
1923
100
AcDbEntity
  8
0
 62
     0
100
AcDbLine
 10
-1808.898903
 20
-1456.244245
 30
0.0
 11
-1802.675426
 21
-1450.020768
 31
0.0
  0
LINE
  5
1924
100
AcDbEntity
  8
0
 62
     0
100
AcDbLine
 10
-1808.605651
 20
-1456.2204
 30
0.0
 11
-1802.406018
 21
-1450.020768
 31
0.0
  0
LINE
  5
1925
100
AcDbEntity
  8
0
 62
     0
100
AcDbLine
 10
-1808.30484
 20
-1456.188998
 30
0.0
 11
-1802.13661
 21
-1450.020768
 31
0.0
  0
LINE
  5
1926
100
AcDbEntity
  8
0
 62
     0
100
AcDbLine
 10
-1807.994391
 20
-1456.147957
 30
0.0
 11
-1801.867202
 21
-1450.020768
 31
0.0
  0
LINE
  5
1927
100
AcDbEntity
  8
0
 62
     0
100
AcDbLine
 10
-1807.671409
 20
-1456.094382
 30
0.0
 11
-1801.597795
 21
-1450.020768
 31
0.0
  0
LINE
  5
1928
100
AcDbEntity
  8
0
 62
     0
100
AcDbLine
 10
-1807.33161
 20
-1456.02399
 30
0.0
 11
-1801.328387
 21
-1450.020768
 31
0.0
  0
LINE
  5
1929
100
AcDbEntity
  8
0
 62
     0
100
AcDbLine
 10
-1806.9681
 20
-1455.929888
 30
0.0
 11
-1801.058979
 21
-1450.020768
 31
0.0
  0
LINE
  5
192A
100
AcDbEntity
  8
0
 62
     0
100
AcDbLine
 10
-1806.568322
 20
-1455.799518
 30
0.0
 11
-1800.789572
 21
-1450.020768
 31
0.0
  0
LINE
  5
192B
100
AcDbEntity
  8
0
 62
     0
100
AcDbLine
 10
-1806.103908
 20
-1455.604512
 30
0.0
 11
-1800.520164
 21
-1450.020768
 31
0.0
  0
LINE
  5
192C
100
AcDbEntity
  8
0
 62
     0
100
AcDbLine
 10
-1805.466842
 20
-1455.236853
 30
0.0
 11
-1800.250756
 21
-1450.020768
 31
0.0
  0
LINE
  5
192D
100
AcDbEntity
  8
0
 62
     0
100
AcDbLine
 10
-1804.679696
 20
-1454.719115
 30
0.0
 11
-1799.981349
 21
-1450.020768
 31
0.0
  0
LINE
  5
192E
100
AcDbEntity
  8
0
 62
     0
100
AcDbLine
 10
-1804.129325
 20
-1454.438152
 30
0.0
 11
-1799.711941
 21
-1450.020768
 31
0.0
  0
LINE
  5
192F
100
AcDbEntity
  8
0
 62
     0
100
AcDbLine
 10
-1803.663788
 20
-1454.242022
 30
0.0
 11
-1799.442533
 21
-1450.020768
 31
0.0
  0
LINE
  5
1930
100
AcDbEntity
  8
0
 62
     0
100
AcDbLine
 10
-1803.237935
 20
-1454.085577
 30
0.0
 11
-1799.173126
 21
-1450.020768
 31
0.0
  0
LINE
  5
1931
100
AcDbEntity
  8
0
 62
     0
100
AcDbLine
 10
-1802.835709
 20
-1453.952758
 30
0.0
 11
-1798.903718
 21
-1450.020768
 31
0.0
  0
LINE
  5
1932
100
AcDbEntity
  8
0
 62
     0
100
AcDbLine
 10
-1802.449439
 20
-1453.835897
 30
0.0
 11
-1798.677992
 21
-1450.064449
 31
0.0
  0
LINE
  5
1933
100
AcDbEntity
  8
0
 62
     0
100
AcDbLine
 10
-1802.074812
 20
-1453.730677
 30
0.0
 11
-1798.543288
 21
-1450.199153
 31
0.0
  0
LINE
  5
1934
100
AcDbEntity
  8
0
 62
     0
100
AcDbLine
 10
-1801.709132
 20
-1453.634404
 30
0.0
 11
-1798.408584
 21
-1450.333857
 31
0.0
  0
LINE
  5
1935
100
AcDbEntity
  8
0
 62
     0
100
AcDbLine
 10
-1801.350588
 20
-1453.545269
 30
0.0
 11
-1798.27388
 21
-1450.468561
 31
0.0
  0
LINE
  5
1936
100
AcDbEntity
  8
0
 62
     0
100
AcDbLine
 10
-1800.997902
 20
-1453.46199
 30
0.0
 11
-1798.139176
 21
-1450.603265
 31
0.0
  0
LINE
  5
1937
100
AcDbEntity
  8
0
 62
     0
100
AcDbLine
 10
-1800.650127
 20
-1453.383623
 30
0.0
 11
-1798.004473
 21
-1450.737968
 31
0.0
  0
LINE
  5
1938
100
AcDbEntity
  8
0
 62
     0
100
AcDbLine
 10
-1800.306547
 20
-1453.30945
 30
0.0
 11
-1797.869769
 21
-1450.872672
 31
0.0
  0
LINE
  5
1939
100
AcDbEntity
  8
0
 62
     0
100
AcDbLine
 10
-1799.966598
 20
-1453.238909
 30
0.0
 11
-1797.735065
 21
-1451.007376
 31
0.0
  0
LINE
  5
193A
100
AcDbEntity
  8
0
 62
     0
100
AcDbLine
 10
-1799.629834
 20
-1453.171552
 30
0.0
 11
-1797.721673
 21
-1451.263392
 31
0.0
  0
LINE
  5
193B
100
AcDbEntity
  8
0
 62
     0
100
AcDbLine
 10
-1799.295889
 20
-1453.107016
 30
0.0
 11
-1797.721673
 21
-1451.5328
 31
0.0
  0
LINE
  5
193C
100
AcDbEntity
  8
0
 62
     0
100
AcDbLine
 10
-1798.964464
 20
-1453.044998
 30
0.0
 11
-1797.721673
 21
-1451.802207
 31
0.0
  0
LINE
  5
193D
100
AcDbEntity
  8
0
 62
     0
100
AcDbLine
 10
-1798.635307
 20
-1452.985249
 30
0.0
 11
-1797.721673
 21
-1452.071615
 31
0.0
  0
LINE
  5
193E
100
AcDbEntity
  8
0
 62
     0
100
AcDbLine
 10
-1798.308205
 20
-1452.927555
 30
0.0
 11
-1797.721673
 21
-1452.341023
 31
0.0
  0
LINE
  5
193F
100
AcDbEntity
  8
0
 62
     0
100
AcDbLine
 10
-1797.982977
 20
-1452.871734
 30
0.0
 11
-1797.721673
 21
-1452.610431
 31
0.0
  0
ENDBLK
  5
1940
100
AcDbEntity
  8
0
100
AcDbBlockEnd
  0
BLOCK
  5
196E
100
AcDbEntity
  8
0
100
AcDbBlockBegin
  2
*D42
 70
    65
 10
0.0
 20
0.0
 30
0.0
  3
*D42
  1

  0
LINE
  5
196F
100
AcDbEntity
  8
0
  6
BYBLOCK
 62
     0
100
AcDbLine
 10
-1908.028736
 20
-1421.072673
 30
0.0
 11
-1929.374923
 21
-1421.072673
 31
0.0
  0
LINE
  5
1970
100
AcDbEntity
  8
0
  6
BYBLOCK
 62
     0
100
AcDbLine
 10
-1922.028736
 20
-1437.177986
 30
0.0
 11
-1929.374923
 21
-1437.177986
 31
0.0
  0
LINE
  5
1971
100
AcDbEntity
  8
0
  6
BYBLOCK
 62
     0
100
AcDbLine
 10
-1928.124923
 20
-1423.572673
 30
0.0
 11
-1928.124923
 21
-1434.677986
 31
0.0
  0
LINE
  5
1972
100
AcDbEntity
  8
0
  6
BYBLOCK
 62
     0
100
AcDbLine
 10
-1928.124923
 20
-1437.177986
 30
0.0
 11
-1928.124923
 21
-1458.560986
 31
0.0
  0
SOLID
  5
1973
100
AcDbEntity
  8
0
  6
BYBLOCK
 62
     0
100
AcDbTrace
 10
-1928.54159
 20
-1423.572673
 30
0.0
 11
-1927.708257
 21
-1423.572673
 31
0.0
 12
-1928.124923
 22
-1421.072673
 32
0.0
 13
-1928.124923
 23
-1421.072673
 33
0.0
  0
SOLID
  5
1974
100
AcDbEntity
  8
0
  6
BYBLOCK
 62
     0
100
AcDbTrace
 10
-1928.54159
 20
-1434.677986
 30
0.0
 11
-1927.708257
 21
-1434.677986
 31
0.0
 12
-1928.124923
 22
-1437.177986
 32
0.0
 13
-1928.124923
 23
-1437.177986
 33
0.0
  0
MTEXT
  5
1975
100
AcDbEntity
  8
0
  6
BYBLOCK
 62
     0
100
AcDbMText
 10
-1930.499923
 20
-1449.119486
 30
0.0
 40
3.5
 41
0.0
 71
     5
 72
     1
  1
\A2;16.11{\H2.800000;±0.01}
 11
0.0
 21
1.0
 31
0.0
  0
POINT
  5
1976
100
AcDbEntity
  8
DEFPOINTS
  6
BYBLOCK
 62
     0
100
AcDbPoint
 10
-1907.403736
 20
-1421.072673
 30
0.0
  0
POINT
  5
1977
100
AcDbEntity
  8
DEFPOINTS
  6
BYBLOCK
 62
     0
100
AcDbPoint
 10
-1921.403736
 20
-1437.177986
 30
0.0
  0
POINT
  5
1978
100
AcDbEntity
  8
DEFPOINTS
  6
BYBLOCK
 62
     0
100
AcDbPoint
 10
-1928.124923
 20
-1437.177986
 30
0.0
  0
ENDBLK
  5
1979
100
AcDbEntity
  8
0
100
AcDbBlockEnd
  0
BLOCK
  5
1994
100
AcDbEntity
  8
0
100
AcDbBlockBegin
  2
*D43
 70
    65
 10
0.0
 20
0.0
 30
0.0
  3
*D43
  1

  0
LINE
  5
1995
100
AcDbEntity
  8
0
  6
BYBLOCK
 62
     0
100
AcDbLine
 10
-1914.890863
 20
-1431.511912
 30
0.0
 11
-1899.916609
 21
-1430.633435
 31
0.0
  0
SOLID
  5
1996
100
AcDbEntity
  8
0
  6
BYBLOCK
 62
     0
100
AcDbTrace
 10
-1914.915265
 20
-1431.095961
 30
0.0
 11
-1914.86646
 21
-1431.927864
 31
0.0
 12
-1917.386572
 22
-1431.658325
 32
0.0
 13
-1917.386572
 23
-1431.658325
 33
0.0
  0
SOLID
  5
1997
100
AcDbEntity
  8
0
  6
BYBLOCK
 62
     0
100
AcDbTrace
 10
-1899.941011
 20
-1430.217483
 30
0.0
 11
-1899.892207
 21
-1431.049386
 31
0.0
 12
-1897.4209
 22
-1430.487022
 32
0.0
 13
-1897.4209
 23
-1430.487022
 33
0.0
  0
MTEXT
  5
1998
100
AcDbEntity
  8
0
  6
BYBLOCK
 62
     0
100
AcDbMText
 10
-1907.542828
 20
-1428.70175
 30
0.0
 40
3.5
 41
0.0
 71
     5
 72
     1
  1
\A1;{\U+220520h7}
 11
0.998284
 21
0.058565
 31
0.0
  0
POINT
  5
1999
100
AcDbEntity
  8
DEFPOINTS
  6
BYBLOCK
 62
     0
100
AcDbPoint
 10
-1897.4209
 20
-1430.487022
 30
0.0
  0
POINT
  5
199A
100
AcDbEntity
  8
DEFPOINTS
  6
BYBLOCK
 62
     0
100
AcDbPoint
 10
-1917.386572
 20
-1431.658325
 30
0.0
  0
ENDBLK
  5
199B
100
AcDbEntity
  8
0
100
AcDbBlockEnd
  0
ENDSEC
  0
SECTION
  2
ENTITIES
  0
LINE
  5
677
100
AcDbEntity
  8
DISEGNO
100
AcDbLine
 10
-1803.872724
 20
-1450.020768
 30
0.0
 11
-1798.721673
 21
-1450.020768
 31
0.0
1001
ACAD
1000
ASC_BOUNDS
1002
{
1070
    19
1005
0
1002
}
  0
LINE
  5
678
100
AcDbEntity
  8
DISEGNO
100
AcDbLine
 10
-1820.131943
 20
-1450.631451
 30
0.0
 11
-1813.297145
 21
-1457.709092
 31
0.0
1001
ACAD
1000
ASC_BOUNDS
1002
{
1070
    19
1005
0
1002
}
  0
LINE
  5
679
100
AcDbEntity
  8
DISEGNO
100
AcDbLine
 10
-1805.311403
 20
-1450.631451
 30
0.0
 11
-1812.146201
 21
-1457.709092
 31
0.0
1001
ACAD
1000
ASC_BOUNDS
1002
{
1070
    19
1005
0
1002
}
  0
LINE
  5
67A
100
AcDbEntity
  8
DISEGNO
100
AcDbLine
 10
-1826.721673
 20
-1450.020768
 30
0.0
 11
-1821.570623
 21
-1450.020768
 31
0.0
1001
ACAD
1000
ASC_BOUNDS
1002
{
1070
    19
1005
0
1002
}
  0
LINE
  5
67C
100
AcDbEntity
  8
DISEGNO
100
AcDbLine
 10
-1827.721673
 20
-1451.020768
 30
0.0
 11
-1827.721673
 21
-1495.520768
 31
0.0
1001
ACAD
1000
ASC_BOUNDS
1002
{
1070
    19
1002
}
  0
LINE
  5
67F
100
AcDbEntity
  8
DISEGNO
100
AcDbLine
 10
-1798.721673
 20
-1450.020768
 30
0.0
 11
-1797.721673
 21
-1451.020768
 31
0.0
1001
ACAD
1000
ASC_BOUNDS
1002
{
1070
    19
1005
0
1002
}
  0
LINE
  5
680
100
AcDbEntity
  8
DISEGNO
100
AcDbLine
 10
-1827.721673
 20
-1451.020768
 30
0.0
 11
-1826.721673
 21
-1450.020768
 31
0.0
1001
ACAD
1000
ASC_BOUNDS
1002
{
1070
    19
1005
0
1002
}
  0
LINE
  5
681
100
AcDbEntity
  8
DISEGNO
100
AcDbLine
 10
-1827.721673
 20
-1504.020768
 30
0.0
 11
-1826.721673
 21
-1505.020768
 31
0.0
  0
LINE
  5
682
100
AcDbEntity
  8
DISEGNO
100
AcDbLine
 10
-1798.721673
 20
-1505.020768
 30
0.0
 11
-1797.721673
 21
-1504.020768
 31
0.0
  0
LINE
  5
683
100
AcDbEntity
  8
DISEGNO
100
AcDbLine
 10
-1807.221673
 20
-1525.020768
 30
0.0
 11
-1806.221673
 21
-1524.020768
 31
0.0
  0
LINE
  5
684
100
AcDbEntity
  8
DISEGNO
100
AcDbLine
 10
-1819.221673
 20
-1524.020768
 30
0.0
 11
-1818.221673
 21
-1525.020768
 31
0.0
  0
LINE
  5
686
100
AcDbEntity
  8
DISEGNO
100
AcDbLine
 10
-1827.721673
 20
-1498.520768
 30
0.0
 11
-1827.721673
 21
-1504.020768
 31
0.0
  0
LINE
  5
687
100
AcDbEntity
  8
DISEGNO
100
AcDbLine
 10
-1827.721673
 20
-1498.520768
 30
0.0
 11
-1826.221673
 21
-1497.020768
 31
0.0
  0
LINE
  5
688
100
AcDbEntity
  8
DISEGNO
100
AcDbLine
 10
-1827.721673
 20
-1495.520768
 30
0.0
 11
-1826.221673
 21
-1497.020768
 31
0.0
  0
LINE
  5
68A
100
AcDbEntity
  8
DISEGNO
100
AcDbLine
 10
-1807.282333
 20
-1505.374321
 30
0.0
 11
-1805.86812
 21
-1503.960107
 31
0.0
  0
LINE
  5
68B
100
AcDbEntity
  8
DISEGNO
100
AcDbLine
 10
-1804.80746
 20
-1505.020768
 30
0.0
 11
-1805.86812
 21
-1503.960107
 31
0.0
  0
LINE
  5
68C
100
AcDbEntity
  8
DISEGNO
100
AcDbLine
 10
-1806.221673
 20
-1506.434981
 30
0.0
 11
-1807.282333
 21
-1505.374321
 31
0.0
  0
LINE
  5
68D
100
AcDbEntity
  8
DISEGNO
100
AcDbLine
 10
-1818.161013
 20
-1505.374321
 30
0.0
 11
-1819.575227
 21
-1503.960107
 31
0.0
  0
LINE
  5
68E
100
AcDbEntity
  8
DISEGNO
100
AcDbLine
 10
-1819.221673
 20
-1506.434981
 30
0.0
 11
-1818.161013
 21
-1505.374321
 31
0.0
  0
LINE
  5
68F
100
AcDbEntity
  8
DISEGNO
100
AcDbLine
 10
-1820.635887
 20
-1505.020768
 30
0.0
 11
-1819.575227
 21
-1503.960107
 31
0.0
  0
LINE
  5
691
100
AcDbEntity
  8
DISEGNO
100
AcDbLine
 10
-1819.221673
 20
-1506.434981
 30
0.0
 11
-1819.221673
 21
-1524.020768
 31
0.0
  0
LINE
  5
692
100
AcDbEntity
  8
DISEGNO
100
AcDbLine
 10
-1826.721673
 20
-1505.020768
 30
0.0
 11
-1820.635887
 21
-1505.020768
 31
0.0
  0
LINE
  5
694
100
AcDbEntity
  8
DISEGNO
100
AcDbLine
 10
-1797.721673
 20
-1504.020768
 30
0.0
 11
-1797.721673
 21
-1451.020768
 31
0.0
1001
ACAD
1000
ASC_BOUNDS
1002
{
1070
    19
1002
}
  0
LINE
  5
695
100
AcDbEntity
  8
DISEGNO
100
AcDbLine
 10
-1804.80746
 20
-1505.020768
 30
0.0
 11
-1798.721673
 21
-1505.020768
 31
0.0
  0
LINE
  5
696
100
AcDbEntity
  8
DISEGNO
100
AcDbLine
 10
-1806.221673
 20
-1524.020768
 30
0.0
 11
-1806.221673
 21
-1506.434981
 31
0.0
  0
LINE
  5
697
100
AcDbEntity
  8
DISEGNO
100
AcDbLine
 10
-1818.221673
 20
-1525.020768
 30
0.0
 11
-1807.221673
 21
-1525.020768
 31
0.0
  0
ARC
  5
186D
100
AcDbEntity
  8
DISEGNO
100
AcDbCircle
 10
-1812.721673
 20
-1457.153365
 30
0.0
 40
0.8
100
AcDbArc
 50
224.0
 51
316.0
1001
ACAD
1000
ASC_BOUNDS
1002
{
1070
    19
1005
0
1002
}
  0
ARC
  5
1899
100
AcDbEntity
  8
DISEGNO
100
AcDbCircle
 10
-1821.570623
 20
-1452.020768
 30
0.0
 40
2.0
100
AcDbArc
 50
44.0
 51
90.0
1001
ACAD
1000
ASC_BOUNDS
1002
{
1070
    19
1005
0
1002
}
  0
ARC
  5
189A
100
AcDbEntity
  8
DISEGNO
100
AcDbCircle
 10
-1803.872724
 20
-1452.020768
 30
0.0
 40
2.0
100
AcDbArc
 50
90.0
 51
136.0
1001
ACAD
1000
ASC_BOUNDS
1002
{
1070
    19
1005
0
1002
}
  0
ENDSEC
  0
SECTION
  2
OBJECTS
  0
DICTIONARY
  5
C
100
AcDbDictionary
  3
ACAD_GROUP
350
D
  3
ACAD_MLINESTYLE
350
E
  0
DICTIONARY
  5
D
102
{ACAD_REACTORS
330
C
102
}
100
AcDbDictionary
  0
DICTIONARY
  5
E
102
{ACAD_REACTORS
330
C
102
}
100
AcDbDictionary
  3
STANDARD
350
1C
  0
MLINESTYLE
  5
1C
102
{ACAD_REACTORS
330
E
102
}
100
AcDbMlineStyle
  2
STANDARD
 70
     0
  3

 62
     0
 51
90.0
 52
90.0
 71
     2
 49
0.5
 62
   256
  6
BYLAYER
 49
-0.5
 62
   256
  6
BYLAYER
  0
ENDSEC
  0
EOF
