  0
SECTION
  2
HEADER
  9
$ACADVER
  1
AC1012
  9
$DWGCODEPAGE
  3
iso8859-1
  9
$INSBASE
 10
0.0
 20
0.0
 30
0.0
  9
$EXTMIN
 10
-1940.234365
 20
-1659.251698
 30
0.0
  9
$EXTMAX
 10
-1740.234365
 20
-1372.037392
 30
0.0
  9
$LIMMIN
 10
0.0
 20
0.0
  9
$LIMMAX
 10
210.0
 20
297.0
  9
$ORTHOMODE
 70
     0
  9
$REGENMODE
 70
     1
  9
$FILLMODE
 70
     1
  9
$QTEXTMODE
 70
     0
  9
$MIRRTEXT
 70
     1
  9
$DRAGMODE
 70
     2
  9
$LTSCALE
 40
1.0
  9
$OSMODE
 70
     0
  9
$ATTMODE
 70
     1
  9
$TEXTSIZE
 40
2.0
  9
$TRACEWID
 40
0.05
  9
$TEXTSTYLE
  7
STANDARD
  9
$CLAYER
  8
QUOTE
  9
$CELTYPE
  6
BYLAYER
  9
$CECOLOR
 62
   256
  9
$CELTSCALE
 40
1.0
  9
$DELOBJ
 70
     1
  9
$DISPSILH
 70
     0
  9
$DIMSCALE
 40
1.0
  9
$DIMASZ
 40
2.5
  9
$DIMEXO
 40
0.625
  9
$DIMDLI
 40
3.75
  9
$DIMRND
 40
0.0
  9
$DIMDLE
 40
0.0
  9
$DIMEXE
 40
1.25
  9
$DIMTP
 40
0.0
  9
$DIMTM
 40
0.0
  9
$DIMTXT
 40
3.0
  9
$DIMCEN
 40
0.0
  9
$DIMTSZ
 40
0.0
  9
$DIMTOL
 70
     0
  9
$DIMLIM
 70
     0
  9
$DIMTIH
 70
     0
  9
$DIMTOH
 70
     0
  9
$DIMSE1
 70
     0
  9
$DIMSE2
 70
     0
  9
$DIMTAD
 70
     1
  9
$DIMZIN
 70
     8
  9
$DIMBLK
  1

  9
$DIMASO
 70
     1
  9
$DIMSHO
 70
     1
  9
$DIMPOST
  1

  9
$DIMAPOST
  1

  9
$DIMALT
 70
     0
  9
$DIMALTD
 70
     2
  9
$DIMALTF
 40
0.03937
  9
$DIMLFAC
 40
1.0
  9
$DIMTOFL
 70
     0
  9
$DIMTVP
 40
0.0
  9
$DIMTIX
 70
     0
  9
$DIMSOXD
 70
     0
  9
$DIMSAH
 70
     0
  9
$DIMBLK1
  1

  9
$DIMBLK2
  1

  9
$DIMSTYLE
  2
STANDARD
  9
$DIMCLRD
 70
     0
  9
$DIMCLRE
 70
     0
  9
$DIMCLRT
 70
     0
  9
$DIMTFAC
 40
1.0
  9
$DIMGAP
 40
0.625
  9
$DIMJUST
 70
     0
  9
$DIMSD1
 70
     0
  9
$DIMSD2
 70
     0
  9
$DIMTOLJ
 70
     1
  9
$DIMTZIN
 70
     8
  9
$DIMALTZ
 70
     0
  9
$DIMALTTZ
 70
     0
  9
$DIMFIT
 70
     3
  9
$DIMUPT
 70
     0
  9
$DIMUNIT
 70
     2
  9
$DIMDEC
 70
     2
  9
$DIMTDEC
 70
     2
  9
$DIMALTU
 70
     2
  9
$DIMALTTD
 70
     2
  9
$DIMTXSTY
  7
STANDARD
  9
$DIMAUNIT
 70
     0
  9
$LUNITS
 70
     2
  9
$LUPREC
 70
     4
  9
$SKETCHINC
 40
0.1
  9
$FILLETRAD
 40
6.0
  9
$AUNITS
 70
     0
  9
$AUPREC
 70
     0
  9
$MENU
  1
acad
  9
$ELEVATION
 40
0.0
  9
$PELEVATION
 40
0.0
  9
$THICKNESS
 40
0.0
  9
$LIMCHECK
 70
     0
  9
$BLIPMODE
 70
     1
  9
$CHAMFERA
 40
1.0
  9
$CHAMFERB
 40
1.0
  9
$CHAMFERC
 40
20.0
  9
$CHAMFERD
 40
0.0
  9
$SKPOLY
 70
     0
  9
$TDCREATE
 40
2451820.639419791
  9
$TDUPDATE
 40
2452630.497057175
  9
$TDINDWG
 40
0.0398649306
  9
$TDUSRTIMER
 40
0.0398649306
  9
$USRTIMER
 70
     1
  9
$ANGBASE
 50
0.0
  9
$ANGDIR
 70
     0
  9
$PDMODE
 70
     0
  9
$PDSIZE
 40
0.0
  9
$PLINEWID
 40
0.0
  9
$COORDS
 70
     1
  9
$SPLFRAME
 70
     0
  9
$SPLINETYPE
 70
     6
  9
$SPLINESEGS
 70
     8
  9
$ATTDIA
 70
     0
  9
$ATTREQ
 70
     1
  9
$HANDLING
 70
     1
  9
$HANDSEED
  5
A1A
  9
$SURFTAB1
 70
     6
  9
$SURFTAB2
 70
     6
  9
$SURFTYPE
 70
     6
  9
$SURFU
 70
     6
  9
$SURFV
 70
     6
  9
$UCSNAME
  2

  9
$UCSORG
 10
0.0
 20
0.0
 30
0.0
  9
$UCSXDIR
 10
1.0
 20
0.0
 30
0.0
  9
$UCSYDIR
 10
0.0
 20
1.0
 30
0.0
  9
$PUCSNAME
  2

  9
$PUCSORG
 10
0.0
 20
0.0
 30
0.0
  9
$PUCSXDIR
 10
1.0
 20
0.0
 30
0.0
  9
$PUCSYDIR
 10
0.0
 20
1.0
 30
0.0
  9
$USERI1
 70
     0
  9
$USERI2
 70
     0
  9
$USERI3
 70
     0
  9
$USERI4
 70
     0
  9
$USERI5
 70
     0
  9
$USERR1
 40
0.0
  9
$USERR2
 40
0.0
  9
$USERR3
 40
0.0
  9
$USERR4
 40
0.0
  9
$USERR5
 40
0.0
  9
$WORLDVIEW
 70
     1
  9
$SHADEDGE
 70
     3
  9
$SHADEDIF
 70
    70
  9
$TILEMODE
 70
     1
  9
$MAXACTVP
 70
    16
  9
$PINSBASE
 10
0.0
 20
0.0
 30
0.0
  9
$PLIMCHECK
 70
     0
  9
$PEXTMIN
 10
1.000000E+20
 20
1.000000E+20
 30
1.000000E+20
  9
$PEXTMAX
 10
-1.000000E+20
 20
-1.000000E+20
 30
-1.000000E+20
  9
$PLIMMIN
 10
0.0
 20
0.0
  9
$PLIMMAX
 10
12.0
 20
9.0
  9
$UNITMODE
 70
     0
  9
$VISRETAIN
 70
     0
  9
$PLINEGEN
 70
     0
  9
$PSLTSCALE
 70
     1
  9
$TREEDEPTH
 70
  3020
  9
$PICKSTYLE
 70
     1
  9
$CMLSTYLE
  2
STANDARD
  9
$CMLJUST
 70
     0
  9
$CMLSCALE
 40
20.0
  9
$SAVEIMAGES
 70
     0
  0
ENDSEC
  0
SECTION
  2
CLASSES
  0
ENDSEC
  0
SECTION
  2
TABLES
  0
TABLE
  2
VPORT
  5
8
100
AcDbSymbolTable
 70
     3
  0
VPORT
  5
A19
100
AcDbSymbolTableRecord
100
AcDbViewportTableRecord
  2
*ACTIVE
 70
     0
 10
0.0
 20
0.0
 11
1.0
 21
1.0
 12
-1844.280681
 22
-1475.928431
 13
0.0
 23
0.0
 14
10.0
 24
10.0
 15
10.0
 25
10.0
 16
0.0
 26
0.0
 36
1.0
 17
0.0
 27
0.0
 37
0.0
 40
273.045711
 41
1.873134
 42
50.0
 43
0.0
 44
0.0
 50
0.0
 51
0.0
 71
     0
 72
   100
 73
     1
 74
     0
 75
     0
 76
     0
 77
     0
 78
     0
  0
ENDTAB
  0
TABLE
  2
LTYPE
  5
5
100
AcDbSymbolTable
 70
     4
  0
LTYPE
  5
13
100
AcDbSymbolTableRecord
100
AcDbLinetypeTableRecord
  2
BYBLOCK
 70
     0
  3

 72
    65
 73
     0
 40
0.0
  0
LTYPE
  5
14
100
AcDbSymbolTableRecord
100
AcDbLinetypeTableRecord
  2
BYLAYER
 70
     0
  3

 72
    65
 73
     0
 40
0.0
  0
LTYPE
  5
15
100
AcDbSymbolTableRecord
100
AcDbLinetypeTableRecord
  2
CONTINUOUS
 70
    64
  3
Solid line
 72
    65
 73
     0
 40
0.0
  0
LTYPE
  5
94
100
AcDbSymbolTableRecord
100
AcDbLinetypeTableRecord
  2
ACAD_ISO04W100
 70
    64
  3
____ . ____ . ____ . ____ . ____ . ____ . ____ 
 72
    65
 73
     4
 40
30.5
 49
24.0
 74
     0
 49
-3.0
 74
     0
 49
0.5
 74
     0
 49
-3.0
 74
     0
  0
LTYPE
  5
225
100
AcDbSymbolTableRecord
100
AcDbLinetypeTableRecord
  2
TRATTEGGIATAX2
 70
    64
  3
____  ____  ____  ____  ____  ____  ____  ____ 
 72
    65
 73
     2
 40
1.5
 49
1.0
 74
     0
 49
-0.5
 74
     0
  0
LTYPE
  5
226
100
AcDbSymbolTableRecord
100
AcDbLinetypeTableRecord
  2
NASCOSTA
 70
    64
  3
__ __ __ __ __ __ __ __ __ __ __ __ __ __ __ __
 72
    65
 73
     2
 40
0.375
 49
0.25
 74
     0
 49
-0.125
 74
     0
  0
ENDTAB
  0
TABLE
  2
LAYER
  5
2
100
AcDbSymbolTable
 70
    10
  0
LAYER
  5
F
100
AcDbSymbolTableRecord
100
AcDbLayerTableRecord
  2
0
 70
     0
 62
     7
  6
CONTINUOUS
  0
LAYER
  5
95
100
AcDbSymbolTableRecord
100
AcDbLayerTableRecord
  2
DISEGNO
 70
    64
 62
     7
  6
CONTINUOUS
  0
LAYER
  5
96
100
AcDbSymbolTableRecord
100
AcDbLayerTableRecord
  2
ASSI
 70
    64
 62
     1
  6
ACAD_ISO04W100
  0
LAYER
  5
97
100
AcDbSymbolTableRecord
100
AcDbLayerTableRecord
  2
SEZIONE
 70
    64
 62
     3
  6
CONTINUOUS
  0
LAYER
  5
98
100
AcDbSymbolTableRecord
100
AcDbLayerTableRecord
  2
TEMPRA
 70
    64
 62
     2
  6
CONTINUOUS
  0
LAYER
  5
99
100
AcDbSymbolTableRecord
100
AcDbLayerTableRecord
  2
QUOTE
 70
    64
 62
     5
  6
CONTINUOUS
  0
LAYER
  5
9A
100
AcDbSymbolTableRecord
100
AcDbLayerTableRecord
  2
FOGLIO
 70
    64
 62
     8
  6
CONTINUOUS
  0
LAYER
  5
1A3
100
AcDbSymbolTableRecord
100
AcDbLayerTableRecord
  2
TRATTO
 70
    64
 62
     6
  6
NASCOSTA
  0
LAYER
  5
28A
100
AcDbSymbolTableRecord
100
AcDbLayerTableRecord
  2
DEFPOINTS
 70
    64
 62
     7
  6
CONTINUOUS
  0
LAYER
  5
4A6
100
AcDbSymbolTableRecord
100
AcDbLayerTableRecord
  2
TABELLA
 70
    64
 62
     8
  6
CONTINUOUS
  0
ENDTAB
  0
TABLE
  2
STYLE
  5
3
100
AcDbSymbolTable
 70
     2
  0
STYLE
  5
10
100
AcDbSymbolTableRecord
100
AcDbTextStyleTableRecord
  2
STANDARD
 70
    64
 40
0.0
 41
1.1
 50
0.0
 71
     0
 42
2.0
  3
C:\Programmi\AutoCAD LT\isocp.shx
  4

  0
STYLE
  5
B0
100
AcDbSymbolTableRecord
100
AcDbTextStyleTableRecord
  2
STYLE3
 70
    64
 40
0.0
 41
1.5
 50
0.0
 71
     0
 42
4.0
  3
C:\Programmi\AutoCAD LT\isocp3.shx
  4

  0
ENDTAB
  0
TABLE
  2
VIEW
  5
6
100
AcDbSymbolTable
 70
     0
  0
ENDTAB
  0
TABLE
  2
UCS
  5
7
100
AcDbSymbolTable
 70
     0
  0
ENDTAB
  0
TABLE
  2
APPID
  5
9
100
AcDbSymbolTable
 70
     1
  0
APPID
  5
11
100
AcDbSymbolTableRecord
100
AcDbRegAppTableRecord
  2
ACAD
 70
     0
  0
ENDTAB
  0
TABLE
  2
DIMSTYLE
  5
A
100
AcDbSymbolTable
 70
    13
  0
DIMSTYLE
105
1D
100
AcDbSymbolTableRecord
100
AcDbDimStyleTableRecord
  2
STANDARD
 70
     0
  3

  4

  5

  6

  7

 40
1.0
 41
2.5
 42
0.625
 43
3.75
 44
1.25
 45
0.0
 46
0.0
 47
0.0
 48
0.0
140
3.0
141
2.5
142
0.0
143
0.03937
144
1.0
145
0.0
146
1.0
147
0.625
 71
     0
 72
     0
 73
     0
 74
     0
 75
     0
 76
     0
 77
     1
 78
     8
170
     0
171
     2
172
     0
173
     0
174
     0
175
     0
176
     0
177
     0
178
     0
270
     2
271
     2
272
     2
273
     2
274
     2
340
10
275
     0
280
     0
281
     0
282
     0
283
     1
284
     8
285
     0
286
     0
287
     3
288
     0
  0
DIMSTYLE
105
198
100
AcDbSymbolTableRecord
100
AcDbDimStyleTableRecord
  2
TOLL-06
 70
     0
  3

  4

  5

  6

  7

 40
1.0
 41
2.5
 42
0.625
 43
3.75
 44
1.25
 45
0.0
 46
0.0
 47
-0.05
 48
0.0
140
3.0
141
2.5
142
0.0
143
0.03937
144
1.0
145
0.0
146
0.8
147
0.625
 71
     1
 72
     0
 73
     0
 74
     0
 75
     0
 76
     0
 77
     1
 78
     8
170
     0
171
     2
172
     0
173
     0
174
     0
175
     0
176
     0
177
     0
178
     0
270
     2
271
     2
272
     2
273
     2
274
     2
340
10
275
     0
280
     0
281
     0
282
     0
283
     2
284
     8
285
     0
286
     0
287
     3
288
     0
  0
DIMSTYLE
105
20B
100
AcDbSymbolTableRecord
100
AcDbDimStyleTableRecord
  2
TOLL-01
 70
     0
  3

  4

  5

  6

  7

 40
1.0
 41
2.5
 42
0.625
 43
3.75
 44
1.25
 45
0.0
 46
0.0
 47
0.02
 48
0.0
140
3.0
141
2.5
142
0.0
143
0.03937
144
1.0
145
0.0
146
0.8
147
0.625
 71
     1
 72
     0
 73
     0
 74
     0
 75
     0
 76
     0
 77
     1
 78
     8
170
     0
171
     2
172
     0
173
     0
174
     0
175
     0
176
     0
177
     0
178
     0
270
     2
271
     2
272
     2
273
     2
274
     2
340
10
275
     0
280
     0
281
     0
282
     0
283
     2
284
     8
285
     0
286
     0
287
     3
288
     0
  0
DIMSTYLE
105
232
100
AcDbSymbolTableRecord
100
AcDbDimStyleTableRecord
  2
TOLL-02
 70
     0
  3

  4

  5

  6

  7

 40
1.0
 41
2.5
 42
0.625
 43
3.75
 44
1.25
 45
0.0
 46
0.0
 47
-0.02
 48
0.0
140
3.0
141
2.5
142
0.0
143
0.03937
144
1.0
145
0.0
146
0.8
147
0.625
 71
     1
 72
     0
 73
     0
 74
     0
 75
     0
 76
     0
 77
     1
 78
     8
170
     0
171
     2
172
     0
173
     0
174
     0
175
     0
176
     0
177
     0
178
     0
270
     2
271
     2
272
     2
273
     2
274
     2
340
10
275
     0
280
     0
281
     0
282
     0
283
     2
284
     8
285
     0
286
     0
287
     3
288
     0
  0
DIMSTYLE
105
233
100
AcDbSymbolTableRecord
100
AcDbDimStyleTableRecord
  2
TOLL-03
 70
     0
  3

  4

  5

  6

  7

 40
1.0
 41
2.5
 42
0.625
 43
3.75
 44
1.25
 45
0.0
 46
0.0
 47
0.01
 48
0.01
140
3.0
141
2.5
142
0.0
143
0.03937
144
1.0
145
0.0
146
0.8
147
0.625
 71
     1
 72
     0
 73
     0
 74
     0
 75
     0
 76
     0
 77
     1
 78
     8
170
     0
171
     2
172
     0
173
     0
174
     0
175
     0
176
     0
177
     0
178
     0
270
     2
271
     2
272
     2
273
     2
274
     2
340
10
275
     0
280
     0
281
     0
282
     0
283
     2
284
     8
285
     0
286
     0
287
     3
288
     0
  0
DIMSTYLE
105
234
100
AcDbSymbolTableRecord
100
AcDbDimStyleTableRecord
  2
TOLL-04
 70
     0
  3

  4

  5

  6

  7

 40
1.0
 41
2.5
 42
0.625
 43
3.75
 44
1.25
 45
0.0
 46
0.0
 47
0.05
 48
0.05
140
3.0
141
2.5
142
0.0
143
0.03937
144
1.0
145
0.0
146
0.8
147
0.625
 71
     1
 72
     0
 73
     0
 74
     0
 75
     0
 76
     0
 77
     1
 78
     8
170
     0
171
     2
172
     0
173
     0
174
     0
175
     0
176
     0
177
     0
178
     0
270
     2
271
     2
272
     2
273
     2
274
     2
340
10
275
     0
280
     0
281
     0
282
     0
283
     2
284
     8
285
     0
286
     0
287
     3
288
     0
  0
DIMSTYLE
105
235
100
AcDbSymbolTableRecord
100
AcDbDimStyleTableRecord
  2
TOLL-05
 70
     0
  3

  4

  5

  6

  7

 40
1.0
 41
2.5
 42
0.625
 43
3.75
 44
1.25
 45
0.0
 46
0.0
 47
0.05
 48
0.0
140
3.0
141
2.5
142
0.0
143
0.03937
144
1.0
145
0.0
146
0.8
147
0.625
 71
     1
 72
     0
 73
     0
 74
     0
 75
     0
 76
     0
 77
     1
 78
     8
170
     0
171
     2
172
     0
173
     0
174
     0
175
     0
176
     0
177
     0
178
     0
270
     2
271
     2
272
     2
273
     2
274
     2
340
10
275
     0
280
     0
281
     0
282
     0
283
     2
284
     8
285
     0
286
     0
287
     3
288
     0
  0
DIMSTYLE
105
247
100
AcDbSymbolTableRecord
100
AcDbDimStyleTableRecord
  2
TOLL-07
 70
     0
  3

  4

  5

  6

  7

 40
1.0
 41
2.5
 42
0.625
 43
3.75
 44
1.25
 45
0.0
 46
0.0
 47
0.1
 48
0.1
140
3.0
141
2.5
142
0.0
143
0.03937
144
1.0
145
0.0
146
1.0
147
0.625
 71
     1
 72
     0
 73
     0
 74
     0
 75
     0
 76
     0
 77
     1
 78
     8
170
     0
171
     2
172
     0
173
     0
174
     0
175
     0
176
     0
177
     0
178
     0
270
     2
271
     2
272
     2
273
     2
274
     2
340
10
275
     0
280
     0
281
     0
282
     0
283
     1
284
     8
285
     0
286
     0
287
     3
288
     0
  0
DIMSTYLE
105
251
100
AcDbSymbolTableRecord
100
AcDbDimStyleTableRecord
  2
TOLL-08
 70
     0
  3

  4

  5

  6

  7

 40
1.0
 41
2.5
 42
0.625
 43
3.75
 44
1.25
 45
0.0
 46
0.0
 47
0.1
 48
0.0
140
3.0
141
2.5
142
0.0
143
0.03937
144
1.0
145
0.0
146
1.0
147
0.625
 71
     1
 72
     0
 73
     0
 74
     0
 75
     0
 76
     0
 77
     1
 78
     8
170
     0
171
     2
172
     0
173
     0
174
     0
175
     0
176
     0
177
     0
178
     0
270
     2
271
     2
272
     2
273
     2
274
     2
340
10
275
     0
280
     0
281
     0
282
     0
283
     1
284
     8
285
     0
286
     0
287
     3
288
     0
  0
DIMSTYLE
105
257
100
AcDbSymbolTableRecord
100
AcDbDimStyleTableRecord
  2
TOLL-09
 70
     0
  3

  4

  5

  6

  7

 40
1.0
 41
2.5
 42
0.625
 43
3.75
 44
1.25
 45
0.0
 46
0.0
 47
-0.1
 48
0.0
140
3.0
141
2.5
142
0.0
143
0.03937
144
1.0
145
0.0
146
1.0
147
0.625
 71
     1
 72
     0
 73
     0
 74
     0
 75
     0
 76
     0
 77
     1
 78
     8
170
     0
171
     2
172
     0
173
     0
174
     0
175
     0
176
     0
177
     0
178
     0
270
     2
271
     2
272
     2
273
     2
274
     2
340
10
275
     0
280
     0
281
     0
282
     0
283
     1
284
     8
285
     0
286
     0
287
     3
288
     0
  0
DIMSTYLE
105
258
100
AcDbSymbolTableRecord
100
AcDbDimStyleTableRecord
  2
TOLL-10
 70
     0
  3

  4

  5

  6

  7

 40
1.0
 41
2.5
 42
0.625
 43
3.75
 44
1.25
 45
0.0
 46
0.0
 47
0.2
 48
0.2
140
3.0
141
2.5
142
0.0
143
0.03937
144
1.0
145
0.0
146
1.0
147
0.625
 71
     1
 72
     0
 73
     0
 74
     0
 75
     0
 76
     0
 77
     1
 78
     8
170
     0
171
     2
172
     0
173
     0
174
     0
175
     0
176
     0
177
     0
178
     0
270
     2
271
     2
272
     2
273
     2
274
     2
340
10
275
     0
280
     0
281
     0
282
     0
283
     1
284
     8
285
     0
286
     0
287
     3
288
     0
  0
DIMSTYLE
105
259
100
AcDbSymbolTableRecord
100
AcDbDimStyleTableRecord
  2
TOLL-11
 70
     0
  3

  4

  5

  6

  7

 40
1.0
 41
2.5
 42
0.625
 43
3.75
 44
1.25
 45
0.0
 46
0.0
 47
0.2
 48
0.0
140
3.0
141
2.5
142
0.0
143
0.03937
144
1.0
145
0.0
146
1.0
147
0.625
 71
     1
 72
     0
 73
     0
 74
     0
 75
     0
 76
     0
 77
     1
 78
     8
170
     0
171
     2
172
     0
173
     0
174
     0
175
     0
176
     0
177
     0
178
     0
270
     2
271
     2
272
     2
273
     2
274
     2
340
10
275
     0
280
     0
281
     0
282
     0
283
     1
284
     8
285
     0
286
     0
287
     3
288
     0
  0
DIMSTYLE
105
4A7
100
AcDbSymbolTableRecord
100
AcDbDimStyleTableRecord
  2
ISO-25
 70
     0
  3

  4

  5

  6

  7

 40
1.0
 41
2.5
 42
0.625
 43
3.75
 44
1.25
 45
0.0
 46
0.0
 47
0.0
 48
0.0
140
2.5
141
2.5
142
0.0
143
0.0394
144
1.0
145
1.0
146
1.0
147
0.625
 71
     0
 72
     0
 73
     1
 74
     0
 75
     0
 76
     0
 77
     1
 78
     8
170
     0
171
     2
172
     1
173
     0
174
     0
175
     0
176
     0
177
     0
178
     0
270
     2
271
     4
272
     4
273
     2
274
     2
340
10
275
     0
280
     0
281
     0
282
     0
283
     1
284
     0
285
     0
286
     0
287
     3
288
     0
  0
ENDTAB
  0
TABLE
  2
BLOCK_RECORD
  5
1
100
AcDbSymbolTable
 70
    32
  0
BLOCK_RECORD
  5
19
100
AcDbSymbolTableRecord
100
AcDbBlockTableRecord
  2
*MODEL_SPACE
  0
BLOCK_RECORD
  5
16
100
AcDbSymbolTableRecord
100
AcDbBlockTableRecord
  2
*PAPER_SPACE
  0
BLOCK_RECORD
  5
3A2
100
AcDbSymbolTableRecord
100
AcDbBlockTableRecord
  2
RUGOSITA
  0
BLOCK_RECORD
  5
4A8
100
AcDbSymbolTableRecord
100
AcDbBlockTableRecord
  2
A$C52B2
  0
BLOCK_RECORD
  5
568
100
AcDbSymbolTableRecord
100
AcDbBlockTableRecord
  2
*D2
  0
BLOCK_RECORD
  5
575
100
AcDbSymbolTableRecord
100
AcDbBlockTableRecord
  2
*D3
  0
BLOCK_RECORD
  5
583
100
AcDbSymbolTableRecord
100
AcDbBlockTableRecord
  2
*D4
  0
BLOCK_RECORD
  5
590
100
AcDbSymbolTableRecord
100
AcDbBlockTableRecord
  2
*D5
  0
BLOCK_RECORD
  5
59D
100
AcDbSymbolTableRecord
100
AcDbBlockTableRecord
  2
*D6
  0
BLOCK_RECORD
  5
5AB
100
AcDbSymbolTableRecord
100
AcDbBlockTableRecord
  2
*D7
  0
BLOCK_RECORD
  5
5C5
100
AcDbSymbolTableRecord
100
AcDbBlockTableRecord
  2
*D8
  0
BLOCK_RECORD
  5
5D4
100
AcDbSymbolTableRecord
100
AcDbBlockTableRecord
  2
*D9
  0
BLOCK_RECORD
  5
5E1
100
AcDbSymbolTableRecord
100
AcDbBlockTableRecord
  2
*D10
  0
BLOCK_RECORD
  5
60B
100
AcDbSymbolTableRecord
100
AcDbBlockTableRecord
  2
*D11
  0
BLOCK_RECORD
  5
627
100
AcDbSymbolTableRecord
100
AcDbBlockTableRecord
  2
*D12
  0
BLOCK_RECORD
  5
642
100
AcDbSymbolTableRecord
100
AcDbBlockTableRecord
  2
*D13
  0
BLOCK_RECORD
  5
64F
100
AcDbSymbolTableRecord
100
AcDbBlockTableRecord
  2
*D14
  0
BLOCK_RECORD
  5
669
100
AcDbSymbolTableRecord
100
AcDbBlockTableRecord
  2
*D15
  0
BLOCK_RECORD
  5
682
100
AcDbSymbolTableRecord
100
AcDbBlockTableRecord
  2
*D16
  0
BLOCK_RECORD
  5
690
100
AcDbSymbolTableRecord
100
AcDbBlockTableRecord
  2
*D17
  0
BLOCK_RECORD
  5
69D
100
AcDbSymbolTableRecord
100
AcDbBlockTableRecord
  2
*D18
  0
BLOCK_RECORD
  5
6AA
100
AcDbSymbolTableRecord
100
AcDbBlockTableRecord
  2
*D19
  0
BLOCK_RECORD
  5
6B7
100
AcDbSymbolTableRecord
100
AcDbBlockTableRecord
  2
*D20
  0
BLOCK_RECORD
  5
6C5
100
AcDbSymbolTableRecord
100
AcDbBlockTableRecord
  2
*D21
  0
BLOCK_RECORD
  5
6D4
100
AcDbSymbolTableRecord
100
AcDbBlockTableRecord
  2
*D22
  0
BLOCK_RECORD
  5
6DD
100
AcDbSymbolTableRecord
100
AcDbBlockTableRecord
  2
*D23
  0
BLOCK_RECORD
  5
6E6
100
AcDbSymbolTableRecord
100
AcDbBlockTableRecord
  2
*D24
  0
BLOCK_RECORD
  5
76E
100
AcDbSymbolTableRecord
100
AcDbBlockTableRecord
  2
*D25
  0
BLOCK_RECORD
  5
77D
100
AcDbSymbolTableRecord
100
AcDbBlockTableRecord
  2
*D26
  0
BLOCK_RECORD
  5
7D2
100
AcDbSymbolTableRecord
100
AcDbBlockTableRecord
  2
*X27
  0
BLOCK_RECORD
  5
920
100
AcDbSymbolTableRecord
100
AcDbBlockTableRecord
  2
*D28
  0
BLOCK_RECORD
  5
92D
100
AcDbSymbolTableRecord
100
AcDbBlockTableRecord
  2
*D29
  0
BLOCK_RECORD
  5
93B
100
AcDbSymbolTableRecord
100
AcDbBlockTableRecord
  2
*D30
  0
BLOCK_RECORD
  5
9EF
100
AcDbSymbolTableRecord
100
AcDbBlockTableRecord
  2
A$C7154
  0
ENDTAB
  0
ENDSEC
  0
SECTION
  2
BLOCKS
  0
BLOCK
  5
1A
100
AcDbEntity
  8
0
100
AcDbBlockBegin
  2
*MODEL_SPACE
 70
     0
 10
0.0
 20
0.0
 30
0.0
  3
*MODEL_SPACE
  1

  0
ENDBLK
  5
1B
100
AcDbEntity
  8
0
100
AcDbBlockEnd
  0
BLOCK
  5
17
100
AcDbEntity
 67
     1
  8
0
100
AcDbBlockBegin
  2
*PAPER_SPACE
 70
     0
 10
0.0
 20
0.0
 30
0.0
  3
*PAPER_SPACE
  1

  0
ENDBLK
  5
18
100
AcDbEntity
 67
     1
  8
0
100
AcDbBlockEnd
  0
BLOCK
  5
3A7
100
AcDbEntity
  8
DISEGNO
100
AcDbBlockBegin
  2
RUGOSITA
 70
     2
 10
0.0
 20
0.0
 30
0.0
  3
RUGOSITA
  1

  0
ATTDEF
  5
3A3
100
AcDbEntity
  8
QUOTE
100
AcDbText
 10
-1.071886
 20
3.214106
 30
0.0
 40
1.5
  1
0.8
100
AcDbAttributeDefinition
  3
CHE RUGOSITA ?
  2
RUGOSITA
 70
     0
  0
LINE
  5
3A4
100
AcDbEntity
  8
QUOTE
100
AcDbLine
 10
0.0
 20
0.0
 30
0.0
 11
4.0
 21
6.928203
 31
0.0
  0
LINE
  5
3A5
100
AcDbEntity
  8
QUOTE
100
AcDbLine
 10
0.0
 20
0.0
 30
0.0
 11
-1.75
 21
3.031089
 31
0.0
  0
LINE
  5
3A6
100
AcDbEntity
  8
QUOTE
100
AcDbLine
 10
-1.75
 20
3.031089
 30
0.0
 11
1.75
 21
3.031089
 31
0.0
  0
ENDBLK
  5
3A8
100
AcDbEntity
  8
DISEGNO
100
AcDbBlockEnd
  0
BLOCK
  5
547
100
AcDbEntity
  8
QUOTE
100
AcDbBlockBegin
  2
A$C52B2
 70
     0
 10
0.0
 20
0.0
 30
0.0
  3
A$C52B2
  1

  0
LINE
  5
4A9
100
AcDbEntity
  8
TABELLA
  6
CONTINUOUS
100
AcDbLine
 10
100.781064
 20
5.387067
 30
0.0
 11
103.281064
 21
0.387067
 31
0.0
  0
LINE
  5
4AA
100
AcDbEntity
  8
TABELLA
  6
CONTINUOUS
100
AcDbLine
 10
100.781064
 20
0.387067
 30
0.0
 11
103.281064
 21
0.387067
 31
0.0
  0
LINE
  5
4AB
100
AcDbEntity
  8
TABELLA
  6
CONTINUOUS
100
AcDbLine
 10
103.281064
 20
287.387067
 30
0.0
 11
100.781064
 21
282.387067
 31
0.0
  0
LINE
  5
4AC
100
AcDbEntity
  8
TABELLA
  6
CONTINUOUS
100
AcDbLine
 10
100.781064
 20
287.387067
 30
0.0
 11
103.281064
 21
287.387067
 31
0.0
  0
TEXT
  5
4AD
100
AcDbEntity
  8
TABELLA
  6
CONTINUOUS
100
AcDbText
 10
83.891226
 20
14.123583
 30
0.0
 40
6.0
  1
ROLLERI
100
AcDbText
  0
LINE
  5
4AE
100
AcDbEntity
  8
TABELLA
  6
CONTINUOUS
100
AcDbLine
 10
115.706968
 20
22.612261
 30
0.0
 11
84.107383
 21
22.612261
 31
0.0
1001
ACAD
1000
ASC_BOUNDS
1002
{
1070
    19
1002
}
  0
LINE
  5
4AF
100
AcDbEntity
  8
TABELLA
  6
CONTINUOUS
100
AcDbLine
 10
82.055262
 20
11.456564
 30
0.0
 11
113.654847
 21
11.456564
 31
0.0
1001
ACAD
1000
ASC_BOUNDS
1002
{
1070
    19
1002
}
  0
LINE
  5
4B0
100
AcDbEntity
  8
TABELLA
  6
CONTINUOUS
100
AcDbLine
 10
116.407176
 20
23.612261
 30
0.0
 11
83.407176
 21
23.612261
 31
0.0
1001
ACAD
1000
ASC_BOUNDS
1002
{
1070
    19
1002
}
  0
LINE
  5
4B1
100
AcDbEntity
  8
TABELLA
  6
CONTINUOUS
100
AcDbLine
 10
81.355055
 20
10.456564
 30
0.0
 11
114.355055
 21
10.456564
 31
0.0
1001
ACAD
1000
ASC_BOUNDS
1002
{
1070
    19
1002
}
  0
TEXT
  5
4B2
100
AcDbEntity
  8
TABELLA
  6
CONTINUOUS
100
AcDbText
 10
79.770815
 20
6.679292
 30
0.0
 40
2.0
  1
Vigolzone ( Piacenza ) - ITALIA
100
AcDbText
  0
LINE
  5
4B3
100
AcDbEntity
  8
TABELLA
  6
CONTINUOUS
100
AcDbLine
 10
125.782064
 20
35.387067
 30
0.0
 11
75.782064
 21
35.387067
 31
0.0
  0
LINE
  5
4B4
100
AcDbEntity
  8
TABELLA
  6
CONTINUOUS
100
AcDbLine
 10
195.782064
 20
45.387067
 30
0.0
 11
5.697058
 21
45.395351
 31
0.0
  0
LINE
  5
4B5
100
AcDbEntity
  8
TABELLA
  6
CONTINUOUS
100
AcDbLine
 10
125.782064
 20
25.387067
 30
0.0
 11
75.782064
 21
25.387067
 31
0.0
  0
LINE
  5
4B6
100
AcDbEntity
  8
TABELLA
  6
CONTINUOUS
100
AcDbLine
 10
195.782064
 20
5.387067
 30
0.0
 11
5.782064
 21
5.387067
 31
0.0
  0
LINE
  5
4B7
100
AcDbEntity
  8
TABELLA
  6
CONTINUOUS
100
AcDbLine
 10
5.782064
 20
282.387067
 30
0.0
 11
195.782064
 21
282.387067
 31
0.0
  0
LINE
  5
4B8
100
AcDbEntity
  8
TABELLA
  6
CONTINUOUS
100
AcDbLine
 10
5.782064
 20
143.887067
 30
0.0
 11
0.782064
 21
141.387067
 31
0.0
  0
LINE
  5
4B9
100
AcDbEntity
  8
TABELLA
  6
CONTINUOUS
100
AcDbLine
 10
0.782064
 20
143.887067
 30
0.0
 11
0.782064
 21
141.387067
 31
0.0
  0
LINE
  5
4BA
100
AcDbEntity
  8
TABELLA
  6
CONTINUOUS
100
AcDbLine
 10
5.782064
 20
5.387067
 30
0.0
 11
5.782064
 21
282.387067
 31
0.0
  0
POLYLINE
  5
4BB
100
AcDbEntity
  8
QUOTE
100
AcDb2dPolyline
 66
     1
 10
0.0
 20
0.0
 30
0.0
 70
     1
  0
VERTEX
  5
4BC
100
AcDbEntity
  8
QUOTE
100
AcDbVertex
100
AcDb2dVertex
 10
11.507487
 20
62.582414
 30
0.0
  0
VERTEX
  5
4BD
100
AcDbEntity
  8
QUOTE
100
AcDbVertex
100
AcDb2dVertex
 10
11.507487
 20
49.867806
 30
0.0
  0
VERTEX
  5
4BE
100
AcDbEntity
  8
QUOTE
100
AcDbVertex
100
AcDb2dVertex
 10
52.626527
 20
49.867806
 30
0.0
  0
VERTEX
  5
4BF
100
AcDbEntity
  8
QUOTE
100
AcDbVertex
100
AcDb2dVertex
 10
52.626527
 20
62.582414
 30
0.0
  0
SEQEND
  5
4C0
100
AcDbEntity
  8
QUOTE
  0
TOLERANCE
  5
4C1
100
AcDbEntity
  8
QUOTE
  6
CONTINUOUS
100
AcDbFcf
  3
ISO-25
 10
30.863585
 20
54.182522
 30
0.0
  1
{\Fgdt;u}%%v0.02%%v%%v%%v%%v
1001
ACAD
1000
DSTYLE
1002
{
1070
   140
1040
2.6
1070
    47
1040
0.02
1070
    73
1070
     0
1070
   272
1070
     2
1070
   147
1040
0.53
1070
    42
1040
0.5261
1070
    44
1040
1.0522
1070
    43
1040
3.1566
1070
   271
1070
     2
1070
   141
1040
2.1044
1070
    41
1040
2.6
1002
}
  0
TEXT
  5
4C2
100
AcDbEntity
  8
QUOTE
100
AcDbText
 10
12.101072
 20
58.118453
 30
0.0
 40
2.5
  1
TOLLERANZE AL METRO
 41
1.1
100
AcDbText
  0
TEXT
  5
4C3
100
AcDbEntity
  8
TABELLA
  6
CONTINUOUS
100
AcDbText
 10
7.271803
 20
15.7314
 30
0.0
 40
2.0
  1
- Angoli su superfici lavorate = +/- 30'
100
AcDbText
  0
TEXT
  5
4C4
100
AcDbEntity
  8
TABELLA
  6
CONTINUOUS
100
AcDbText
 10
7.271803
 20
23.3314
 30
0.0
 40
2.0
  1
   da mm 151 a mm 500 = +/- 0.4
100
AcDbText
  0
TEXT
  5
4C5
100
AcDbEntity
  8
TABELLA
  6
CONTINUOUS
100
AcDbText
 10
7.271803
 20
27.1314
 30
0.0
 40
2.0
  1
   da mm 51 a mm 150 = +/- 0.3
100
AcDbText
  0
TEXT
  5
4C6
100
AcDbEntity
  8
TABELLA
  6
CONTINUOUS
100
AcDbText
 10
7.271803
 20
30.9314
 30
0.0
 40
2.0
  1
- Superfici lavorate da mm 1 a mm 50 = +/- 0.2
100
AcDbText
  0
TEXT
  5
4C7
100
AcDbEntity
  8
TABELLA
  6
CONTINUOUS
100
AcDbText
 10
7.271803
 20
34.7314
 30
0.0
 40
2.0
  1
- Parti fuse con spessori >10 mm = +/- 10%
100
AcDbText
  0
TEXT
  5
4C8
100
AcDbEntity
  8
TABELLA
  6
CONTINUOUS
100
AcDbText
 10
7.271803
 20
38.5314
 30
0.0
 40
2.0
  1
- Parti fuse con spessori <10 mm = +/- 1 mm
100
AcDbText
  0
TOLERANCE
  5
4C9
100
AcDbEntity
  8
QUOTE
  6
CONTINUOUS
100
AcDbFcf
  3
ISO-25
 10
15.305627
 20
54.182522
 30
0.0
  1
{\Fgdt;b}%%v0.02%%v%%v%%v%%v
1001
ACAD
1000
DSTYLE
1002
{
1070
   140
1040
2.6
1070
    47
1040
0.02
1070
    73
1070
     0
1070
   272
1070
     2
1070
   147
1040
0.53
1070
    42
1040
0.5261
1070
    44
1040
1.0522
1070
    43
1040
3.1566
1070
   271
1070
     2
1070
   141
1040
2.1044
1070
    41
1040
2.6
1002
}
  0
TEXT
  5
4CA
100
AcDbEntity
  8
TABELLA
  6
CONTINUOUS
100
AcDbText
 10
0.769342
 20
51.259863
 30
0.0
 40
4.0
  1
B
100
AcDbText
  0
TEXT
  5
4CB
100
AcDbEntity
  8
TABELLA
  6
CONTINUOUS
100
AcDbText
 10
0.353187
 20
15.100813
 30
0.0
 40
4.0
  1
A
100
AcDbText
  0
LINE
  5
4CC
100
AcDbEntity
  8
TABELLA
  6
CONTINUOUS
100
AcDbLine
 10
5.782064
 20
36.262067
 30
0.0
 11
0.782064
 21
36.262067
 31
0.0
  0
TEXT
  5
4CD
100
AcDbEntity
  8
TABELLA
  6
CONTINUOUS
100
AcDbText
 10
15.583223
 20
0.138446
 30
0.0
 40
4.0
  1
6
100
AcDbText
  0
LINE
  5
4CE
100
AcDbEntity
  8
TABELLA
  6
CONTINUOUS
100
AcDbLine
 10
34.115064
 20
5.387067
 30
0.0
 11
34.115064
 21
0.387067
 31
0.0
  0
TEXT
  5
4CF
100
AcDbEntity
  8
TABELLA
  6
CONTINUOUS
100
AcDbText
 10
7.271803
 20
11.9314
 30
0.0
 40
2.0
  1
- Interassi fori = +/- 0.25
100
AcDbText
  0
TEXT
  5
4D0
100
AcDbEntity
  8
TABELLA
  6
CONTINUOUS
100
AcDbText
 10
7.271803
 20
19.5314
 30
0.0
 40
2.0
  1
   oltre 500 mm = +/- 0.5
100
AcDbText
  0
TEXT
  5
4D1
100
AcDbEntity
  8
TABELLA
  6
CONTINUOUS
100
AcDbText
 10
7.271803
 20
42.3314
 30
0.0
 40
2.0
  1
TOLLERANZE GENERALI :
100
AcDbText
  0
LINE
  5
4D2
100
AcDbEntity
  8
TABELLA
  6
CONTINUOUS
100
AcDbLine
 10
5.782064
 20
72.137067
 30
0.0
 11
0.782064
 21
72.137067
 31
0.0
  0
TEXT
  5
4D3
100
AcDbEntity
  8
TABELLA
  6
CONTINUOUS
100
AcDbText
 10
0.769342
 20
87.459725
 30
0.0
 40
4.0
  1
C
100
AcDbText
  0
LINE
  5
4D4
100
AcDbEntity
  8
TABELLA
  6
CONTINUOUS
100
AcDbLine
 10
5.782064
 20
108.012067
 30
0.0
 11
0.782064
 21
108.012067
 31
0.0
  0
TEXT
  5
4D5
100
AcDbEntity
  8
TABELLA
  6
CONTINUOUS
100
AcDbText
 10
0.769342
 20
124.034397
 30
0.0
 40
4.0
  1
D
100
AcDbText
  0
LINE
  5
4D6
100
AcDbEntity
  8
TABELLA
  6
CONTINUOUS
100
AcDbLine
 10
65.792444
 20
45.394891
 30
0.0
 11
65.782064
 21
5.389662
 31
0.0
  0
TEXT
  5
4D7
100
AcDbEntity
  8
TABELLA
  6
CONTINUOUS
100
AcDbText
 10
68.438556
 20
7.454028
 30
0.0
 40
1.5
  1
A termine di legge la Rolleri si riserva la
 50
90.0
100
AcDbText
  0
TEXT
  5
4D8
100
AcDbEntity
  8
TABELLA
  6
CONTINUOUS
100
AcDbText
 10
49.29176
 20
0.138446
 30
0.0
 40
4.0
  1
5
100
AcDbText
  0
LINE
  5
4D9
100
AcDbEntity
  8
TABELLA
  6
CONTINUOUS
100
AcDbLine
 10
67.448064
 20
5.387067
 30
0.0
 11
67.448064
 21
0.387067
 31
0.0
  0
LINE
  5
4DA
100
AcDbEntity
  8
TABELLA
  6
CONTINUOUS
100
AcDbLine
 10
75.792442
 20
45.387067
 30
0.0
 11
75.792442
 21
5.387067
 31
0.0
  0
TEXT
  5
4DB
100
AcDbEntity
  8
TABELLA
  6
CONTINUOUS
100
AcDbText
 10
74.138556
 20
7.454028
 30
0.0
 40
1.5
  1
di riprodurlo e di comunicarlo a terzi.
 50
90.0
100
AcDbText
  0
TEXT
  5
4DC
100
AcDbEntity
  8
TABELLA
  6
CONTINUOUS
100
AcDbText
 10
71.288556
 20
7.454028
 30
0.0
 40
1.5
  1
proprietà di questo disegno, con divieto
 50
90.0
100
AcDbText
  0
TEXT
  5
4DD
100
AcDbEntity
  8
TABELLA
  6
CONTINUOUS
100
AcDbText
 10
83.416451
 20
0.554068
 30
0.0
 40
4.0
  1
4
100
AcDbText
  0
LINE
  5
4DE
100
AcDbEntity
  8
TABELLA
  6
CONTINUOUS
100
AcDbLine
 10
98.281064
 20
0.387067
 30
0.0
 11
100.781064
 21
5.387067
 31
0.0
  0
LINE
  5
4DF
100
AcDbEntity
  8
TABELLA
  6
CONTINUOUS
100
AcDbLine
 10
100.781064
 20
5.387067
 30
0.0
 11
100.781064
 21
0.387067
 31
0.0
  0
LINE
  5
4E0
100
AcDbEntity
  8
TABELLA
  6
CONTINUOUS
100
AcDbLine
 10
100.781064
 20
0.387067
 30
0.0
 11
98.281064
 21
0.387067
 31
0.0
  0
TEXT
  5
4E1
100
AcDbEntity
  8
TABELLA
  6
CONTINUOUS
100
AcDbText
 10
77.180326
 20
42.484843
 30
0.0
 40
2.0
  1
Materiale
100
AcDbText
  0
TEXT
  5
4E2
100
AcDbEntity
  8
TABELLA
  6
CONTINUOUS
100
AcDbText
 10
76.949018
 20
32.320687
 30
0.0
 40
2.0
  1
Disegnato da
100
AcDbText
  0
LINE
  5
4E3
100
AcDbEntity
  8
TABELLA
  6
CONTINUOUS
100
AcDbLine
 10
84.107383
 20
22.612261
 30
0.0
 11
81.051152
 21
14.215335
 31
0.0
1001
ACAD
1000
ASC_BOUNDS
1002
{
1070
    19
1002
}
  0
LINE
  5
4E4
100
AcDbEntity
  8
TABELLA
  6
CONTINUOUS
100
AcDbLine
 10
83.407176
 20
23.612261
 30
0.0
 11
79.986974
 21
14.215335
 31
0.0
1001
ACAD
1000
ASC_BOUNDS
1002
{
1070
    19
1002
}
  0
LINE
  5
4E5
100
AcDbEntity
  8
TABELLA
  6
CONTINUOUS
100
AcDbLine
 10
81.051152
 20
14.215335
 30
0.0
 11
82.055262
 21
11.456564
 31
0.0
1001
ACAD
1000
ASC_BOUNDS
1002
{
1070
    19
1002
}
  0
LINE
  5
4E6
100
AcDbEntity
  8
TABELLA
  6
CONTINUOUS
100
AcDbLine
 10
79.986974
 20
14.215335
 30
0.0
 11
81.355055
 21
10.456564
 31
0.0
1001
ACAD
1000
ASC_BOUNDS
1002
{
1070
    19
1002
}
  0
LINE
  5
4E7
100
AcDbEntity
  8
TABELLA
  6
CONTINUOUS
100
AcDbLine
 10
100.782064
 20
35.387067
 30
0.0
 11
100.782064
 21
25.387067
 31
0.0
  0
TEXT
  5
4E8
100
AcDbEntity
  8
TABELLA
  6
CONTINUOUS
100
AcDbText
 10
1.185497
 20
230.800736
 30
0.0
 40
4.0
  1
G
100
AcDbText
  0
LINE
  5
4E9
100
AcDbEntity
  8
TABELLA
  6
CONTINUOUS
100
AcDbLine
 10
0.782064
 20
146.387067
 30
0.0
 11
5.782064
 21
143.887067
 31
0.0
  0
LINE
  5
4EA
100
AcDbEntity
  8
TABELLA
  6
CONTINUOUS
100
AcDbLine
 10
5.782064
 20
143.887067
 30
0.0
 11
0.782064
 21
143.887067
 31
0.0
  0
LINE
  5
4EB
100
AcDbEntity
  8
TABELLA
  6
CONTINUOUS
100
AcDbLine
 10
0.782064
 20
143.887067
 30
0.0
 11
0.782064
 21
146.387067
 31
0.0
  0
TEXT
  5
4EC
100
AcDbEntity
  8
TABELLA
  6
CONTINUOUS
100
AcDbText
 10
1.601651
 20
158.319393
 30
0.0
 40
4.0
  1
E
100
AcDbText
  0
LINE
  5
4ED
100
AcDbEntity
  8
TABELLA
  6
CONTINUOUS
100
AcDbLine
 10
5.782064
 20
179.762067
 30
0.0
 11
0.782064
 21
179.762067
 31
0.0
  0
TEXT
  5
4EE
100
AcDbEntity
  8
TABELLA
  6
CONTINUOUS
100
AcDbText
 10
1.185497
 20
195.309687
 30
0.0
 40
4.0
  1
F
100
AcDbText
  0
LINE
  5
4EF
100
AcDbEntity
  8
TABELLA
  6
CONTINUOUS
100
AcDbLine
 10
5.782064
 20
215.637067
 30
0.0
 11
0.782064
 21
215.637067
 31
0.0
  0
LINE
  5
4F0
100
AcDbEntity
  8
TABELLA
  6
CONTINUOUS
100
AcDbLine
 10
5.782064
 20
251.512067
 30
0.0
 11
0.782064
 21
251.512067
 31
0.0
  0
TEXT
  5
4F1
100
AcDbEntity
  8
TABELLA
  6
CONTINUOUS
100
AcDbText
 10
1.185497
 20
268.206651
 30
0.0
 40
4.0
  1
H
100
AcDbText
  0
TEXT
  5
4F2
100
AcDbEntity
  8
TABELLA
  6
CONTINUOUS
100
AcDbText
 10
15.583224
 20
283.209827
 30
0.0
 40
4.0
  1
6
100
AcDbText
  0
LINE
  5
4F3
100
AcDbEntity
  8
TABELLA
  6
CONTINUOUS
100
AcDbLine
 10
34.115064
 20
282.387067
 30
0.0
 11
34.115064
 21
287.387067
 31
0.0
  0
TEXT
  5
4F4
100
AcDbEntity
  8
TABELLA
  6
CONTINUOUS
100
AcDbText
 10
50.12407
 20
283.250638
 30
0.0
 40
4.0
  1
5
100
AcDbText
  0
LINE
  5
4F5
100
AcDbEntity
  8
TABELLA
  6
CONTINUOUS
100
AcDbLine
 10
67.448064
 20
282.387067
 30
0.0
 11
67.448064
 21
287.387067
 31
0.0
  0
TEXT
  5
4F6
100
AcDbEntity
  8
TABELLA
  6
CONTINUOUS
100
AcDbText
 10
83.832607
 20
283.250638
 30
0.0
 40
4.0
  1
4
100
AcDbText
  0
LINE
  5
4F7
100
AcDbEntity
  8
TABELLA
  6
CONTINUOUS
100
AcDbLine
 10
100.781064
 20
282.387067
 30
0.0
 11
98.281064
 21
287.387067
 31
0.0
  0
LINE
  5
4F8
100
AcDbEntity
  8
TABELLA
  6
CONTINUOUS
100
AcDbLine
 10
100.781064
 20
282.387067
 30
0.0
 11
100.781064
 21
287.387067
 31
0.0
  0
LINE
  5
4F9
100
AcDbEntity
  8
TABELLA
  6
CONTINUOUS
100
AcDbLine
 10
100.781064
 20
287.387067
 30
0.0
 11
98.281064
 21
287.387067
 31
0.0
  0
LINE
  5
4FA
100
AcDbEntity
  8
TABELLA
  6
CONTINUOUS
100
AcDbLine
 10
200.782064
 20
141.387067
 30
0.0
 11
195.782064
 21
143.887067
 31
0.0
  0
LINE
  5
4FB
100
AcDbEntity
  8
TABELLA
  6
CONTINUOUS
100
AcDbLine
 10
200.782064
 20
143.887067
 30
0.0
 11
200.782064
 21
141.387067
 31
0.0
  0
LINE
  5
4FC
100
AcDbEntity
  8
TABELLA
  6
CONTINUOUS
100
AcDbLine
 10
191.781227
 20
165.387241
 30
0.0
 11
191.781227
 21
45.387241
 31
0.0
  0
LINE
  5
4FD
100
AcDbEntity
  8
TABELLA
  6
CONTINUOUS
100
AcDbLine
 10
195.782064
 20
5.387067
 30
0.0
 11
195.782064
 21
282.387067
 31
0.0
  0
TEXT
  5
4FE
100
AcDbEntity
  8
TABELLA
  6
CONTINUOUS
100
AcDbText
 10
147.267168
 20
42.484843
 30
0.0
 40
2.0
  1
Trattamento Termico
100
AcDbText
  0
TEXT
  5
4FF
100
AcDbEntity
  8
TABELLA
  6
CONTINUOUS
100
AcDbText
 10
161.83968
 20
32.089683
 30
0.0
 40
2.0
  1
Scala
100
AcDbText
  0
TEXT
  5
500
100
AcDbEntity
  8
TABELLA
  6
CONTINUOUS
100
AcDbText
 10
162.070991
 20
12.223377
 30
0.0
 40
2.0
  1
Data
100
AcDbText
  0
LINE
  5
501
100
AcDbEntity
  8
TABELLA
  6
CONTINUOUS
100
AcDbLine
 10
125.782064
 20
35.387067
 30
0.0
 11
195.782064
 21
35.387067
 31
0.0
  0
LINE
  5
502
100
AcDbEntity
  8
TABELLA
  6
CONTINUOUS
100
AcDbLine
 10
125.782064
 20
25.387067
 30
0.0
 11
195.782064
 21
25.387067
 31
0.0
  0
LINE
  5
503
100
AcDbEntity
  8
TABELLA
  6
CONTINUOUS
100
AcDbLine
 10
120.666552
 20
15.457427
 30
0.0
 11
195.782064
 21
15.387067
 31
0.0
  0
TEXT
  5
504
100
AcDbEntity
  8
TABELLA
  6
CONTINUOUS
100
AcDbText
 10
116.965597
 20
42.484843
 30
0.0
 40
2.0
  1
Dimensioni di prelievo
100
AcDbText
  0
TEXT
  5
505
100
AcDbEntity
  8
TABELLA
  6
CONTINUOUS
100
AcDbText
 10
126.911915
 20
32.089683
 30
0.0
 40
2.0
  1
Approvato da - data
100
AcDbText
  0
TEXT
  5
506
100
AcDbEntity
  8
TABELLA
  6
CONTINUOUS
100
AcDbText
 10
121.823101
 20
22.387534
 30
0.0
 40
2.0
  1
Particolare
100
AcDbText
  0
LINE
  5
507
100
AcDbEntity
  8
TABELLA
  6
CONTINUOUS
100
AcDbLine
 10
120.782064
 20
15.387067
 30
0.0
 11
120.782064
 21
5.387067
 31
0.0
  0
TEXT
  5
508
100
AcDbEntity
  8
TABELLA
  6
CONTINUOUS
100
AcDbText
 10
116.708833
 20
0.138446
 30
0.0
 40
4.0
  1
3
100
AcDbText
  0
LINE
  5
509
100
AcDbEntity
  8
TABELLA
  6
CONTINUOUS
100
AcDbLine
 10
116.711078
 20
19.853491
 30
0.0
 11
115.706968
 21
22.612261
 31
0.0
1001
ACAD
1000
ASC_BOUNDS
1002
{
1070
    19
1002
}
  0
LINE
  5
50A
100
AcDbEntity
  8
TABELLA
  6
CONTINUOUS
100
AcDbLine
 10
113.654847
 20
11.456564
 30
0.0
 11
116.711078
 21
19.853491
 31
0.0
1001
ACAD
1000
ASC_BOUNDS
1002
{
1070
    19
1002
}
  0
LINE
  5
50B
100
AcDbEntity
  8
TABELLA
  6
CONTINUOUS
100
AcDbLine
 10
114.355055
 20
10.456564
 30
0.0
 11
117.775256
 21
19.853491
 31
0.0
1001
ACAD
1000
ASC_BOUNDS
1002
{
1070
    19
1002
}
  0
TEXT
  5
50C
100
AcDbEntity
  8
TABELLA
  6
CONTINUOUS
100
AcDbText
 10
101.930465
 20
32.089683
 30
0.0
 40
2.0
  1
Controllato da
100
AcDbText
  0
LINE
  5
50D
100
AcDbEntity
  8
TABELLA
  6
CONTINUOUS
100
AcDbLine
 10
115.782064
 20
35.387067
 30
0.0
 11
115.782064
 21
45.387067
 31
0.0
  0
LINE
  5
50E
100
AcDbEntity
  8
TABELLA
  6
CONTINUOUS
100
AcDbLine
 10
125.782064
 20
35.387067
 30
0.0
 11
125.782064
 21
25.387067
 31
0.0
  0
TEXT
  5
50F
100
AcDbEntity
  8
TABELLA
  6
CONTINUOUS
100
AcDbText
 10
121.591791
 20
12.223377
 30
0.0
 40
2.0
  1
Disegno
100
AcDbText
  0
LINE
  5
510
100
AcDbEntity
  8
TABELLA
  6
CONTINUOUS
100
AcDbLine
 10
117.775256
 20
19.853491
 30
0.0
 11
116.407176
 21
23.612261
 31
0.0
1001
ACAD
1000
ASC_BOUNDS
1002
{
1070
    19
1002
}
  0
LINE
  5
511
100
AcDbEntity
  8
TABELLA
  6
CONTINUOUS
100
AcDbLine
 10
120.782064
 20
25.387067
 30
0.0
 11
120.782064
 21
15.387067
 31
0.0
  0
LINE
  5
512
100
AcDbEntity
  8
TABELLA
  6
CONTINUOUS
100
AcDbLine
 10
160.782064
 20
15.387067
 30
0.0
 11
160.782064
 21
5.387067
 31
0.0
  0
LINE
  5
513
100
AcDbEntity
  8
TABELLA
  6
CONTINUOUS
100
AcDbLine
 10
134.114064
 20
5.387067
 30
0.0
 11
134.114064
 21
0.387067
 31
0.0
  0
TEXT
  5
514
100
AcDbEntity
  8
TABELLA
  6
CONTINUOUS
100
AcDbText
 10
150.41737
 20
0.138446
 30
0.0
 40
4.0
  1
2
100
AcDbText
  0
LINE
  5
515
100
AcDbEntity
  8
TABELLA
  6
CONTINUOUS
100
AcDbLine
 10
145.782064
 20
35.387067
 30
0.0
 11
145.782064
 21
45.387067
 31
0.0
  0
LINE
  5
516
100
AcDbEntity
  8
TABELLA
  6
CONTINUOUS
100
AcDbLine
 10
160.782064
 20
35.387067
 30
0.0
 11
160.782064
 21
25.387067
 31
0.0
  0
TEXT
  5
517
100
AcDbEntity
  8
TABELLA
  6
CONTINUOUS
100
AcDbText
 10
197.026704
 20
51.259863
 30
0.0
 40
4.0
  1
B
100
AcDbText
  0
TEXT
  5
518
100
AcDbEntity
  8
TABELLA
  6
CONTINUOUS
100
AcDbText
 10
195.001816
 20
46.303578
 30
0.0
 40
2.0
  1
N° rev.
 50
90.0
100
AcDbText
  0
LINE
  5
519
100
AcDbEntity
  8
TABELLA
  6
CONTINUOUS
100
AcDbLine
 10
176.747411
 20
30.474182
 30
0.0
 11
194.673913
 21
30.474182
 31
0.0
  0
LINE
  5
51A
100
AcDbEntity
  8
TABELLA
  6
CONTINUOUS
100
AcDbLine
 10
180.782064
 20
15.387067
 30
0.0
 11
180.782064
 21
5.387067
 31
0.0
  0
LINE
  5
51B
100
AcDbEntity
  8
TABELLA
  6
CONTINUOUS
100
AcDbLine
 10
167.447064
 20
5.387067
 30
0.0
 11
167.447064
 21
0.387067
 31
0.0
  0
TEXT
  5
51C
100
AcDbEntity
  8
TABELLA
  6
CONTINUOUS
100
AcDbText
 10
184.542061
 20
0.138446
 30
0.0
 40
4.0
  1
1
100
AcDbText
  0
LINE
  5
51D
100
AcDbEntity
  8
TABELLA
  6
CONTINUOUS
100
AcDbLine
 10
176.747411
 20
31.974182
 30
0.0
 11
182.656258
 21
33.016071
 31
0.0
  0
LINE
  5
51E
100
AcDbEntity
  8
TABELLA
  6
CONTINUOUS
100
AcDbLine
 10
176.747411
 20
28.974182
 30
0.0
 11
182.656258
 21
27.932293
 31
0.0
  0
LINE
  5
51F
100
AcDbEntity
  8
TABELLA
  6
CONTINUOUS
100
AcDbLine
 10
176.747411
 20
31.974182
 30
0.0
 11
176.747411
 21
28.974182
 31
0.0
  0
LINE
  5
520
100
AcDbEntity
  8
TABELLA
  6
CONTINUOUS
100
AcDbLine
 10
175.782064
 20
35.387067
 30
0.0
 11
175.782064
 21
25.387067
 31
0.0
  0
CIRCLE
  5
521
100
AcDbEntity
  8
TABELLA
  6
CONTINUOUS
100
AcDbCircle
 10
189.932065
 20
30.474182
 30
0.0
 40
1.5
  0
LINE
  5
522
100
AcDbEntity
  8
TABELLA
  6
CONTINUOUS
100
AcDbLine
 10
189.932065
 20
28.369782
 30
0.0
 11
189.932065
 21
32.578582
 31
0.0
  0
CIRCLE
  5
523
100
AcDbEntity
  8
TABELLA
  6
CONTINUOUS
100
AcDbCircle
 10
189.932065
 20
30.474182
 30
0.0
 40
2.54
  0
LINE
  5
524
100
AcDbEntity
  8
TABELLA
  6
CONTINUOUS
100
AcDbLine
 10
182.656258
 20
33.016071
 30
0.0
 11
182.656258
 21
27.932293
 31
0.0
  0
TEXT
  5
525
100
AcDbEntity
  8
TABELLA
  6
CONTINUOUS
100
AcDbText
 10
181.963625
 20
11.992375
 30
0.0
 40
2.0
  1
Formato
100
AcDbText
  0
LINE
  5
526
100
AcDbEntity
  8
TABELLA
  6
CONTINUOUS
100
AcDbLine
 10
187.827665
 20
30.474182
 30
0.0
 11
192.036465
 21
30.474182
 31
0.0
  0
LINE
  5
527
100
AcDbEntity
  8
TABELLA
  6
CONTINUOUS
100
AcDbLine
 10
195.782064
 20
5.387067
 30
0.0
 11
195.782064
 21
35.387067
 31
0.0
  0
TEXT
  5
528
100
AcDbEntity
  8
TABELLA
  6
CONTINUOUS
100
AcDbText
 10
197.026704
 20
14.685191
 30
0.0
 40
4.0
  1
A
100
AcDbText
  0
LINE
  5
529
100
AcDbEntity
  8
TABELLA
  6
CONTINUOUS
100
AcDbLine
 10
195.782064
 20
36.262067
 30
0.0
 11
200.782064
 21
36.262067
 31
0.0
  0
TEXT
  5
52A
100
AcDbEntity
  8
TABELLA
  6
CONTINUOUS
100
AcDbText
 10
195.209894
 20
130.984517
 30
0.0
 40
2.0
  1
Data
 50
90.0
100
AcDbText
  0
TEXT
  5
52B
100
AcDbEntity
  8
TABELLA
  6
CONTINUOUS
100
AcDbText
 10
195.209894
 20
56.278486
 30
0.0
 40
2.0
  1
Nota di revisione
 50
90.0
100
AcDbText
  0
LINE
  5
52C
100
AcDbEntity
  8
TABELLA
  6
CONTINUOUS
100
AcDbLine
 10
191.781227
 20
55.387241
 30
0.0
 11
195.782064
 21
55.387241
 31
0.0
  0
LINE
  5
52D
100
AcDbEntity
  8
TABELLA
  6
CONTINUOUS
100
AcDbLine
 10
191.781227
 20
130.387241
 30
0.0
 11
195.782064
 21
130.387241
 31
0.0
  0
LINE
  5
52E
100
AcDbEntity
  8
TABELLA
  6
CONTINUOUS
100
AcDbLine
 10
195.782064
 20
72.137067
 30
0.0
 11
200.782064
 21
72.137067
 31
0.0
  0
TEXT
  5
52F
100
AcDbEntity
  8
TABELLA
  6
CONTINUOUS
100
AcDbText
 10
197.442859
 20
87.459725
 30
0.0
 40
4.0
  1
C
100
AcDbText
  0
LINE
  5
530
100
AcDbEntity
  8
TABELLA
  6
CONTINUOUS
100
AcDbLine
 10
195.782064
 20
108.012067
 30
0.0
 11
200.782064
 21
108.012067
 31
0.0
  0
TEXT
  5
531
100
AcDbEntity
  8
TABELLA
  6
CONTINUOUS
100
AcDbText
 10
197.442859
 20
123.618776
 30
0.0
 40
4.0
  1
D
100
AcDbText
  0
TEXT
  5
532
100
AcDbEntity
  8
TABELLA
  6
CONTINUOUS
100
AcDbText
 10
116.708835
 20
283.250638
 30
0.0
 40
4.0
  1
3
100
AcDbText
  0
LINE
  5
533
100
AcDbEntity
  8
TABELLA
  6
CONTINUOUS
100
AcDbLine
 10
134.114064
 20
282.387067
 30
0.0
 11
134.114064
 21
287.387067
 31
0.0
  0
TEXT
  5
534
100
AcDbEntity
  8
TABELLA
  6
CONTINUOUS
100
AcDbText
 10
150.417372
 20
283.250638
 30
0.0
 40
4.0
  1
2
100
AcDbText
  0
TEXT
  5
535
100
AcDbEntity
  8
TABELLA
  6
CONTINUOUS
100
AcDbText
 10
197.026704
 20
230.800736
 30
0.0
 40
4.0
  1
G
100
AcDbText
  0
TEXT
  5
536
100
AcDbEntity
  8
TABELLA
  6
CONTINUOUS
100
AcDbText
 10
195.209894
 20
155.7956
 30
0.0
 40
2.0
  1
Control.
 50
90.0
100
AcDbText
  0
TEXT
  5
537
100
AcDbEntity
  8
TABELLA
  6
CONTINUOUS
100
AcDbText
 10
195.209894
 20
146.028502
 30
0.0
 40
2.0
  1
Firma
 50
90.0
100
AcDbText
  0
LINE
  5
538
100
AcDbEntity
  8
TABELLA
  6
CONTINUOUS
100
AcDbLine
 10
191.781227
 20
145.387241
 30
0.0
 11
195.782064
 21
145.387241
 31
0.0
  0
LINE
  5
539
100
AcDbEntity
  8
TABELLA
  6
CONTINUOUS
100
AcDbLine
 10
191.781227
 20
155.387241
 30
0.0
 11
195.782064
 21
155.387241
 31
0.0
  0
LINE
  5
53A
100
AcDbEntity
  8
TABELLA
  6
CONTINUOUS
100
AcDbLine
 10
191.781227
 20
165.387241
 30
0.0
 11
195.782064
 21
165.387241
 31
0.0
  0
LINE
  5
53B
100
AcDbEntity
  8
TABELLA
  6
CONTINUOUS
100
AcDbLine
 10
195.782064
 20
143.887067
 30
0.0
 11
200.782064
 21
146.387067
 31
0.0
  0
LINE
  5
53C
100
AcDbEntity
  8
TABELLA
  6
CONTINUOUS
100
AcDbLine
 10
195.782064
 20
143.887067
 30
0.0
 11
200.782064
 21
143.887067
 31
0.0
  0
LINE
  5
53D
100
AcDbEntity
  8
TABELLA
  6
CONTINUOUS
100
AcDbLine
 10
200.782064
 20
143.887067
 30
0.0
 11
200.782064
 21
146.387067
 31
0.0
  0
TEXT
  5
53E
100
AcDbEntity
  8
TABELLA
  6
CONTINUOUS
100
AcDbText
 10
197.442859
 20
158.319393
 30
0.0
 40
4.0
  1
E
100
AcDbText
  0
LINE
  5
53F
100
AcDbEntity
  8
TABELLA
  6
CONTINUOUS
100
AcDbLine
 10
195.782064
 20
179.762067
 30
0.0
 11
200.782064
 21
179.762067
 31
0.0
  0
TEXT
  5
540
100
AcDbEntity
  8
TABELLA
  6
CONTINUOUS
100
AcDbText
 10
197.859013
 20
195.309687
 30
0.0
 40
4.0
  1
F
100
AcDbText
  0
LINE
  5
541
100
AcDbEntity
  8
TABELLA
  6
CONTINUOUS
100
AcDbLine
 10
195.782064
 20
215.637067
 30
0.0
 11
200.782064
 21
215.637067
 31
0.0
  0
LINE
  5
542
100
AcDbEntity
  8
TABELLA
  6
CONTINUOUS
100
AcDbLine
 10
167.447064
 20
282.387067
 30
0.0
 11
167.447064
 21
287.387067
 31
0.0
  0
TEXT
  5
543
100
AcDbEntity
  8
TABELLA
  6
CONTINUOUS
100
AcDbText
 10
184.958217
 20
283.250638
 30
0.0
 40
4.0
  1
1
100
AcDbText
  0
LINE
  5
544
100
AcDbEntity
  8
TABELLA
  6
CONTINUOUS
100
AcDbLine
 10
195.782064
 20
282.387067
 30
0.0
 11
195.782064
 21
278.387067
 31
0.0
  0
LINE
  5
545
100
AcDbEntity
  8
TABELLA
  6
CONTINUOUS
100
AcDbLine
 10
195.782064
 20
251.512067
 30
0.0
 11
200.782064
 21
251.512067
 31
0.0
  0
TEXT
  5
546
100
AcDbEntity
  8
TABELLA
  6
CONTINUOUS
100
AcDbText
 10
197.026704
 20
268.206651
 30
0.0
 40
4.0
  1
H
100
AcDbText
  0
ENDBLK
  5
548
100
AcDbEntity
  8
QUOTE
100
AcDbBlockEnd
  0
BLOCK
  5
73E
100
AcDbEntity
  8
0
100
AcDbBlockBegin
  2
*D2
 70
    65
 10
0.0
 20
0.0
 30
0.0
  3
*D2
  1

  0
LINE
  5
73F
100
AcDbEntity
  8
0
  6
BYBLOCK
 62
     0
100
AcDbLine
 10
-1859.21752
 20
-1407.272758
 30
0.0
 11
-1859.21752
 21
-1394.447337
 31
0.0
  0
LINE
  5
740
100
AcDbEntity
  8
0
  6
BYBLOCK
 62
     0
100
AcDbLine
 10
-1846.21752
 20
-1407.272758
 30
0.0
 11
-1846.21752
 21
-1394.447337
 31
0.0
  0
LINE
  5
741
100
AcDbEntity
  8
0
  6
BYBLOCK
 62
     0
100
AcDbLine
 10
-1848.71752
 20
-1395.697337
 30
0.0
 11
-1856.71752
 21
-1395.697337
 31
0.0
  0
LINE
  5
742
100
AcDbEntity
  8
0
  6
BYBLOCK
 62
     0
100
AcDbLine
 10
-1859.21752
 20
-1395.697337
 30
0.0
 11
-1874.136208
 21
-1395.697337
 31
0.0
  0
SOLID
  5
743
100
AcDbEntity
  8
0
  6
BYBLOCK
 62
     0
100
AcDbTrace
 10
-1848.71752
 20
-1395.28067
 30
0.0
 11
-1848.71752
 21
-1396.114004
 31
0.0
 12
-1846.21752
 22
-1395.697337
 32
0.0
 13
-1846.21752
 23
-1395.697337
 33
0.0
  0
SOLID
  5
744
100
AcDbEntity
  8
0
  6
BYBLOCK
 62
     0
100
AcDbTrace
 10
-1856.71752
 20
-1395.28067
 30
0.0
 11
-1856.71752
 21
-1396.114004
 31
0.0
 12
-1859.21752
 22
-1395.697337
 32
0.0
 13
-1859.21752
 23
-1395.697337
 33
0.0
  0
MTEXT
  5
745
100
AcDbEntity
  8
0
  6
BYBLOCK
 62
     0
100
AcDbMText
 10
-1867.439208
 20
-1392.331628
 30
0.0
 40
3.0
 41
0.0
 71
     5
 72
     1
  1
\A2;13{\H2.400000;\S+0.02^  0;}
  0
POINT
  5
746
100
AcDbEntity
  8
DEFPOINTS
  6
BYBLOCK
 62
     0
100
AcDbPoint
 10
-1859.21752
 20
-1407.897758
 30
0.0
  0
POINT
  5
747
100
AcDbEntity
  8
DEFPOINTS
  6
BYBLOCK
 62
     0
100
AcDbPoint
 10
-1846.21752
 20
-1407.897758
 30
0.0
  0
POINT
  5
748
100
AcDbEntity
  8
DEFPOINTS
  6
BYBLOCK
 62
     0
100
AcDbPoint
 10
-1846.21752
 20
-1395.697337
 30
0.0
  0
ENDBLK
  5
749
100
AcDbEntity
  8
0
100
AcDbBlockEnd
  0
BLOCK
  5
762
100
AcDbEntity
  8
0
100
AcDbBlockBegin
  2
*D3
 70
    65
 10
0.0
 20
0.0
 30
0.0
  3
*D3
  1

  0
LINE
  5
763
100
AcDbEntity
  8
0
  6
BYBLOCK
 62
     0
100
AcDbLine
 10
-1846.21752
 20
-1407.272758
 30
0.0
 11
-1846.21752
 21
-1394.392051
 31
0.0
  0
LINE
  5
764
100
AcDbEntity
  8
0
  6
BYBLOCK
 62
     0
100
AcDbLine
 10
-1839.21752
 20
-1395.346947
 30
0.0
 11
-1839.21752
 21
-1396.892051
 31
0.0
  0
LINE
  5
765
100
AcDbEntity
  8
0
  6
BYBLOCK
 62
     0
100
AcDbLine
 10
-1843.71752
 20
-1395.642051
 30
0.0
 11
-1841.71752
 21
-1395.642051
 31
0.0
  0
LINE
  5
766
100
AcDbEntity
  8
0
  6
BYBLOCK
 62
     0
100
AcDbLine
 10
-1839.21752
 20
-1395.642051
 30
0.0
 11
-1822.629542
 21
-1395.642051
 31
0.0
  0
SOLID
  5
767
100
AcDbEntity
  8
0
  6
BYBLOCK
 62
     0
100
AcDbTrace
 10
-1843.71752
 20
-1395.225385
 30
0.0
 11
-1843.71752
 21
-1396.058718
 31
0.0
 12
-1846.21752
 22
-1395.642051
 32
0.0
 13
-1846.21752
 23
-1395.642051
 33
0.0
  0
SOLID
  5
768
100
AcDbEntity
  8
0
  6
BYBLOCK
 62
     0
100
AcDbTrace
 10
-1841.71752
 20
-1395.225385
 30
0.0
 11
-1841.71752
 21
-1396.058718
 31
0.0
 12
-1839.21752
 22
-1395.642051
 32
0.0
 13
-1839.21752
 23
-1395.642051
 33
0.0
  0
MTEXT
  5
769
100
AcDbEntity
  8
0
  6
BYBLOCK
 62
     0
100
AcDbMText
 10
-1827.841542
 20
-1393.517051
 30
0.0
 40
3.0
 41
0.0
 71
     5
 72
     1
  1
\A2;7{\H2.400000;±0.01}
  0
POINT
  5
76A
100
AcDbEntity
  8
DEFPOINTS
  6
BYBLOCK
 62
     0
100
AcDbPoint
 10
-1846.21752
 20
-1407.897758
 30
0.0
  0
POINT
  5
76B
100
AcDbEntity
  8
DEFPOINTS
  6
BYBLOCK
 62
     0
100
AcDbPoint
 10
-1839.21752
 20
-1394.721947
 30
0.0
  0
POINT
  5
76C
100
AcDbEntity
  8
DEFPOINTS
  6
BYBLOCK
 62
     0
100
AcDbPoint
 10
-1839.21752
 20
-1395.642051
 30
0.0
  0
ENDBLK
  5
76D
100
AcDbEntity
  8
0
100
AcDbBlockEnd
  0
BLOCK
  5
71B
100
AcDbEntity
  8
0
100
AcDbBlockBegin
  2
*D4
 70
    65
 10
0.0
 20
0.0
 30
0.0
  3
*D4
  1

  0
LINE
  5
71C
100
AcDbEntity
  8
0
  6
BYBLOCK
 62
     0
100
AcDbLine
 10
-1859.21752
 20
-1407.272758
 30
0.0
 11
-1859.21752
 21
-1386.459887
 31
0.0
  0
LINE
  5
71D
100
AcDbEntity
  8
0
  6
BYBLOCK
 62
     0
100
AcDbLine
 10
-1833.21752
 20
-1437.272758
 30
0.0
 11
-1833.21752
 21
-1386.459887
 31
0.0
  0
LINE
  5
71E
100
AcDbEntity
  8
0
  6
BYBLOCK
 62
     0
100
AcDbLine
 10
-1856.71752
 20
-1387.709887
 30
0.0
 11
-1835.71752
 21
-1387.709887
 31
0.0
  0
SOLID
  5
71F
100
AcDbEntity
  8
0
  6
BYBLOCK
 62
     0
100
AcDbTrace
 10
-1856.71752
 20
-1387.293221
 30
0.0
 11
-1856.71752
 21
-1388.126554
 31
0.0
 12
-1859.21752
 22
-1387.709887
 32
0.0
 13
-1859.21752
 23
-1387.709887
 33
0.0
  0
SOLID
  5
720
100
AcDbEntity
  8
0
  6
BYBLOCK
 62
     0
100
AcDbTrace
 10
-1835.71752
 20
-1387.293221
 30
0.0
 11
-1835.71752
 21
-1388.126554
 31
0.0
 12
-1833.21752
 22
-1387.709887
 32
0.0
 13
-1833.21752
 23
-1387.709887
 33
0.0
  0
MTEXT
  5
721
100
AcDbEntity
  8
0
  6
BYBLOCK
 62
     0
100
AcDbMText
 10
-1846.21752
 20
-1384.344179
 30
0.0
 40
3.0
 41
0.0
 71
     5
 72
     1
  1
\A2;26{\H2.400000;\S+0.02^  0;}
  0
POINT
  5
722
100
AcDbEntity
  8
DEFPOINTS
  6
BYBLOCK
 62
     0
100
AcDbPoint
 10
-1859.21752
 20
-1407.897758
 30
0.0
  0
POINT
  5
723
100
AcDbEntity
  8
DEFPOINTS
  6
BYBLOCK
 62
     0
100
AcDbPoint
 10
-1833.21752
 20
-1437.897758
 30
0.0
  0
POINT
  5
724
100
AcDbEntity
  8
DEFPOINTS
  6
BYBLOCK
 62
     0
100
AcDbPoint
 10
-1833.21752
 20
-1387.709887
 30
0.0
  0
ENDBLK
  5
725
100
AcDbEntity
  8
0
100
AcDbBlockEnd
  0
BLOCK
  5
591
100
AcDbEntity
  8
0
100
AcDbBlockBegin
  2
*D5
 70
    65
 10
0.0
 20
0.0
 30
0.0
  3
*D5
  1

  0
LINE
  5
592
100
AcDbEntity
  8
0
  6
BYBLOCK
 62
     0
100
AcDbLine
 10
-1859.84252
 20
-1407.897758
 30
0.0
 11
-1875.126107
 21
-1407.897758
 31
0.0
  0
LINE
  5
593
100
AcDbEntity
  8
0
  6
BYBLOCK
 62
     0
100
AcDbLine
 10
-1859.84252
 20
-1424.897758
 30
0.0
 11
-1875.126107
 21
-1424.897758
 31
0.0
  0
LINE
  5
594
100
AcDbEntity
  8
0
  6
BYBLOCK
 62
     0
100
AcDbLine
 10
-1873.876107
 20
-1410.397758
 30
0.0
 11
-1873.876107
 21
-1422.397758
 31
0.0
  0
SOLID
  5
595
100
AcDbEntity
  8
0
  6
BYBLOCK
 62
     0
100
AcDbTrace
 10
-1874.292774
 20
-1410.397758
 30
0.0
 11
-1873.459441
 21
-1410.397758
 31
0.0
 12
-1873.876107
 22
-1407.897758
 32
0.0
 13
-1873.876107
 23
-1407.897758
 33
0.0
  0
SOLID
  5
596
100
AcDbEntity
  8
0
  6
BYBLOCK
 62
     0
100
AcDbTrace
 10
-1874.292774
 20
-1422.397758
 30
0.0
 11
-1873.459441
 21
-1422.397758
 31
0.0
 12
-1873.876107
 22
-1424.897758
 32
0.0
 13
-1873.876107
 23
-1424.897758
 33
0.0
  0
MTEXT
  5
597
100
AcDbEntity
  8
0
  6
BYBLOCK
 62
     0
100
AcDbMText
 10
-1876.001107
 20
-1416.397758
 30
0.0
 40
3.0
 41
0.0
 71
     5
 72
     1
  1
\A1;17
 11
0.0
 21
1.0
 31
0.0
  0
POINT
  5
598
100
AcDbEntity
  8
DEFPOINTS
  6
BYBLOCK
 62
     0
100
AcDbPoint
 10
-1859.21752
 20
-1407.897758
 30
0.0
  0
POINT
  5
599
100
AcDbEntity
  8
DEFPOINTS
  6
BYBLOCK
 62
     0
100
AcDbPoint
 10
-1859.21752
 20
-1424.897758
 30
0.0
  0
POINT
  5
59A
100
AcDbEntity
  8
DEFPOINTS
  6
BYBLOCK
 62
     0
100
AcDbPoint
 10
-1873.876107
 20
-1424.897758
 30
0.0
  0
ENDBLK
  5
59B
100
AcDbEntity
  8
0
100
AcDbBlockEnd
  0
BLOCK
  5
59E
100
AcDbEntity
  8
0
100
AcDbBlockBegin
  2
*D6
 70
    65
 10
0.0
 20
0.0
 30
0.0
  3
*D6
  1

  0
LINE
  5
59F
100
AcDbEntity
  8
0
  6
BYBLOCK
 62
     0
100
AcDbLine
 10
-1859.84252
 20
-1424.897758
 30
0.0
 11
-1875.126107
 21
-1424.897758
 31
0.0
  0
LINE
  5
5A0
100
AcDbEntity
  8
0
  6
BYBLOCK
 62
     0
100
AcDbLine
 10
-1859.84252
 20
-1433.297758
 30
0.0
 11
-1875.126107
 21
-1433.297758
 31
0.0
  0
LINE
  5
5A1
100
AcDbEntity
  8
0
  6
BYBLOCK
 62
     0
100
AcDbLine
 10
-1873.876107
 20
-1422.397758
 30
0.0
 11
-1873.876107
 21
-1419.897758
 31
0.0
  0
LINE
  5
5A2
100
AcDbEntity
  8
0
  6
BYBLOCK
 62
     0
100
AcDbLine
 10
-1873.876107
 20
-1435.797758
 30
0.0
 11
-1873.876107
 21
-1438.297758
 31
0.0
  0
SOLID
  5
5A3
100
AcDbEntity
  8
0
  6
BYBLOCK
 62
     0
100
AcDbTrace
 10
-1874.292774
 20
-1422.397758
 30
0.0
 11
-1873.459441
 21
-1422.397758
 31
0.0
 12
-1873.876107
 22
-1424.897758
 32
0.0
 13
-1873.876107
 23
-1424.897758
 33
0.0
  0
SOLID
  5
5A4
100
AcDbEntity
  8
0
  6
BYBLOCK
 62
     0
100
AcDbTrace
 10
-1874.292774
 20
-1435.797758
 30
0.0
 11
-1873.459441
 21
-1435.797758
 31
0.0
 12
-1873.876107
 22
-1433.297758
 32
0.0
 13
-1873.876107
 23
-1433.297758
 33
0.0
  0
MTEXT
  5
5A5
100
AcDbEntity
  8
0
  6
BYBLOCK
 62
     0
100
AcDbMText
 10
-1876.001107
 20
-1429.097758
 30
0.0
 40
3.0
 41
0.0
 71
     5
 72
     1
  1
\A1;8.4
 11
0.0
 21
1.0
 31
0.0
  0
POINT
  5
5A6
100
AcDbEntity
  8
DEFPOINTS
  6
BYBLOCK
 62
     0
100
AcDbPoint
 10
-1859.21752
 20
-1424.897758
 30
0.0
  0
POINT
  5
5A7
100
AcDbEntity
  8
DEFPOINTS
  6
BYBLOCK
 62
     0
100
AcDbPoint
 10
-1859.21752
 20
-1433.297758
 30
0.0
  0
POINT
  5
5A8
100
AcDbEntity
  8
DEFPOINTS
  6
BYBLOCK
 62
     0
100
AcDbPoint
 10
-1873.876107
 20
-1433.297758
 30
0.0
  0
ENDBLK
  5
5A9
100
AcDbEntity
  8
0
100
AcDbBlockEnd
  0
BLOCK
  5
5B9
100
AcDbEntity
  8
0
100
AcDbBlockBegin
  2
*D7
 70
    65
 10
0.0
 20
0.0
 30
0.0
  3
*D7
  1

  0
LINE
  5
5BA
100
AcDbEntity
  8
0
  6
BYBLOCK
 62
     0
100
AcDbLine
 10
-1859.21752
 20
-1424.272758
 30
0.0
 11
-1859.21752
 21
-1416.696633
 31
0.0
  0
LINE
  5
5BB
100
AcDbEntity
  8
0
  6
BYBLOCK
 62
     0
100
AcDbLine
 10
-1855.71752
 20
-1424.272758
 30
0.0
 11
-1855.71752
 21
-1416.696633
 31
0.0
  0
LINE
  5
5BC
100
AcDbEntity
  8
0
  6
BYBLOCK
 62
     0
100
AcDbLine
 10
-1861.71752
 20
-1417.946633
 30
0.0
 11
-1864.21752
 21
-1417.946633
 31
0.0
  0
LINE
  5
5BD
100
AcDbEntity
  8
0
  6
BYBLOCK
 62
     0
100
AcDbLine
 10
-1853.21752
 20
-1417.946633
 30
0.0
 11
-1846.58583
 21
-1417.946633
 31
0.0
  0
SOLID
  5
5BE
100
AcDbEntity
  8
0
  6
BYBLOCK
 62
     0
100
AcDbTrace
 10
-1861.71752
 20
-1417.529966
 30
0.0
 11
-1861.71752
 21
-1418.363299
 31
0.0
 12
-1859.21752
 22
-1417.946633
 32
0.0
 13
-1859.21752
 23
-1417.946633
 33
0.0
  0
SOLID
  5
5BF
100
AcDbEntity
  8
0
  6
BYBLOCK
 62
     0
100
AcDbTrace
 10
-1853.21752
 20
-1417.529966
 30
0.0
 11
-1853.21752
 21
-1418.363299
 31
0.0
 12
-1855.71752
 22
-1417.946633
 32
0.0
 13
-1855.71752
 23
-1417.946633
 33
0.0
  0
MTEXT
  5
5C0
100
AcDbEntity
  8
0
  6
BYBLOCK
 62
     0
100
AcDbMText
 10
-1849.589175
 20
-1415.821633
 30
0.0
 40
3.0
 41
0.0
 71
     5
 72
     1
  1
\A1;3.5
  0
POINT
  5
5C1
100
AcDbEntity
  8
DEFPOINTS
  6
BYBLOCK
 62
     0
100
AcDbPoint
 10
-1859.21752
 20
-1424.897758
 30
0.0
  0
POINT
  5
5C2
100
AcDbEntity
  8
DEFPOINTS
  6
BYBLOCK
 62
     0
100
AcDbPoint
 10
-1855.71752
 20
-1424.897758
 30
0.0
  0
POINT
  5
5C3
100
AcDbEntity
  8
DEFPOINTS
  6
BYBLOCK
 62
     0
100
AcDbPoint
 10
-1855.71752
 20
-1417.946633
 30
0.0
  0
ENDBLK
  5
5C4
100
AcDbEntity
  8
0
100
AcDbBlockEnd
  0
BLOCK
  5
9E4
100
AcDbEntity
  8
0
100
AcDbBlockBegin
  2
*D8
 70
    65
 10
0.0
 20
0.0
 30
0.0
  3
*D8
  1

  0
LINE
  5
9E5
100
AcDbEntity
  8
0
  6
BYBLOCK
 62
     0
100
AcDbLine
 10
-1845.59252
 20
-1407.897758
 30
0.0
 11
-1801.966202
 21
-1407.897758
 31
0.0
  0
LINE
  5
9E6
100
AcDbEntity
  8
0
  6
BYBLOCK
 62
     0
100
AcDbLine
 10
-1832.59252
 20
-1437.897758
 30
0.0
 11
-1801.966202
 21
-1437.897758
 31
0.0
  0
LINE
  5
9E7
100
AcDbEntity
  8
0
  6
BYBLOCK
 62
     0
100
AcDbLine
 10
-1803.216202
 20
-1410.397758
 30
0.0
 11
-1803.216202
 21
-1435.397758
 31
0.0
  0
SOLID
  5
9E8
100
AcDbEntity
  8
0
  6
BYBLOCK
 62
     0
100
AcDbTrace
 10
-1803.632869
 20
-1410.397758
 30
0.0
 11
-1802.799535
 21
-1410.397758
 31
0.0
 12
-1803.216202
 22
-1407.897758
 32
0.0
 13
-1803.216202
 23
-1407.897758
 33
0.0
  0
SOLID
  5
9E9
100
AcDbEntity
  8
0
  6
BYBLOCK
 62
     0
100
AcDbTrace
 10
-1803.632869
 20
-1435.397758
 30
0.0
 11
-1802.799535
 21
-1435.397758
 31
0.0
 12
-1803.216202
 22
-1437.897758
 32
0.0
 13
-1803.216202
 23
-1437.897758
 33
0.0
  0
MTEXT
  5
9EA
100
AcDbEntity
  8
0
  6
BYBLOCK
 62
     0
100
AcDbMText
 10
-1805.341202
 20
-1422.897758
 30
0.0
 40
3.0
 41
0.0
 71
     5
 72
     1
  1
\A1;30
 11
0.0
 21
1.0
 31
0.0
  0
POINT
  5
9EB
100
AcDbEntity
  8
DEFPOINTS
  6
BYBLOCK
 62
     0
100
AcDbPoint
 10
-1846.21752
 20
-1407.897758
 30
0.0
  0
POINT
  5
9EC
100
AcDbEntity
  8
DEFPOINTS
  6
BYBLOCK
 62
     0
100
AcDbPoint
 10
-1833.21752
 20
-1437.897758
 30
0.0
  0
POINT
  5
9ED
100
AcDbEntity
  8
DEFPOINTS
  6
BYBLOCK
 62
     0
100
AcDbPoint
 10
-1803.216202
 20
-1437.897758
 30
0.0
  0
ENDBLK
  5
9EE
100
AcDbEntity
  8
0
100
AcDbBlockEnd
  0
BLOCK
  5
5D5
100
AcDbEntity
  8
0
100
AcDbBlockBegin
  2
*D9
 70
    65
 10
0.0
 20
0.0
 30
0.0
  3
*D9
  1

  0
LINE
  5
5D6
100
AcDbEntity
  8
0
  6
BYBLOCK
 62
     0
100
AcDbLine
 10
-1832.59252
 20
-1437.897758
 30
0.0
 11
-1818.254289
 21
-1437.897758
 31
0.0
  0
LINE
  5
5D7
100
AcDbEntity
  8
0
  6
BYBLOCK
 62
     0
100
AcDbLine
 10
-1832.59252
 20
-1445.897758
 30
0.0
 11
-1818.254289
 21
-1445.897758
 31
0.0
  0
LINE
  5
5D8
100
AcDbEntity
  8
0
  6
BYBLOCK
 62
     0
100
AcDbLine
 10
-1819.504289
 20
-1440.397758
 30
0.0
 11
-1819.504289
 21
-1443.397758
 31
0.0
  0
SOLID
  5
5D9
100
AcDbEntity
  8
0
  6
BYBLOCK
 62
     0
100
AcDbTrace
 10
-1819.920956
 20
-1440.397758
 30
0.0
 11
-1819.087622
 21
-1440.397758
 31
0.0
 12
-1819.504289
 22
-1437.897758
 32
0.0
 13
-1819.504289
 23
-1437.897758
 33
0.0
  0
SOLID
  5
5DA
100
AcDbEntity
  8
0
  6
BYBLOCK
 62
     0
100
AcDbTrace
 10
-1819.920956
 20
-1443.397758
 30
0.0
 11
-1819.087622
 21
-1443.397758
 31
0.0
 12
-1819.504289
 22
-1445.897758
 32
0.0
 13
-1819.504289
 23
-1445.897758
 33
0.0
  0
MTEXT
  5
5DB
100
AcDbEntity
  8
0
  6
BYBLOCK
 62
     0
100
AcDbMText
 10
-1821.629289
 20
-1441.897758
 30
0.0
 40
3.0
 41
0.0
 71
     5
 72
     1
  1
\A1;8
 11
0.0
 21
1.0
 31
0.0
  0
POINT
  5
5DC
100
AcDbEntity
  8
DEFPOINTS
  6
BYBLOCK
 62
     0
100
AcDbPoint
 10
-1833.21752
 20
-1437.897758
 30
0.0
  0
POINT
  5
5DD
100
AcDbEntity
  8
DEFPOINTS
  6
BYBLOCK
 62
     0
100
AcDbPoint
 10
-1833.21752
 20
-1445.897758
 30
0.0
  0
POINT
  5
5DE
100
AcDbEntity
  8
DEFPOINTS
  6
BYBLOCK
 62
     0
100
AcDbPoint
 10
-1819.504289
 20
-1445.897758
 30
0.0
  0
ENDBLK
  5
5DF
100
AcDbEntity
  8
0
100
AcDbBlockEnd
  0
BLOCK
  5
5E2
100
AcDbEntity
  8
0
100
AcDbBlockBegin
  2
*D10
 70
    65
 10
0.0
 20
0.0
 30
0.0
  3
*D10
  1

  0
LINE
  5
5E3
100
AcDbEntity
  8
0
  6
BYBLOCK
 62
     0
100
AcDbLine
 10
-1832.59252
 20
-1445.897758
 30
0.0
 11
-1818.254289
 21
-1445.897758
 31
0.0
  0
LINE
  5
5E4
100
AcDbEntity
  8
0
  6
BYBLOCK
 62
     0
100
AcDbLine
 10
-1834.59252
 20
-1461.36186
 30
0.0
 11
-1818.254289
 21
-1461.36186
 31
0.0
  0
LINE
  5
5E5
100
AcDbEntity
  8
0
  6
BYBLOCK
 62
     0
100
AcDbLine
 10
-1819.504289
 20
-1443.397758
 30
0.0
 11
-1819.504289
 21
-1440.897758
 31
0.0
  0
LINE
  5
5E6
100
AcDbEntity
  8
0
  6
BYBLOCK
 62
     0
100
AcDbLine
 10
-1819.504289
 20
-1463.86186
 30
0.0
 11
-1819.504289
 21
-1466.36186
 31
0.0
  0
SOLID
  5
5E7
100
AcDbEntity
  8
0
  6
BYBLOCK
 62
     0
100
AcDbTrace
 10
-1819.920956
 20
-1443.397758
 30
0.0
 11
-1819.087622
 21
-1443.397758
 31
0.0
 12
-1819.504289
 22
-1445.897758
 32
0.0
 13
-1819.504289
 23
-1445.897758
 33
0.0
  0
SOLID
  5
5E8
100
AcDbEntity
  8
0
  6
BYBLOCK
 62
     0
100
AcDbTrace
 10
-1819.920956
 20
-1463.86186
 30
0.0
 11
-1819.087622
 21
-1463.86186
 31
0.0
 12
-1819.504289
 22
-1461.36186
 32
0.0
 13
-1819.504289
 23
-1461.36186
 33
0.0
  0
MTEXT
  5
5E9
100
AcDbEntity
  8
0
  6
BYBLOCK
 62
     0
100
AcDbMText
 10
-1821.629289
 20
-1453.629809
 30
0.0
 40
3.0
 41
0.0
 71
     5
 72
     1
  1
\A1;15.46
 11
0.0
 21
1.0
 31
0.0
  0
POINT
  5
5EA
100
AcDbEntity
  8
DEFPOINTS
  6
BYBLOCK
 62
     0
100
AcDbPoint
 10
-1833.21752
 20
-1445.897758
 30
0.0
  0
POINT
  5
5EB
100
AcDbEntity
  8
DEFPOINTS
  6
BYBLOCK
 62
     0
100
AcDbPoint
 10
-1835.21752
 20
-1461.36186
 30
0.0
  0
POINT
  5
5EC
100
AcDbEntity
  8
DEFPOINTS
  6
BYBLOCK
 62
     0
100
AcDbPoint
 10
-1819.504289
 20
-1461.36186
 30
0.0
  0
ENDBLK
  5
5ED
100
AcDbEntity
  8
0
100
AcDbBlockEnd
  0
BLOCK
  5
837
100
AcDbEntity
  8
0
100
AcDbBlockBegin
  2
*D11
 70
    65
 10
0.0
 20
0.0
 30
0.0
  3
*D11
  1

  0
LINE
  5
838
100
AcDbEntity
  8
0
  6
BYBLOCK
 62
     0
100
AcDbLine
 10
-1838.59252
 20
-1542.897758
 30
0.0
 11
-1813.873661
 21
-1542.897758
 31
0.0
  0
LINE
  5
839
100
AcDbEntity
  8
0
  6
BYBLOCK
 62
     0
100
AcDbLine
 10
-1835.595769
 20
-1538.507233
 30
0.0
 11
-1813.873661
 21
-1538.507233
 31
0.0
  0
LINE
  5
83A
100
AcDbEntity
  8
0
  6
BYBLOCK
 62
     0
100
AcDbLine
 10
-1815.123661
 20
-1536.007233
 30
0.0
 11
-1815.123661
 21
-1533.507233
 31
0.0
  0
LINE
  5
83B
100
AcDbEntity
  8
0
  6
BYBLOCK
 62
     0
100
AcDbLine
 10
-1815.123661
 20
-1545.397758
 30
0.0
 11
-1815.123661
 21
-1559.367789
 31
0.0
  0
SOLID
  5
83C
100
AcDbEntity
  8
0
  6
BYBLOCK
 62
     0
100
AcDbTrace
 10
-1815.540328
 20
-1536.007233
 30
0.0
 11
-1814.706995
 21
-1536.007233
 31
0.0
 12
-1815.123661
 22
-1538.507233
 32
0.0
 13
-1815.123661
 23
-1538.507233
 33
0.0
  0
SOLID
  5
83D
100
AcDbEntity
  8
0
  6
BYBLOCK
 62
     0
100
AcDbTrace
 10
-1815.540328
 20
-1545.397758
 30
0.0
 11
-1814.706995
 21
-1545.397758
 31
0.0
 12
-1815.123661
 22
-1542.897758
 32
0.0
 13
-1815.123661
 23
-1542.897758
 33
0.0
  0
MTEXT
  5
83E
100
AcDbEntity
  8
0
  6
BYBLOCK
 62
     0
100
AcDbMText
 10
-1817.248661
 20
-1554.93208
 30
0.0
 40
3.0
 41
0.0
 71
     5
 72
     1
  1
\A1;4.39
 11
0.0
 21
1.0
 31
0.0
  0
POINT
  5
83F
100
AcDbEntity
  8
DEFPOINTS
  6
BYBLOCK
 62
     0
100
AcDbPoint
 10
-1839.21752
 20
-1542.897758
 30
0.0
  0
POINT
  5
840
100
AcDbEntity
  8
DEFPOINTS
  6
BYBLOCK
 62
     0
100
AcDbPoint
 10
-1836.220769
 20
-1538.507233
 30
0.0
  0
POINT
  5
841
100
AcDbEntity
  8
DEFPOINTS
  6
BYBLOCK
 62
     0
100
AcDbPoint
 10
-1815.123661
 20
-1538.507233
 30
0.0
  0
ENDBLK
  5
842
100
AcDbEntity
  8
0
100
AcDbBlockEnd
  0
BLOCK
  5
843
100
AcDbEntity
  8
0
100
AcDbBlockBegin
  2
*D12
 70
    65
 10
0.0
 20
0.0
 30
0.0
  3
*D12
  1

  0
LINE
  5
844
100
AcDbEntity
  8
0
  6
BYBLOCK
 62
     0
100
AcDbLine
 10
-1835.595769
 20
-1535.507233
 30
0.0
 11
-1813.873661
 21
-1535.507233
 31
0.0
  0
LINE
  5
845
100
AcDbEntity
  8
0
  6
BYBLOCK
 62
     0
100
AcDbLine
 10
-1835.595769
 20
-1538.507233
 30
0.0
 11
-1813.873661
 21
-1538.507233
 31
0.0
  0
LINE
  5
846
100
AcDbEntity
  8
0
  6
BYBLOCK
 62
     0
100
AcDbLine
 10
-1815.123661
 20
-1541.007233
 30
0.0
 11
-1815.123661
 21
-1543.507233
 31
0.0
  0
LINE
  5
847
100
AcDbEntity
  8
0
  6
BYBLOCK
 62
     0
100
AcDbLine
 10
-1815.123661
 20
-1533.007233
 30
0.0
 11
-1815.123661
 21
-1529.675542
 31
0.0
  0
SOLID
  5
848
100
AcDbEntity
  8
0
  6
BYBLOCK
 62
     0
100
AcDbTrace
 10
-1815.540328
 20
-1541.007233
 30
0.0
 11
-1814.706995
 21
-1541.007233
 31
0.0
 12
-1815.123661
 22
-1538.507233
 32
0.0
 13
-1815.123661
 23
-1538.507233
 33
0.0
  0
SOLID
  5
849
100
AcDbEntity
  8
0
  6
BYBLOCK
 62
     0
100
AcDbTrace
 10
-1815.540328
 20
-1533.007233
 30
0.0
 11
-1814.706995
 21
-1533.007233
 31
0.0
 12
-1815.123661
 22
-1535.507233
 32
0.0
 13
-1815.123661
 23
-1535.507233
 33
0.0
  0
MTEXT
  5
84A
100
AcDbEntity
  8
0
  6
BYBLOCK
 62
     0
100
AcDbMText
 10
-1817.248661
 20
-1531.028888
 30
0.0
 40
3.0
 41
0.0
 71
     5
 72
     1
  1
\A1;3
 11
0.0
 21
1.0
 31
0.0
  0
POINT
  5
84B
100
AcDbEntity
  8
DEFPOINTS
  6
BYBLOCK
 62
     0
100
AcDbPoint
 10
-1836.220769
 20
-1535.507233
 30
0.0
  0
POINT
  5
84C
100
AcDbEntity
  8
DEFPOINTS
  6
BYBLOCK
 62
     0
100
AcDbPoint
 10
-1836.220769
 20
-1538.507233
 30
0.0
  0
POINT
  5
84D
100
AcDbEntity
  8
DEFPOINTS
  6
BYBLOCK
 62
     0
100
AcDbPoint
 10
-1815.123661
 20
-1538.507233
 30
0.0
  0
ENDBLK
  5
84E
100
AcDbEntity
  8
0
100
AcDbBlockEnd
  0
BLOCK
  5
643
100
AcDbEntity
  8
0
100
AcDbBlockBegin
  2
*D13
 70
    65
 10
0.0
 20
0.0
 30
0.0
  3
*D13
  1

  0
LINE
  5
644
100
AcDbEntity
  8
0
  6
BYBLOCK
 62
     0
100
AcDbLine
 10
-1834.59252
 20
-1461.36186
 30
0.0
 11
-1818.502287
 21
-1461.36186
 31
0.0
  0
LINE
  5
645
100
AcDbEntity
  8
0
  6
BYBLOCK
 62
     0
100
AcDbLine
 10
-1834.59252
 20
-1516.069188
 30
0.0
 11
-1818.502287
 21
-1516.069188
 31
0.0
  0
LINE
  5
646
100
AcDbEntity
  8
0
  6
BYBLOCK
 62
     0
100
AcDbLine
 10
-1819.752287
 20
-1463.86186
 30
0.0
 11
-1819.752287
 21
-1513.569188
 31
0.0
  0
SOLID
  5
647
100
AcDbEntity
  8
0
  6
BYBLOCK
 62
     0
100
AcDbTrace
 10
-1820.168953
 20
-1463.86186
 30
0.0
 11
-1819.33562
 21
-1463.86186
 31
0.0
 12
-1819.752287
 22
-1461.36186
 32
0.0
 13
-1819.752287
 23
-1461.36186
 33
0.0
  0
SOLID
  5
648
100
AcDbEntity
  8
0
  6
BYBLOCK
 62
     0
100
AcDbTrace
 10
-1820.168953
 20
-1513.569188
 30
0.0
 11
-1819.33562
 21
-1513.569188
 31
0.0
 12
-1819.752287
 22
-1516.069188
 32
0.0
 13
-1819.752287
 23
-1516.069188
 33
0.0
  0
MTEXT
  5
649
100
AcDbEntity
  8
0
  6
BYBLOCK
 62
     0
100
AcDbMText
 10
-1821.877287
 20
-1488.715524
 30
0.0
 40
3.0
 41
0.0
 71
     5
 72
     1
  1
\A1;54.71
 11
0.0
 21
1.0
 31
0.0
  0
POINT
  5
64A
100
AcDbEntity
  8
DEFPOINTS
  6
BYBLOCK
 62
     0
100
AcDbPoint
 10
-1835.21752
 20
-1461.36186
 30
0.0
  0
POINT
  5
64B
100
AcDbEntity
  8
DEFPOINTS
  6
BYBLOCK
 62
     0
100
AcDbPoint
 10
-1835.21752
 20
-1516.069188
 30
0.0
  0
POINT
  5
64C
100
AcDbEntity
  8
DEFPOINTS
  6
BYBLOCK
 62
     0
100
AcDbPoint
 10
-1819.752287
 20
-1516.069188
 30
0.0
  0
ENDBLK
  5
64D
100
AcDbEntity
  8
0
100
AcDbBlockEnd
  0
BLOCK
  5
65D
100
AcDbEntity
  8
0
100
AcDbBlockBegin
  2
*D14
 70
    65
 10
0.0
 20
0.0
 30
0.0
  3
*D14
  1

  0
LINE
  5
65E
100
AcDbEntity
  8
0
  6
BYBLOCK
 62
     0
100
AcDbLine
 10
-1836.220769
 20
-1534.882233
 30
0.0
 11
-1836.220769
 21
-1519.849597
 31
0.0
  0
LINE
  5
65F
100
AcDbEntity
  8
0
  6
BYBLOCK
 62
     0
100
AcDbLine
 10
-1839.21752
 20
-1518.959711
 30
0.0
 11
-1839.21752
 21
-1522.349597
 31
0.0
  0
LINE
  5
660
100
AcDbEntity
  8
0
  6
BYBLOCK
 62
     0
100
AcDbLine
 10
-1841.71752
 20
-1521.099597
 30
0.0
 11
-1844.21752
 21
-1521.099597
 31
0.0
  0
LINE
  5
661
100
AcDbEntity
  8
0
  6
BYBLOCK
 62
     0
100
AcDbLine
 10
-1833.720769
 20
-1521.099597
 30
0.0
 11
-1830.389078
 21
-1521.099597
 31
0.0
  0
SOLID
  5
662
100
AcDbEntity
  8
0
  6
BYBLOCK
 62
     0
100
AcDbTrace
 10
-1841.71752
 20
-1520.68293
 30
0.0
 11
-1841.71752
 21
-1521.516263
 31
0.0
 12
-1839.21752
 22
-1521.099597
 32
0.0
 13
-1839.21752
 23
-1521.099597
 33
0.0
  0
SOLID
  5
663
100
AcDbEntity
  8
0
  6
BYBLOCK
 62
     0
100
AcDbTrace
 10
-1833.720769
 20
-1520.68293
 30
0.0
 11
-1833.720769
 21
-1521.516263
 31
0.0
 12
-1836.220769
 22
-1521.099597
 32
0.0
 13
-1836.220769
 23
-1521.099597
 33
0.0
  0
MTEXT
  5
664
100
AcDbEntity
  8
0
  6
BYBLOCK
 62
     0
100
AcDbMText
 10
-1831.742424
 20
-1518.974597
 30
0.0
 40
3.0
 41
0.0
 71
     5
 72
     1
  1
\A1;3
  0
POINT
  5
665
100
AcDbEntity
  8
DEFPOINTS
  6
BYBLOCK
 62
     0
100
AcDbPoint
 10
-1836.220769
 20
-1535.507233
 30
0.0
  0
POINT
  5
666
100
AcDbEntity
  8
DEFPOINTS
  6
BYBLOCK
 62
     0
100
AcDbPoint
 10
-1839.21752
 20
-1518.334711
 30
0.0
  0
POINT
  5
667
100
AcDbEntity
  8
DEFPOINTS
  6
BYBLOCK
 62
     0
100
AcDbPoint
 10
-1839.21752
 20
-1521.099597
 30
0.0
  0
ENDBLK
  5
668
100
AcDbEntity
  8
0
100
AcDbBlockEnd
  0
BLOCK
  5
676
100
AcDbEntity
  8
0
100
AcDbBlockBegin
  2
*D15
 70
    65
 10
0.0
 20
0.0
 30
0.0
  3
*D15
  1

  0
LINE
  5
677
100
AcDbEntity
  8
0
  6
BYBLOCK
 62
     0
100
AcDbLine
 10
-1859.21752
 20
-1474.700366
 30
0.0
 11
-1859.21752
 21
-1473.460949
 31
0.0
  0
LINE
  5
678
100
AcDbEntity
  8
0
  6
BYBLOCK
 62
     0
100
AcDbLine
 10
-1841.21752
 20
-1475.929206
 30
0.0
 11
-1841.21752
 21
-1473.460949
 31
0.0
  0
LINE
  5
679
100
AcDbEntity
  8
0
  6
BYBLOCK
 62
     0
100
AcDbLine
 10
-1843.71752
 20
-1474.710949
 30
0.0
 11
-1856.71752
 21
-1474.710949
 31
0.0
  0
LINE
  5
67A
100
AcDbEntity
  8
0
  6
BYBLOCK
 62
     0
100
AcDbLine
 10
-1859.21752
 20
-1474.710949
 30
0.0
 11
-1870.143821
 21
-1474.710949
 31
0.0
  0
SOLID
  5
67B
100
AcDbEntity
  8
0
  6
BYBLOCK
 62
     0
100
AcDbTrace
 10
-1843.71752
 20
-1474.294282
 30
0.0
 11
-1843.71752
 21
-1475.127615
 31
0.0
 12
-1841.21752
 22
-1474.710949
 32
0.0
 13
-1841.21752
 23
-1474.710949
 33
0.0
  0
SOLID
  5
67C
100
AcDbEntity
  8
0
  6
BYBLOCK
 62
     0
100
AcDbTrace
 10
-1856.71752
 20
-1474.294282
 30
0.0
 11
-1856.71752
 21
-1475.127615
 31
0.0
 12
-1859.21752
 22
-1474.710949
 32
0.0
 13
-1859.21752
 23
-1474.710949
 33
0.0
  0
MTEXT
  5
67D
100
AcDbEntity
  8
0
  6
BYBLOCK
 62
     0
100
AcDbMText
 10
-1868.033821
 20
-1472.585949
 30
0.0
 40
3.0
 41
0.0
 71
     5
 72
     1
  1
\A1;18
  0
POINT
  5
67E
100
AcDbEntity
  8
DEFPOINTS
  6
BYBLOCK
 62
     0
100
AcDbPoint
 10
-1859.21752
 20
-1475.325366
 30
0.0
  0
POINT
  5
67F
100
AcDbEntity
  8
DEFPOINTS
  6
BYBLOCK
 62
     0
100
AcDbPoint
 10
-1841.21752
 20
-1476.554206
 30
0.0
  0
POINT
  5
680
100
AcDbEntity
  8
DEFPOINTS
  6
BYBLOCK
 62
     0
100
AcDbPoint
 10
-1841.21752
 20
-1474.710949
 30
0.0
  0
ENDBLK
  5
681
100
AcDbEntity
  8
0
100
AcDbBlockEnd
  0
BLOCK
  5
683
100
AcDbEntity
  8
0
100
AcDbBlockBegin
  2
*D16
 70
    65
 10
0.0
 20
0.0
 30
0.0
  3
*D16
  1

  0
LINE
  5
684
100
AcDbEntity
  8
0
  6
BYBLOCK
 62
     0
100
AcDbLine
 10
-1841.21752
 20
-1477.158045
 30
0.0
 11
-1841.21752
 21
-1473.460949
 31
0.0
  0
LINE
  5
685
100
AcDbEntity
  8
0
  6
BYBLOCK
 62
     0
100
AcDbLine
 10
-1839.21752
 20
-1475.007577
 30
0.0
 11
-1839.21752
 21
-1473.460949
 31
0.0
  0
LINE
  5
686
100
AcDbEntity
  8
0
  6
BYBLOCK
 62
     0
100
AcDbLine
 10
-1843.71752
 20
-1474.710949
 30
0.0
 11
-1846.21752
 21
-1474.710949
 31
0.0
  0
LINE
  5
687
100
AcDbEntity
  8
0
  6
BYBLOCK
 62
     0
100
AcDbLine
 10
-1836.71752
 20
-1474.710949
 30
0.0
 11
-1831.365526
 21
-1474.710949
 31
0.0
  0
SOLID
  5
688
100
AcDbEntity
  8
0
  6
BYBLOCK
 62
     0
100
AcDbTrace
 10
-1843.71752
 20
-1474.294282
 30
0.0
 11
-1843.71752
 21
-1475.127615
 31
0.0
 12
-1841.21752
 22
-1474.710949
 32
0.0
 13
-1841.21752
 23
-1474.710949
 33
0.0
  0
SOLID
  5
689
100
AcDbEntity
  8
0
  6
BYBLOCK
 62
     0
100
AcDbTrace
 10
-1836.71752
 20
-1474.294282
 30
0.0
 11
-1836.71752
 21
-1475.127615
 31
0.0
 12
-1839.21752
 22
-1474.710949
 32
0.0
 13
-1839.21752
 23
-1474.710949
 33
0.0
  0
MTEXT
  5
68A
100
AcDbEntity
  8
0
  6
BYBLOCK
 62
     0
100
AcDbMText
 10
-1832.791523
 20
-1472.585653
 30
0.0
 40
3.0
 41
0.0
 71
     5
 72
     1
  1
\A1;2
  0
POINT
  5
68B
100
AcDbEntity
  8
DEFPOINTS
  6
BYBLOCK
 62
     0
100
AcDbPoint
 10
-1841.21752
 20
-1477.783045
 30
0.0
  0
POINT
  5
68C
100
AcDbEntity
  8
DEFPOINTS
  6
BYBLOCK
 62
     0
100
AcDbPoint
 10
-1839.21752
 20
-1475.632577
 30
0.0
  0
POINT
  5
68D
100
AcDbEntity
  8
DEFPOINTS
  6
BYBLOCK
 62
     0
100
AcDbPoint
 10
-1839.21752
 20
-1474.710949
 30
0.0
  0
ENDBLK
  5
68E
100
AcDbEntity
  8
0
100
AcDbBlockEnd
  0
BLOCK
  5
9CE
100
AcDbEntity
  8
0
100
AcDbBlockBegin
  2
*D17
 70
    65
 10
0.0
 20
0.0
 30
0.0
  3
*D17
  1

  0
LINE
  5
9CF
100
AcDbEntity
  8
0
  6
BYBLOCK
 62
     0
100
AcDbLine
 10
-1832.59252
 20
-1437.897758
 30
0.0
 11
-1801.966202
 21
-1437.897758
 31
0.0
  0
LINE
  5
9D0
100
AcDbEntity
  8
0
  6
BYBLOCK
 62
     0
100
AcDbLine
 10
-1838.59252
 20
-1542.897758
 30
0.0
 11
-1801.966202
 21
-1542.897758
 31
0.0
  0
LINE
  5
9D1
100
AcDbEntity
  8
0
  6
BYBLOCK
 62
     0
100
AcDbLine
 10
-1803.216202
 20
-1440.397758
 30
0.0
 11
-1803.216202
 21
-1540.397758
 31
0.0
  0
SOLID
  5
9D2
100
AcDbEntity
  8
0
  6
BYBLOCK
 62
     0
100
AcDbTrace
 10
-1803.632869
 20
-1440.397758
 30
0.0
 11
-1802.799535
 21
-1440.397758
 31
0.0
 12
-1803.216202
 22
-1437.897758
 32
0.0
 13
-1803.216202
 23
-1437.897758
 33
0.0
  0
SOLID
  5
9D3
100
AcDbEntity
  8
0
  6
BYBLOCK
 62
     0
100
AcDbTrace
 10
-1803.632869
 20
-1540.397758
 30
0.0
 11
-1802.799535
 21
-1540.397758
 31
0.0
 12
-1803.216202
 22
-1542.897758
 32
0.0
 13
-1803.216202
 23
-1542.897758
 33
0.0
  0
MTEXT
  5
9D4
100
AcDbEntity
  8
0
  6
BYBLOCK
 62
     0
100
AcDbMText
 10
-1806.581911
 20
-1490.397758
 30
0.0
 40
3.0
 41
0.0
 71
     5
 72
     1
  1
\A2;105{\H2.400000;\S+0.02^  0;}
 11
0.0
 21
1.0
 31
0.0
  0
POINT
  5
9D5
100
AcDbEntity
  8
DEFPOINTS
  6
BYBLOCK
 62
     0
100
AcDbPoint
 10
-1833.21752
 20
-1437.897758
 30
0.0
  0
POINT
  5
9D6
100
AcDbEntity
  8
DEFPOINTS
  6
BYBLOCK
 62
     0
100
AcDbPoint
 10
-1839.21752
 20
-1542.897758
 30
0.0
  0
POINT
  5
9D7
100
AcDbEntity
  8
DEFPOINTS
  6
BYBLOCK
 62
     0
100
AcDbPoint
 10
-1803.216202
 20
-1542.897758
 30
0.0
  0
ENDBLK
  5
9D8
100
AcDbEntity
  8
0
100
AcDbBlockEnd
  0
BLOCK
  5
9D9
100
AcDbEntity
  8
0
100
AcDbBlockBegin
  2
*D18
 70
    65
 10
0.0
 20
0.0
 30
0.0
  3
*D18
  1

  0
LINE
  5
9DA
100
AcDbEntity
  8
0
  6
BYBLOCK
 62
     0
100
AcDbLine
 10
-1838.59252
 20
-1542.897758
 30
0.0
 11
-1785.709949
 21
-1542.897758
 31
0.0
  0
LINE
  5
9DB
100
AcDbEntity
  8
0
  6
BYBLOCK
 62
     0
100
AcDbLine
 10
-1845.59252
 20
-1407.897758
 30
0.0
 11
-1785.709949
 21
-1407.897758
 31
0.0
  0
LINE
  5
9DC
100
AcDbEntity
  8
0
  6
BYBLOCK
 62
     0
100
AcDbLine
 10
-1786.959949
 20
-1540.397758
 30
0.0
 11
-1786.959949
 21
-1410.397758
 31
0.0
  0
SOLID
  5
9DD
100
AcDbEntity
  8
0
  6
BYBLOCK
 62
     0
100
AcDbTrace
 10
-1787.376616
 20
-1540.397758
 30
0.0
 11
-1786.543283
 21
-1540.397758
 31
0.0
 12
-1786.959949
 22
-1542.897758
 32
0.0
 13
-1786.959949
 23
-1542.897758
 33
0.0
  0
SOLID
  5
9DE
100
AcDbEntity
  8
0
  6
BYBLOCK
 62
     0
100
AcDbTrace
 10
-1787.376616
 20
-1410.397758
 30
0.0
 11
-1786.543283
 21
-1410.397758
 31
0.0
 12
-1786.959949
 22
-1407.897758
 32
0.0
 13
-1786.959949
 23
-1407.897758
 33
0.0
  0
MTEXT
  5
9DF
100
AcDbEntity
  8
0
  6
BYBLOCK
 62
     0
100
AcDbMText
 10
-1790.93613
 20
-1475.397758
 30
0.0
 40
3.0
 41
0.0
 71
     5
 72
     1
  1
\A1;135\S+0.1^  0;
 11
0.0
 21
1.0
 31
0.0
  0
POINT
  5
9E0
100
AcDbEntity
  8
DEFPOINTS
  6
BYBLOCK
 62
     0
100
AcDbPoint
 10
-1839.21752
 20
-1542.897758
 30
0.0
  0
POINT
  5
9E1
100
AcDbEntity
  8
DEFPOINTS
  6
BYBLOCK
 62
     0
100
AcDbPoint
 10
-1846.21752
 20
-1407.897758
 30
0.0
  0
POINT
  5
9E2
100
AcDbEntity
  8
DEFPOINTS
  6
BYBLOCK
 62
     0
100
AcDbPoint
 10
-1786.959949
 20
-1407.897758
 30
0.0
  0
ENDBLK
  5
9E3
100
AcDbEntity
  8
0
100
AcDbBlockEnd
  0
BLOCK
  5
6AB
100
AcDbEntity
  8
0
100
AcDbBlockBegin
  2
*D19
 70
    65
 10
0.0
 20
0.0
 30
0.0
  3
*D19
  1

  0
LINE
  5
6AC
100
AcDbEntity
  8
0
  6
BYBLOCK
 62
     0
100
AcDbLine
 10
-1844.923203
 20
-1534.897758
 30
0.0
 11
-1859.397707
 21
-1534.897758
 31
0.0
  0
LINE
  5
6AD
100
AcDbEntity
  8
0
  6
BYBLOCK
 62
     0
100
AcDbLine
 10
-1839.84252
 20
-1542.897758
 30
0.0
 11
-1859.397707
 21
-1542.897758
 31
0.0
  0
LINE
  5
6AE
100
AcDbEntity
  8
0
  6
BYBLOCK
 62
     0
100
AcDbLine
 10
-1858.147707
 20
-1537.397758
 30
0.0
 11
-1858.147707
 21
-1540.397758
 31
0.0
  0
SOLID
  5
6AF
100
AcDbEntity
  8
0
  6
BYBLOCK
 62
     0
100
AcDbTrace
 10
-1858.564374
 20
-1537.397758
 30
0.0
 11
-1857.731041
 21
-1537.397758
 31
0.0
 12
-1858.147707
 22
-1534.897758
 32
0.0
 13
-1858.147707
 23
-1534.897758
 33
0.0
  0
SOLID
  5
6B0
100
AcDbEntity
  8
0
  6
BYBLOCK
 62
     0
100
AcDbTrace
 10
-1858.564374
 20
-1540.397758
 30
0.0
 11
-1857.731041
 21
-1540.397758
 31
0.0
 12
-1858.147707
 22
-1542.897758
 32
0.0
 13
-1858.147707
 23
-1542.897758
 33
0.0
  0
MTEXT
  5
6B1
100
AcDbEntity
  8
0
  6
BYBLOCK
 62
     0
100
AcDbMText
 10
-1860.272707
 20
-1538.897758
 30
0.0
 40
3.0
 41
0.0
 71
     5
 72
     1
  1
\A1;8
 11
0.0
 21
1.0
 31
0.0
  0
POINT
  5
6B2
100
AcDbEntity
  8
DEFPOINTS
  6
BYBLOCK
 62
     0
100
AcDbPoint
 10
-1844.298203
 20
-1534.897758
 30
0.0
  0
POINT
  5
6B3
100
AcDbEntity
  8
DEFPOINTS
  6
BYBLOCK
 62
     0
100
AcDbPoint
 10
-1839.21752
 20
-1542.897758
 30
0.0
  0
POINT
  5
6B4
100
AcDbEntity
  8
DEFPOINTS
  6
BYBLOCK
 62
     0
100
AcDbPoint
 10
-1858.147707
 20
-1542.897758
 30
0.0
  0
ENDBLK
  5
6B5
100
AcDbEntity
  8
0
100
AcDbBlockEnd
  0
BLOCK
  5
6B8
100
AcDbEntity
  8
0
100
AcDbBlockBegin
  2
*D20
 70
    65
 10
0.0
 20
0.0
 30
0.0
  3
*D20
  1

  0
LINE
  5
6B9
100
AcDbEntity
  8
0
  6
BYBLOCK
 62
     0
100
AcDbLine
 10
-1844.610703
 20
-1532.956493
 30
0.0
 11
-1850.569465
 21
-1522.635613
 31
0.0
  0
LINE
  5
6BA
100
AcDbEntity
  8
0
  6
BYBLOCK
 62
     0
100
AcDbLine
 10
-1845.21692
 20
-1533.306493
 30
0.0
 11
-1851.175683
 21
-1522.985613
 31
0.0
  0
LINE
  5
6BB
100
AcDbEntity
  8
0
  6
BYBLOCK
 62
     0
100
AcDbLine
 10
-1847.779402
 20
-1522.468145
 30
0.0
 11
-1845.614338
 21
-1521.218145
 31
0.0
  0
LINE
  5
6BC
100
AcDbEntity
  8
0
  6
BYBLOCK
 62
     0
100
AcDbLine
 10
-1852.715746
 20
-1525.318145
 30
0.0
 11
-1859.964379
 21
-1529.503145
 31
0.0
  0
SOLID
  5
6BD
100
AcDbEntity
  8
0
  6
BYBLOCK
 62
     0
100
AcDbTrace
 10
-1847.987735
 20
-1522.107301
 30
0.0
 11
-1847.571068
 21
-1522.828989
 31
0.0
 12
-1849.944465
 22
-1523.718145
 32
0.0
 13
-1849.944465
 23
-1523.718145
 33
0.0
  0
SOLID
  5
6BE
100
AcDbEntity
  8
0
  6
BYBLOCK
 62
     0
100
AcDbTrace
 10
-1852.92408
 20
-1524.957301
 30
0.0
 11
-1852.507413
 21
-1525.678989
 31
0.0
 12
-1850.550683
 22
-1524.068145
 32
0.0
 13
-1850.550683
 23
-1524.068145
 33
0.0
  0
MTEXT
  5
6BF
100
AcDbEntity
  8
0
  6
BYBLOCK
 62
     0
100
AcDbMText
 10
-1858.485095
 20
-1526.195341
 30
0.0
 40
3.0
 41
0.0
 71
     5
 72
     1
  1
\A1;0.7
 11
0.866025
 21
0.5
 31
0.0
  0
POINT
  5
6C0
100
AcDbEntity
  8
DEFPOINTS
  6
BYBLOCK
 62
     0
100
AcDbPoint
 10
-1844.298203
 20
-1533.497758
 30
0.0
  0
POINT
  5
6C1
100
AcDbEntity
  8
DEFPOINTS
  6
BYBLOCK
 62
     0
100
AcDbPoint
 10
-1844.90442
 20
-1533.847758
 30
0.0
  0
POINT
  5
6C2
100
AcDbEntity
  8
DEFPOINTS
  6
BYBLOCK
 62
     0
100
AcDbPoint
 10
-1850.550683
 20
-1524.068145
 30
0.0
  0
ENDBLK
  5
6C3
100
AcDbEntity
  8
0
100
AcDbBlockEnd
  0
BLOCK
  5
6C6
100
AcDbEntity
  8
0
100
AcDbBlockBegin
  2
*D21
 70
    65
 10
0.0
 20
0.0
 30
0.0
  3
*D21
  1

  0
LINE
  5
6C7
100
AcDbEntity
  8
0
  6
BYBLOCK
 62
     0
100
AcDbLine
 10
-1839.53002
 20
-1544.239024
 30
0.0
 11
-1850.954941
 21
-1564.027567
 31
0.0
  0
LINE
  5
6C8
100
AcDbEntity
  8
0
  6
BYBLOCK
 62
     0
100
AcDbLine
 10
-1838.90502
 20
-1544.239024
 30
0.0
 11
-1827.4801
 21
-1564.027567
 31
0.0
  0
ARC
  5
6C9
100
AcDbEntity
  8
0
  6
BYBLOCK
 62
     0
100
AcDbCircle
 10
-1839.21752
 20
-1543.697758
 30
0.0
 40
22.224841
100
AcDbArc
 50
246.448418
 51
293.551582
  0
SOLID
  5
6CA
100
AcDbEntity
  8
0
  6
BYBLOCK
 62
     0
100
AcDbTrace
 10
-1848.285709
 20
-1564.443277
 30
0.0
 11
-1847.910292
 21
-1563.699297
 31
0.0
 12
-1850.329941
 22
-1562.945036
 32
0.0
 13
-1850.329941
 23
-1562.945036
 33
0.0
  0
SOLID
  5
6CB
100
AcDbEntity
  8
0
  6
BYBLOCK
 62
     0
100
AcDbTrace
 10
-1830.524749
 20
-1563.699297
 30
0.0
 11
-1830.149332
 21
-1564.443277
 31
0.0
 12
-1828.1051
 22
-1562.945036
 32
0.0
 13
-1828.1051
 23
-1562.945036
 33
0.0
  0
MTEXT
  5
6CC
100
AcDbEntity
  8
0
  6
BYBLOCK
 62
     0
100
AcDbMText
 10
-1839.21752
 20
-1563.7976
 30
0.0
 40
3.0
 41
0.0
 71
     5
 72
     1
  1
\A1;60°
  0
POINT
  5
6CD
100
AcDbEntity
  8
DEFPOINTS
  6
BYBLOCK
 62
     0
100
AcDbPoint
 10
-1843.076823
 20
-1565.584955
 30
0.0
  0
POINT
  5
6CE
100
AcDbEntity
  8
DEFPOINTS
  6
BYBLOCK
 62
     0
100
AcDbPoint
 10
-1839.910341
 20
-1542.497758
 30
0.0
  0
POINT
  5
6CF
100
AcDbEntity
  8
DEFPOINTS
  6
BYBLOCK
 62
     0
100
AcDbPoint
 10
-1838.5247
 20
-1542.497758
 30
0.0
  0
POINT
  5
6D0
100
AcDbEntity
  8
DEFPOINTS
  6
BYBLOCK
 62
     0
100
AcDbPoint
 10
-1836.220769
 20
-1538.507233
 30
0.0
  0
POINT
  5
6D1
100
AcDbEntity
  8
DEFPOINTS
  6
BYBLOCK
 62
     0
100
AcDbPoint
 10
-1844.298203
 20
-1534.897758
 30
0.0
  0
ENDBLK
  5
6D2
100
AcDbEntity
  8
0
100
AcDbBlockEnd
  0
BLOCK
  5
6D5
100
AcDbEntity
  8
0
100
AcDbBlockBegin
  2
*D22
 70
    65
 10
0.0
 20
0.0
 30
0.0
  3
*D22
  1

  0
LINE
  5
6D6
100
AcDbEntity
  8
0
  6
BYBLOCK
 62
     0
100
AcDbLine
 10
-1836.949338
 20
-1544.494704
 30
0.0
 11
-1829.381858
 21
-1552.491788
 31
0.0
  0
SOLID
  5
6D7
100
AcDbEntity
  8
0
  6
BYBLOCK
 62
     0
100
AcDbTrace
 10
-1836.646693
 20
-1544.208318
 30
0.0
 11
-1837.251983
 21
-1544.781091
 31
0.0
 12
-1838.667658
 22
-1542.678836
 32
0.0
 13
-1838.667658
 23
-1542.678836
 33
0.0
  0
MTEXT
  5
6D8
100
AcDbEntity
  8
0
  6
BYBLOCK
 62
     0
100
AcDbMText
 10
-1830.76295
 20
-1547.940608
 30
0.0
 40
3.0
 41
0.0
 71
     5
 72
     1
  1
\A1;R0.8
 11
0.687328
 21
-0.726347
 31
0.0
  0
POINT
  5
6D9
100
AcDbEntity
  8
DEFPOINTS
  6
BYBLOCK
 62
     0
100
AcDbPoint
 10
-1838.667658
 20
-1542.678836
 30
0.0
  0
POINT
  5
6DA
100
AcDbEntity
  8
DEFPOINTS
  6
BYBLOCK
 62
     0
100
AcDbPoint
 10
-1839.21752
 20
-1542.097758
 30
0.0
  0
ENDBLK
  5
6DB
100
AcDbEntity
  8
0
100
AcDbBlockEnd
  0
BLOCK
  5
78E
100
AcDbEntity
  8
0
100
AcDbBlockBegin
  2
*D23
 70
    65
 10
0.0
 20
0.0
 30
0.0
  3
*D23
  1

  0
LINE
  5
78F
100
AcDbEntity
  8
0
  6
BYBLOCK
 62
     0
100
AcDbLine
 10
-1835.21752
 20
-1516.069188
 30
0.0
 11
-1838.676598
 21
-1516.602836
 31
0.0
  0
LINE
  5
790
100
AcDbEntity
  8
0
  6
BYBLOCK
 62
     0
100
AcDbLine
 10
-1841.147368
 20
-1516.984013
 30
0.0
 11
-1851.114456
 21
-1518.521682
 31
0.0
  0
SOLID
  5
791
100
AcDbEntity
  8
0
  6
BYBLOCK
 62
     0
100
AcDbTrace
 10
-1838.740128
 20
-1516.191041
 30
0.0
 11
-1838.613069
 21
-1517.014631
 31
0.0
 12
-1841.147368
 22
-1516.984013
 32
0.0
 13
-1841.147368
 23
-1516.984013
 33
0.0
  0
MTEXT
  5
792
100
AcDbEntity
  8
0
  6
BYBLOCK
 62
     0
100
AcDbMText
 10
-1848.685435
 20
-1515.996806
 30
0.0
 40
3.0
 41
0.0
 71
     5
 72
     1
  1
\A1;R6
 11
0.988308
 21
0.152471
 31
0.0
  0
POINT
  5
793
100
AcDbEntity
  8
DEFPOINTS
  6
BYBLOCK
 62
     0
100
AcDbPoint
 10
-1841.147368
 20
-1516.984013
 30
0.0
  0
POINT
  5
794
100
AcDbEntity
  8
DEFPOINTS
  6
BYBLOCK
 62
     0
100
AcDbPoint
 10
-1835.21752
 20
-1516.069188
 30
0.0
  0
ENDBLK
  5
795
100
AcDbEntity
  8
0
100
AcDbBlockEnd
  0
BLOCK
  5
796
100
AcDbEntity
  8
0
100
AcDbBlockBegin
  2
*D24
 70
    65
 10
0.0
 20
0.0
 30
0.0
  3
*D24
  1

  0
LINE
  5
797
100
AcDbEntity
  8
0
  6
BYBLOCK
 62
     0
100
AcDbLine
 10
-1835.21752
 20
-1461.36186
 30
0.0
 11
-1838.607223
 21
-1460.490127
 31
0.0
  0
LINE
  5
798
100
AcDbEntity
  8
0
  6
BYBLOCK
 62
     0
100
AcDbLine
 10
-1841.028438
 20
-1459.867461
 30
0.0
 11
-1850.447266
 21
-1457.445211
 31
0.0
  0
SOLID
  5
799
100
AcDbEntity
  8
0
  6
BYBLOCK
 62
     0
100
AcDbTrace
 10
-1838.503445
 20
-1460.086591
 30
0.0
 11
-1838.711
 21
-1460.893663
 31
0.0
 12
-1841.028438
 22
-1459.867461
 32
0.0
 13
-1841.028438
 23
-1459.867461
 33
0.0
  0
MTEXT
  5
79A
100
AcDbEntity
  8
0
  6
BYBLOCK
 62
     0
100
AcDbMText
 10
-1847.220193
 20
-1456.080975
 30
0.0
 40
3.0
 41
0.0
 71
     5
 72
     1
  1
\A1;R6
 11
0.968486
 21
-0.249067
 31
0.0
  0
POINT
  5
79B
100
AcDbEntity
  8
DEFPOINTS
  6
BYBLOCK
 62
     0
100
AcDbPoint
 10
-1841.028438
 20
-1459.867461
 30
0.0
  0
POINT
  5
79C
100
AcDbEntity
  8
DEFPOINTS
  6
BYBLOCK
 62
     0
100
AcDbPoint
 10
-1835.21752
 20
-1461.36186
 30
0.0
  0
ENDBLK
  5
79D
100
AcDbEntity
  8
0
100
AcDbBlockEnd
  0
BLOCK
  5
76F
100
AcDbEntity
  8
0
100
AcDbBlockBegin
  2
*D25
 70
    65
 10
0.0
 20
0.0
 30
0.0
  3
*D25
  1

  0
LINE
  5
770
100
AcDbEntity
  8
0
  6
BYBLOCK
 62
     0
100
AcDbLine
 10
-1833.21752
 20
-1446.522758
 30
0.0
 11
-1833.21752
 21
-1457.563649
 31
0.0
  0
ARC
  5
771
100
AcDbEntity
  8
0
  6
BYBLOCK
 62
     0
100
AcDbCircle
 10
-1833.21752
 20
-1445.897758
 30
0.0
 40
10.41589
100
AcDbArc
 50
212.429524
 51
226.214762
  0
ARC
  5
772
100
AcDbEntity
  8
0
  6
BYBLOCK
 62
     0
100
AcDbCircle
 10
-1833.21752
 20
-1445.897758
 30
0.0
 40
10.41589
100
AcDbArc
 50
283.785238
 51
297.570476
  0
SOLID
  5
773
100
AcDbEntity
  8
0
  6
BYBLOCK
 62
     0
100
AcDbTrace
 10
-1840.174738
 20
-1453.084157
 30
0.0
 11
-1840.675002
 21
-1453.750625
 31
0.0
 12
-1838.425465
 22
-1454.918184
 32
0.0
 13
-1838.425465
 23
-1454.918184
 33
0.0
  0
SOLID
  5
774
100
AcDbEntity
  8
0
  6
BYBLOCK
 62
     0
100
AcDbTrace
 10
-1830.685584
 20
-1456.427282
 30
0.0
 11
-1830.785592
 21
-1455.599971
 31
0.0
 12
-1833.21752
 22
-1456.313649
 32
0.0
 13
-1833.21752
 23
-1456.313649
 33
0.0
  0
MTEXT
  5
775
100
AcDbEntity
  8
0
  6
BYBLOCK
 62
     0
100
AcDbMText
 10
-1841.015081
 20
-1448.715009
 30
0.0
 40
3.0
 41
0.0
 71
     5
 72
     1
  1
\A1;30°
 11
0.339801
 21
-0.940497
 31
0.0
  0
POINT
  5
776
100
AcDbEntity
  8
DEFPOINTS
  6
BYBLOCK
 62
     0
100
AcDbPoint
 10
-1835.026221
 20
-1456.155408
 30
0.0
  0
POINT
  5
777
100
AcDbEntity
  8
DEFPOINTS
  6
BYBLOCK
 62
     0
100
AcDbPoint
 10
-1833.21752
 20
-1445.897758
 30
0.0
  0
POINT
  5
778
100
AcDbEntity
  8
DEFPOINTS
  6
BYBLOCK
 62
     0
100
AcDbPoint
 10
-1833.21752
 20
-1437.897758
 30
0.0
  0
POINT
  5
779
100
AcDbEntity
  8
DEFPOINTS
  6
BYBLOCK
 62
     0
100
AcDbPoint
 10
-1833.21752
 20
-1445.897758
 30
0.0
  0
POINT
  5
77A
100
AcDbEntity
  8
DEFPOINTS
  6
BYBLOCK
 62
     0
100
AcDbPoint
 10
-1840.413673
 20
-1458.36186
 30
0.0
  0
ENDBLK
  5
77B
100
AcDbEntity
  8
0
100
AcDbBlockEnd
  0
BLOCK
  5
77E
100
AcDbEntity
  8
0
100
AcDbBlockBegin
  2
*D26
 70
    65
 10
0.0
 20
0.0
 30
0.0
  3
*D26
  1

  0
LINE
  5
77F
100
AcDbEntity
  8
0
  6
BYBLOCK
 62
     0
100
AcDbLine
 10
-1836.220769
 20
-1534.882233
 30
0.0
 11
-1836.220769
 21
-1503.250633
 31
0.0
  0
LINE
  5
780
100
AcDbEntity
  8
0
  6
BYBLOCK
 62
     0
100
AcDbLine
 10
-1841.174837
 20
-1517.018399
 30
0.0
 11
-1844.569391
 21
-1504.34975
 31
0.0
  0
ARC
  5
781
100
AcDbEntity
  8
0
  6
BYBLOCK
 62
     0
100
AcDbCircle
 10
-1836.220769
 20
-1535.507233
 30
0.0
 40
31.0066
100
AcDbArc
 50
84.224173
 51
90.0
  0
ARC
  5
782
100
AcDbEntity
  8
0
  6
BYBLOCK
 62
     0
100
AcDbCircle
 10
-1836.220769
 20
-1535.507233
 30
0.0
 40
31.0066
100
AcDbArc
 50
94.620896
 51
100.379104
  0
SOLID
  5
783
100
AcDbEntity
  8
0
  6
BYBLOCK
 62
     0
100
AcDbTrace
 10
-1838.735534
 20
-1504.18509
 30
0.0
 11
-1838.701939
 21
-1505.017746
 31
0.0
 12
-1836.220769
 22
-1504.500633
 32
0.0
 13
-1836.220769
 23
-1504.500633
 33
0.0
  0
SOLID
  5
784
100
AcDbEntity
  8
0
  6
BYBLOCK
 62
     0
100
AcDbTrace
 10
-1841.715403
 20
-1505.414476
 30
0.0
 11
-1841.898459
 21
-1504.601497
 31
0.0
 12
-1844.245868
 22
-1505.557157
 32
0.0
 13
-1844.245868
 23
-1505.557157
 33
0.0
  0
MTEXT
  5
785
100
AcDbEntity
  8
0
  6
BYBLOCK
 62
     0
100
AcDbMText
 10
-1829.802257
 20
-1502.855807
 30
0.0
 40
3.0
 41
0.0
 71
     5
 72
     1
  1
\A1;15°
 11
0.994923
 21
-0.100637
 31
0.0
  0
POINT
  5
786
100
AcDbEntity
  8
DEFPOINTS
  6
BYBLOCK
 62
     0
100
AcDbPoint
 10
-1841.605009
 20
-1504.971693
 30
0.0
  0
POINT
  5
787
100
AcDbEntity
  8
DEFPOINTS
  6
BYBLOCK
 62
     0
100
AcDbPoint
 10
-1836.220769
 20
-1535.507233
 30
0.0
  0
POINT
  5
788
100
AcDbEntity
  8
DEFPOINTS
  6
BYBLOCK
 62
     0
100
AcDbPoint
 10
-1836.220769
 20
-1538.507233
 30
0.0
  0
POINT
  5
789
100
AcDbEntity
  8
DEFPOINTS
  6
BYBLOCK
 62
     0
100
AcDbPoint
 10
-1836.220769
 20
-1535.507233
 30
0.0
  0
POINT
  5
78A
100
AcDbEntity
  8
DEFPOINTS
  6
BYBLOCK
 62
     0
100
AcDbPoint
 10
-1841.013075
 20
-1517.622102
 30
0.0
  0
ENDBLK
  5
78B
100
AcDbEntity
  8
0
100
AcDbBlockEnd
  0
BLOCK
  5
7D3
100
AcDbEntity
  8
0
100
AcDbBlockBegin
  2
*X27
 70
    65
 10
0.0
 20
0.0
 30
0.0
  3
*X27
  1

  0
LINE
  5
7D5
100
AcDbEntity
  8
0
 62
     0
100
AcDbLine
 10
-1840.506942
 20
-1541.464414
 30
0.0
 11
-1839.21752
 21
-1540.174991
 31
0.0
  0
LINE
  5
7D6
100
AcDbEntity
  8
0
 62
     0
100
AcDbLine
 10
-1839.21752
 20
-1540.174991
 30
0.0
 11
-1838.707659
 21
-1539.665131
 31
0.0
  0
LINE
  5
7D7
100
AcDbEntity
  8
0
 62
     0
100
AcDbLine
 10
-1840.589118
 20
-1541.322082
 30
0.0
 11
-1839.21752
 21
-1539.950485
 31
0.0
  0
LINE
  5
7D8
100
AcDbEntity
  8
0
 62
     0
100
AcDbLine
 10
-1839.21752
 20
-1539.950485
 30
0.0
 11
-1838.956252
 21
-1539.689217
 31
0.0
  0
LINE
  5
7D9
100
AcDbEntity
  8
0
 62
     0
100
AcDbLine
 10
-1840.671293
 20
-1541.179751
 30
0.0
 11
-1839.21752
 21
-1539.725979
 31
0.0
  0
LINE
  5
7DA
100
AcDbEntity
  8
0
 62
     0
100
AcDbLine
 10
-1839.21752
 20
-1539.725979
 30
0.0
 11
-1839.1892
 21
-1539.697658
 31
0.0
  0
LINE
  5
7DB
100
AcDbEntity
  8
0
 62
     0
100
AcDbLine
 10
-1840.753468
 20
-1541.03742
 30
0.0
 11
-1839.409211
 21
-1539.693163
 31
0.0
  0
LINE
  5
7DC
100
AcDbEntity
  8
0
 62
     0
100
AcDbLine
 10
-1840.835643
 20
-1540.895088
 30
0.0
 11
-1839.618195
 21
-1539.67764
 31
0.0
  0
LINE
  5
7DD
100
AcDbEntity
  8
0
 62
     0
100
AcDbLine
 10
-1840.917818
 20
-1540.752757
 30
0.0
 11
-1839.817558
 21
-1539.652497
 31
0.0
  0
LINE
  5
7DE
100
AcDbEntity
  8
0
 62
     0
100
AcDbLine
 10
-1840.999993
 20
-1540.610426
 30
0.0
 11
-1840.008367
 21
-1539.618799
 31
0.0
  0
LINE
  5
7DF
100
AcDbEntity
  8
0
 62
     0
100
AcDbLine
 10
-1841.082168
 20
-1540.468094
 30
0.0
 11
-1840.191453
 21
-1539.577379
 31
0.0
  0
LINE
  5
7E0
100
AcDbEntity
  8
0
 62
     0
100
AcDbLine
 10
-1841.164343
 20
-1540.325763
 30
0.0
 11
-1840.367475
 21
-1539.528895
 31
0.0
  0
LINE
  5
7E1
100
AcDbEntity
  8
0
 62
     0
100
AcDbLine
 10
-1841.246518
 20
-1540.183431
 30
0.0
 11
-1840.536963
 21
-1539.473877
 31
0.0
  0
LINE
  5
7E2
100
AcDbEntity
  8
0
 62
     0
100
AcDbLine
 10
-1841.328693
 20
-1540.0411
 30
0.0
 11
-1840.70035
 21
-1539.412757
 31
0.0
  0
LINE
  5
7E3
100
AcDbEntity
  8
0
 62
     0
100
AcDbLine
 10
-1841.410868
 20
-1539.898769
 30
0.0
 11
-1840.857989
 21
-1539.34589
 31
0.0
  0
LINE
  5
7E4
100
AcDbEntity
  8
0
 62
     0
100
AcDbLine
 10
-1841.493043
 20
-1539.756437
 30
0.0
 11
-1841.010172
 21
-1539.273566
 31
0.0
  0
LINE
  5
7E5
100
AcDbEntity
  8
0
 62
     0
100
AcDbLine
 10
-1841.575218
 20
-1539.614106
 30
0.0
 11
-1841.157139
 21
-1539.196027
 31
0.0
  0
LINE
  5
7E6
100
AcDbEntity
  8
0
 62
     0
100
AcDbLine
 10
-1841.657393
 20
-1539.471775
 30
0.0
 11
-1841.299087
 21
-1539.113469
 31
0.0
  0
LINE
  5
7E7
100
AcDbEntity
  8
0
 62
     0
100
AcDbLine
 10
-1841.739568
 20
-1539.329443
 30
0.0
 11
-1841.436179
 21
-1539.026054
 31
0.0
  0
LINE
  5
7E8
100
AcDbEntity
  8
0
 62
     0
100
AcDbLine
 10
-1841.821743
 20
-1539.187112
 30
0.0
 11
-1841.568543
 21
-1538.933912
 31
0.0
  0
LINE
  5
7E9
100
AcDbEntity
  8
0
 62
     0
100
AcDbLine
 10
-1841.903918
 20
-1539.044781
 30
0.0
 11
-1841.696282
 21
-1538.837144
 31
0.0
  0
LINE
  5
7EA
100
AcDbEntity
  8
0
 62
     0
100
AcDbLine
 10
-1841.986093
 20
-1538.902449
 30
0.0
 11
-1841.81947
 21
-1538.735826
 31
0.0
  0
LINE
  5
7EB
100
AcDbEntity
  8
0
 62
     0
100
AcDbLine
 10
-1842.068268
 20
-1538.760118
 30
0.0
 11
-1841.938162
 21
-1538.630012
 31
0.0
  0
LINE
  5
7EC
100
AcDbEntity
  8
0
 62
     0
100
AcDbLine
 10
-1842.150443
 20
-1538.617787
 30
0.0
 11
-1842.052388
 21
-1538.519731
 31
0.0
  0
LINE
  5
7ED
100
AcDbEntity
  8
0
 62
     0
100
AcDbLine
 10
-1842.232618
 20
-1538.475455
 30
0.0
 11
-1842.162156
 21
-1538.404993
 31
0.0
  0
LINE
  5
7EE
100
AcDbEntity
  8
0
 62
     0
100
AcDbLine
 10
-1842.314794
 20
-1538.333124
 30
0.0
 11
-1842.267456
 21
-1538.285787
 31
0.0
  0
LINE
  5
7EF
100
AcDbEntity
  8
0
 62
     0
100
AcDbLine
 10
-1842.396969
 20
-1538.190792
 30
0.0
 11
-1842.368255
 21
-1538.162078
 31
0.0
  0
LINE
  5
7F0
100
AcDbEntity
  8
0
 62
     0
100
AcDbLine
 10
-1842.479144
 20
-1538.048461
 30
0.0
 11
-1842.464496
 21
-1538.033813
 31
0.0
  0
LINE
  5
7F1
100
AcDbEntity
  8
0
 62
     0
100
AcDbLine
 10
-1842.561319
 20
-1537.90613
 30
0.0
 11
-1842.5561
 21
-1537.900911
 31
0.0
  0
LINE
  5
7F2
100
AcDbEntity
  8
0
 62
     0
100
AcDbLine
 10
-1842.643494
 20
-1537.763798
 30
0.0
 11
-1842.642964
 21
-1537.763269
 31
0.0
  0
LINE
  5
7F3
100
AcDbEntity
  8
0
 62
     0
100
AcDbLine
 10
-1840.424767
 20
-1541.606745
 30
0.0
 11
-1839.21752
 21
-1540.399498
 31
0.0
  0
LINE
  5
7F4
100
AcDbEntity
  8
0
 62
     0
100
AcDbLine
 10
-1839.21752
 20
-1540.399498
 30
0.0
 11
-1838.439359
 21
-1539.621337
 31
0.0
  0
LINE
  5
7F5
100
AcDbEntity
  8
0
 62
     0
100
AcDbLine
 10
-1840.342592
 20
-1541.749076
 30
0.0
 11
-1839.21752
 21
-1540.624004
 31
0.0
  0
LINE
  5
7F6
100
AcDbEntity
  8
0
 62
     0
100
AcDbLine
 10
-1839.21752
 20
-1540.624004
 30
0.0
 11
-1838.14473
 21
-1539.551214
 31
0.0
  0
LINE
  5
7F7
100
AcDbEntity
  8
0
 62
     0
100
AcDbLine
 10
-1840.260417
 20
-1541.891408
 30
0.0
 11
-1839.21752
 21
-1540.848511
 31
0.0
  0
LINE
  5
7F8
100
AcDbEntity
  8
0
 62
     0
100
AcDbLine
 10
-1839.21752
 20
-1540.848511
 30
0.0
 11
-1837.811519
 21
-1539.44251
 31
0.0
  0
LINE
  5
7F9
100
AcDbEntity
  8
0
 62
     0
100
AcDbLine
 10
-1840.178242
 20
-1542.033739
 30
0.0
 11
-1839.21752
 21
-1541.073017
 31
0.0
  0
LINE
  5
7FA
100
AcDbEntity
  8
0
 62
     0
100
AcDbLine
 10
-1839.21752
 20
-1541.073017
 30
0.0
 11
-1837.411168
 21
-1539.266665
 31
0.0
  0
LINE
  5
7FB
100
AcDbEntity
  8
0
 62
     0
100
AcDbLine
 10
-1840.096067
 20
-1542.17607
 30
0.0
 11
-1839.21752
 21
-1541.297523
 31
0.0
  0
LINE
  5
7FC
100
AcDbEntity
  8
0
 62
     0
100
AcDbLine
 10
-1839.21752
 20
-1541.297523
 30
0.0
 11
-1836.818459
 21
-1538.898463
 31
0.0
  0
LINE
  5
7FD
100
AcDbEntity
  8
0
 62
     0
100
AcDbLine
 10
-1840.013892
 20
-1542.318402
 30
0.0
 11
-1839.21752
 21
-1541.52203
 31
0.0
  0
LINE
  5
7FE
100
AcDbEntity
  8
0
 62
     0
100
AcDbLine
 10
-1839.21752
 20
-1541.52203
 30
0.0
 11
-1836.24542
 21
-1538.549929
 31
0.0
  0
LINE
  5
7FF
100
AcDbEntity
  8
0
 62
     0
100
AcDbLine
 10
-1839.931717
 20
-1542.460733
 30
0.0
 11
-1839.21752
 21
-1541.746536
 31
0.0
  0
LINE
  5
800
100
AcDbEntity
  8
0
 62
     0
100
AcDbLine
 10
-1839.21752
 20
-1541.746536
 30
0.0
 11
-1836.552101
 21
-1539.081117
 31
0.0
  0
LINE
  5
801
100
AcDbEntity
  8
0
 62
     0
100
AcDbLine
 10
-1839.843004
 20
-1542.596527
 30
0.0
 11
-1839.21752
 21
-1541.971043
 31
0.0
  0
LINE
  5
802
100
AcDbEntity
  8
0
 62
     0
100
AcDbLine
 10
-1839.21752
 20
-1541.971043
 30
0.0
 11
-1836.858783
 21
-1539.612305
 31
0.0
  0
LINE
  5
803
100
AcDbEntity
  8
0
 62
     0
100
AcDbLine
 10
-1839.732193
 20
-1542.710222
 30
0.0
 11
-1839.21752
 21
-1542.195549
 31
0.0
  0
LINE
  5
804
100
AcDbEntity
  8
0
 62
     0
100
AcDbLine
 10
-1839.21752
 20
-1542.195549
 30
0.0
 11
-1837.165464
 21
-1540.143493
 31
0.0
  0
LINE
  5
805
100
AcDbEntity
  8
0
 62
     0
100
AcDbLine
 10
-1839.598618
 20
-1542.801153
 30
0.0
 11
-1839.21752
 21
-1542.420055
 31
0.0
  0
LINE
  5
806
100
AcDbEntity
  8
0
 62
     0
100
AcDbLine
 10
-1839.21752
 20
-1542.420055
 30
0.0
 11
-1837.472145
 21
-1540.674681
 31
0.0
  0
LINE
  5
807
100
AcDbEntity
  8
0
 62
     0
100
AcDbLine
 10
-1839.439347
 20
-1542.866389
 30
0.0
 11
-1839.21752
 21
-1542.644562
 31
0.0
  0
LINE
  5
808
100
AcDbEntity
  8
0
 62
     0
100
AcDbLine
 10
-1839.21752
 20
-1542.644562
 30
0.0
 11
-1837.778827
 21
-1541.205869
 31
0.0
  0
LINE
  5
809
100
AcDbEntity
  8
0
 62
     0
100
AcDbLine
 10
-1839.245714
 20
-1542.897262
 30
0.0
 11
-1839.21752
 21
-1542.869068
 31
0.0
  0
LINE
  5
80A
100
AcDbEntity
  8
0
 62
     0
100
AcDbLine
 10
-1839.21752
 20
-1542.869068
 30
0.0
 11
-1838.085508
 21
-1541.737056
 31
0.0
  0
LINE
  5
80B
100
AcDbEntity
  8
0
 62
     0
100
AcDbLine
 10
-1838.988103
 20
-1542.864158
 30
0.0
 11
-1838.39219
 21
-1542.268244
 31
0.0
  0
ENDBLK
  5
80C
100
AcDbEntity
  8
0
100
AcDbBlockEnd
  0
BLOCK
  5
9A3
100
AcDbEntity
  8
0
100
AcDbBlockBegin
  2
*D28
 70
    65
 10
0.0
 20
0.0
 30
0.0
  3
*D28
  1

  0
LINE
  5
9A4
100
AcDbEntity
  8
0
  6
BYBLOCK
 62
     0
100
AcDbLine
 10
-1931.125341
 20
-1571.963655
 30
0.0
 11
-1931.125341
 21
-1567.024966
 31
0.0
  0
LINE
  5
9A5
100
AcDbEntity
  8
0
  6
BYBLOCK
 62
     0
100
AcDbLine
 10
-1921.125341
 20
-1586.886613
 30
0.0
 11
-1921.125341
 21
-1567.024966
 31
0.0
  0
LINE
  5
9A6
100
AcDbEntity
  8
0
  6
BYBLOCK
 62
     0
100
AcDbLine
 10
-1928.625341
 20
-1568.274966
 30
0.0
 11
-1923.625341
 21
-1568.274966
 31
0.0
  0
SOLID
  5
9A7
100
AcDbEntity
  8
0
  6
BYBLOCK
 62
     0
100
AcDbTrace
 10
-1928.625341
 20
-1567.858299
 30
0.0
 11
-1928.625341
 21
-1568.691632
 31
0.0
 12
-1931.125341
 22
-1568.274966
 32
0.0
 13
-1931.125341
 23
-1568.274966
 33
0.0
  0
SOLID
  5
9A8
100
AcDbEntity
  8
0
  6
BYBLOCK
 62
     0
100
AcDbTrace
 10
-1923.625341
 20
-1567.858299
 30
0.0
 11
-1923.625341
 21
-1568.691632
 31
0.0
 12
-1921.125341
 22
-1568.274966
 32
0.0
 13
-1921.125341
 23
-1568.274966
 33
0.0
  0
MTEXT
  5
9A9
100
AcDbEntity
  8
0
  6
BYBLOCK
 62
     0
100
AcDbMText
 10
-1926.125341
 20
-1566.149966
 30
0.0
 40
3.0
 41
0.0
 71
     5
 72
     1
  1
\A1;{50}
  0
POINT
  5
9AA
100
AcDbEntity
  8
DEFPOINTS
  6
BYBLOCK
 62
     0
100
AcDbPoint
 10
-1931.125341
 20
-1572.588655
 30
0.0
  0
POINT
  5
9AB
100
AcDbEntity
  8
DEFPOINTS
  6
BYBLOCK
 62
     0
100
AcDbPoint
 10
-1921.125341
 20
-1587.511613
 30
0.0
  0
POINT
  5
9AC
100
AcDbEntity
  8
DEFPOINTS
  6
BYBLOCK
 62
     0
100
AcDbPoint
 10
-1921.125341
 20
-1568.274966
 30
0.0
  0
ENDBLK
  5
9AD
100
AcDbEntity
  8
0
100
AcDbBlockEnd
  0
BLOCK
  5
960
100
AcDbEntity
  8
0
100
AcDbBlockBegin
  2
*D29
 70
    65
 10
0.0
 20
0.0
 30
0.0
  3
*D29
  1

  0
LINE
  5
961
100
AcDbEntity
  8
0
  6
BYBLOCK
 62
     0
100
AcDbLine
 10
-1910.500341
 20
-1587.511613
 30
0.0
 11
-1902.812968
 21
-1587.511613
 31
0.0
  0
LINE
  5
962
100
AcDbEntity
  8
0
  6
BYBLOCK
 62
     0
100
AcDbLine
 10
-1903.437968
 20
-1579.588655
 30
0.0
 11
-1902.812968
 21
-1579.588655
 31
0.0
  0
LINE
  5
963
100
AcDbEntity
  8
0
  6
BYBLOCK
 62
     0
100
AcDbLine
 10
-1904.062968
 20
-1585.011613
 30
0.0
 11
-1904.062968
 21
-1582.088655
 31
0.0
  0
SOLID
  5
964
100
AcDbEntity
  8
0
  6
BYBLOCK
 62
     0
100
AcDbTrace
 10
-1904.479634
 20
-1585.011613
 30
0.0
 11
-1903.646301
 21
-1585.011613
 31
0.0
 12
-1904.062968
 22
-1587.511613
 32
0.0
 13
-1904.062968
 23
-1587.511613
 33
0.0
  0
SOLID
  5
965
100
AcDbEntity
  8
0
  6
BYBLOCK
 62
     0
100
AcDbTrace
 10
-1904.479634
 20
-1582.088655
 30
0.0
 11
-1903.646301
 21
-1582.088655
 31
0.0
 12
-1904.062968
 22
-1579.588655
 32
0.0
 13
-1904.062968
 23
-1579.588655
 33
0.0
  0
MTEXT
  5
966
100
AcDbEntity
  8
0
  6
BYBLOCK
 62
     0
100
AcDbMText
 10
-1906.187968
 20
-1583.550134
 30
0.0
 40
3.0
 41
0.0
 71
     5
 72
     1
  1
\A1;{=}
 11
0.0
 21
1.0
 31
0.0
  0
POINT
  5
967
100
AcDbEntity
  8
DEFPOINTS
  6
BYBLOCK
 62
     0
100
AcDbPoint
 10
-1911.125341
 20
-1587.511613
 30
0.0
  0
POINT
  5
968
100
AcDbEntity
  8
DEFPOINTS
  6
BYBLOCK
 62
     0
100
AcDbPoint
 10
-1904.062968
 20
-1579.588655
 30
0.0
  0
POINT
  5
969
100
AcDbEntity
  8
DEFPOINTS
  6
BYBLOCK
 62
     0
100
AcDbPoint
 10
-1904.062968
 20
-1579.588655
 30
0.0
  0
ENDBLK
  5
96A
100
AcDbEntity
  8
0
100
AcDbBlockEnd
  0
BLOCK
  5
982
100
AcDbEntity
  8
0
100
AcDbBlockBegin
  2
*D30
 70
    65
 10
0.0
 20
0.0
 30
0.0
  3
*D30
  1

  0
LINE
  5
983
100
AcDbEntity
  8
0
  6
BYBLOCK
 62
     0
100
AcDbLine
 10
-1910.500341
 20
-1590.511613
 30
0.0
 11
-1902.659203
 21
-1590.511613
 31
0.0
  0
LINE
  5
984
100
AcDbEntity
  8
0
  6
BYBLOCK
 62
     0
100
AcDbLine
 10
-1904.668069
 20
-1599.588655
 30
0.0
 11
-1902.659203
 21
-1599.588655
 31
0.0
  0
LINE
  5
985
100
AcDbEntity
  8
0
  6
BYBLOCK
 62
     0
100
AcDbLine
 10
-1903.909203
 20
-1593.011613
 30
0.0
 11
-1903.909203
 21
-1597.088655
 31
0.0
  0
SOLID
  5
986
100
AcDbEntity
  8
0
  6
BYBLOCK
 62
     0
100
AcDbTrace
 10
-1904.32587
 20
-1593.011613
 30
0.0
 11
-1903.492537
 21
-1593.011613
 31
0.0
 12
-1903.909203
 22
-1590.511613
 32
0.0
 13
-1903.909203
 23
-1590.511613
 33
0.0
  0
SOLID
  5
987
100
AcDbEntity
  8
0
  6
BYBLOCK
 62
     0
100
AcDbTrace
 10
-1904.32587
 20
-1597.088655
 30
0.0
 11
-1903.492537
 21
-1597.088655
 31
0.0
 12
-1903.909203
 22
-1599.588655
 32
0.0
 13
-1903.909203
 23
-1599.588655
 33
0.0
  0
MTEXT
  5
988
100
AcDbEntity
  8
0
  6
BYBLOCK
 62
     0
100
AcDbMText
 10
-1906.034203
 20
-1595.050134
 30
0.0
 40
3.0
 41
0.0
 71
     5
 72
     1
  1
\A1;{=}
 11
0.0
 21
1.0
 31
0.0
  0
POINT
  5
989
100
AcDbEntity
  8
DEFPOINTS
  6
BYBLOCK
 62
     0
100
AcDbPoint
 10
-1911.125341
 20
-1590.511613
 30
0.0
  0
POINT
  5
98A
100
AcDbEntity
  8
DEFPOINTS
  6
BYBLOCK
 62
     0
100
AcDbPoint
 10
-1905.293069
 20
-1599.588655
 30
0.0
  0
POINT
  5
98B
100
AcDbEntity
  8
DEFPOINTS
  6
BYBLOCK
 62
     0
100
AcDbPoint
 10
-1903.909203
 20
-1599.588655
 30
0.0
  0
ENDBLK
  5
98C
100
AcDbEntity
  8
0
100
AcDbBlockEnd
  0
BLOCK
  5
9F4
100
AcDbEntity
  8
QUOTE
100
AcDbBlockBegin
  2
A$C7154
 70
     0
 10
0.0
 20
0.0
 30
0.0
  3
A$C7154
  1

  0
TEXT
  5
9F0
100
AcDbEntity
  8
DISEGNO
100
AcDbText
 10
0.095028
 20
0.004601
 30
0.0
 40
2.5
  1
RISPETTO AL MASTER: P.97.88.R0.25
 41
1.1
100
AcDbText
  0
TEXT
  5
9F1
100
AcDbEntity
  8
DISEGNO
100
AcDbText
 10
0.095028
 20
4.754601
 30
0.0
 40
2.5
  1
AGLI SCOSTAMENTI AMMESSI
 41
1.1
100
AcDbText
  0
TEXT
  5
9F2
100
AcDbEntity
  8
DISEGNO
100
AcDbText
 10
0.095028
 20
9.504601
 30
0.0
 40
2.5
  1
SONO INDICATIVE E SI RIFERISCONO
 41
1.1
100
AcDbText
  0
TEXT
  5
9F3
100
AcDbEntity
  8
DISEGNO
100
AcDbText
 10
0.095028
 20
14.254601
 30
0.0
 40
2.5
  1
LE TOLLERANZE DEI PROFILI
 41
1.1
100
AcDbText
  0
ENDBLK
  5
9F5
100
AcDbEntity
  8
QUOTE
100
AcDbBlockEnd
  0
ENDSEC
  0
SECTION
  2
ENTITIES
  0
ARC
  5
553
100
AcDbEntity
  8
DISEGNO
100
AcDbCircle
 10
-1839.21752
 20
-1542.097758
 30
0.0
 40
0.8
100
AcDbArc
 50
210.0
 51
330.0
1001
ACAD
1000
ASC_BOUNDS
1002
{
1070
    19
1002
}
  0
LINE
  5
554
100
AcDbEntity
  8
DISEGNO
100
AcDbLine
 10
-1838.5247
 20
-1542.497758
 30
0.0
 11
-1836.220769
 21
-1538.507233
 31
0.0
1001
ACAD
1000
ASC_BOUNDS
1002
{
1070
    19
1002
}
  0
LINE
  5
555
100
AcDbEntity
  8
DISEGNO
100
AcDbLine
 10
-1839.910341
 20
-1542.497758
 30
0.0
 11
-1844.298203
 21
-1534.897758
 31
0.0
1001
ACAD
1000
ASC_BOUNDS
1002
{
1070
    19
1002
}
  0
LINE
  5
556
100
AcDbEntity
  8
DISEGNO
100
AcDbLine
 10
-1834.21752
 20
-1437.897758
 30
0.0
 11
-1846.21752
 21
-1437.897758
 31
0.0
  0
LINE
  5
557
100
AcDbEntity
  8
DISEGNO
100
AcDbLine
 10
-1846.21752
 20
-1437.897758
 30
0.0
 11
-1846.21752
 21
-1408.897758
 31
0.0
  0
LINE
  5
558
100
AcDbEntity
  8
DISEGNO
100
AcDbLine
 10
-1847.21752
 20
-1407.897758
 30
0.0
 11
-1858.21752
 21
-1407.897758
 31
0.0
  0
LINE
  5
559
100
AcDbEntity
  8
DISEGNO
100
AcDbLine
 10
-1859.21752
 20
-1408.897758
 30
0.0
 11
-1859.21752
 21
-1424.897758
 31
0.0
  0
LINE
  5
55A
100
AcDbEntity
  8
DISEGNO
100
AcDbLine
 10
-1859.21752
 20
-1424.897758
 30
0.0
 11
-1855.71752
 21
-1424.897758
 31
0.0
  0
LINE
  5
55B
100
AcDbEntity
  8
DISEGNO
100
AcDbLine
 10
-1855.71752
 20
-1424.897758
 30
0.0
 11
-1855.71752
 21
-1433.297758
 31
0.0
  0
LINE
  5
55C
100
AcDbEntity
  8
DISEGNO
100
AcDbLine
 10
-1855.71752
 20
-1433.297758
 30
0.0
 11
-1859.21752
 21
-1433.297758
 31
0.0
  0
LINE
  5
55D
100
AcDbEntity
  8
DISEGNO
100
AcDbLine
 10
-1859.21752
 20
-1433.297758
 30
0.0
 11
-1859.21752
 21
-1507.656742
 31
0.0
  0
LINE
  5
55E
100
AcDbEntity
  8
DISEGNO
100
AcDbLine
 10
-1833.21752
 20
-1438.897758
 30
0.0
 11
-1833.21752
 21
-1445.897758
 31
0.0
  0
LINE
  5
55F
100
AcDbEntity
  8
DISEGNO
100
AcDbLine
 10
-1833.21752
 20
-1445.897758
 30
0.0
 11
-1840.413673
 21
-1458.36186
 31
0.0
  0
LINE
  5
560
100
AcDbEntity
  8
DISEGNO
100
AcDbLine
 10
-1841.21752
 20
-1461.36186
 30
0.0
 11
-1841.21752
 21
-1516.069188
 31
0.0
  0
LINE
  5
565
100
AcDbEntity
  8
DISEGNO
100
AcDbLine
 10
-1844.298203
 20
-1534.897758
 30
0.0
 11
-1844.298203
 21
-1533.497758
 31
0.0
  0
LINE
  5
567
100
AcDbEntity
  8
DISEGNO
100
AcDbLine
 10
-1844.298203
 20
-1533.497758
 30
0.0
 11
-1859.21752
 21
-1507.656742
 31
0.0
  0
ARC
  5
5D2
100
AcDbEntity
  8
DISEGNO
100
AcDbCircle
 10
-1835.21752
 20
-1461.36186
 30
0.0
 40
6.0
100
AcDbArc
 50
150.0
 51
180.0
  0
LINE
  5
625
100
AcDbEntity
  8
DISEGNO
100
AcDbLine
 10
-1836.220769
 20
-1538.507233
 30
0.0
 11
-1836.220769
 21
-1535.507233
 31
0.0
1001
ACAD
1000
ASC_BOUNDS
1002
{
1070
    19
1002
}
  0
LINE
  5
626
100
AcDbEntity
  8
DISEGNO
100
AcDbLine
 10
-1836.220769
 20
-1535.507233
 30
0.0
 11
-1841.013075
 21
-1517.622102
 31
0.0
  0
ARC
  5
641
100
AcDbEntity
  8
DISEGNO
100
AcDbCircle
 10
-1835.21752
 20
-1516.069188
 30
0.0
 40
6.0
100
AcDbArc
 50
180.0
 51
195.0
  0
LINE
  5
80F
100
AcDbEntity
  8
DISEGNO
100
AcDbLine
 10
-1859.21752
 20
-1408.897758
 30
0.0
 11
-1858.21752
 21
-1407.897758
 31
0.0
  0
LINE
  5
810
100
AcDbEntity
  8
DISEGNO
100
AcDbLine
 10
-1846.21752
 20
-1408.897758
 30
0.0
 11
-1847.21752
 21
-1407.897758
 31
0.0
  0
LINE
  5
811
100
AcDbEntity
  8
DISEGNO
100
AcDbLine
 10
-1834.21752
 20
-1437.897758
 30
0.0
 11
-1833.21752
 21
-1438.897758
 31
0.0
  0
ENDSEC
  0
SECTION
  2
OBJECTS
  0
DICTIONARY
  5
C
100
AcDbDictionary
  3
ACAD_GROUP
350
D
  3
ACAD_MLINESTYLE
350
E
  0
DICTIONARY
  5
D
102
{ACAD_REACTORS
330
C
102
}
100
AcDbDictionary
  0
DICTIONARY
  5
E
102
{ACAD_REACTORS
330
C
102
}
100
AcDbDictionary
  3
STANDARD
350
1C
  0
MLINESTYLE
  5
1C
102
{ACAD_REACTORS
330
E
102
}
100
AcDbMlineStyle
  2
STANDARD
 70
     0
  3

 62
     0
 51
90.0
 52
90.0
 71
     2
 49
0.5
 62
   256
  6
BYLAYER
 49
-0.5
 62
   256
  6
BYLAYER
  0
ENDSEC
  0
EOF
