  0
SECTION
  2
HEADER
  9
$ACADVER
  1
AC1012
  9
$DWGCODEPAGE
  3
iso8859-1
  9
$INSBASE
 10
0.0
 20
0.0
 30
0.0
  9
$EXTMIN
 10
-1940.234365
 20
-1659.251698
 30
0.0
  9
$EXTMAX
 10
-1501.96332
 20
-1372.037392
 30
0.0
  9
$LIMMIN
 10
0.0
 20
0.0
  9
$LIMMAX
 10
210.0
 20
297.0
  9
$ORTHOMODE
 70
     1
  9
$REGENMODE
 70
     1
  9
$FILLMODE
 70
     1
  9
$QTEXTMODE
 70
     0
  9
$MIRRTEXT
 70
     1
  9
$DRAGMODE
 70
     2
  9
$LTSCALE
 40
1.0
  9
$OSMODE
 70
     0
  9
$ATTMODE
 70
     1
  9
$TEXTSIZE
 40
3.0
  9
$TRACEWID
 40
0.05
  9
$TEXTSTYLE
  7
STYLE3
  9
$CLAYER
  8
QUOTE
  9
$CELTYPE
  6
BYLAYER
  9
$CECOLOR
 62
   256
  9
$CELTSCALE
 40
1.0
  9
$DELOBJ
 70
     1
  9
$DISPSILH
 70
     0
  9
$DIMSCALE
 40
1.0
  9
$DIMASZ
 40
2.5
  9
$DIMEXO
 40
0.625
  9
$DIMDLI
 40
3.75
  9
$DIMRND
 40
0.0
  9
$DIMDLE
 40
0.0
  9
$DIMEXE
 40
1.25
  9
$DIMTP
 40
0.0
  9
$DIMTM
 40
0.0
  9
$DIMTXT
 40
3.5
  9
$DIMCEN
 40
0.0
  9
$DIMTSZ
 40
0.0
  9
$DIMTOL
 70
     0
  9
$DIMLIM
 70
     0
  9
$DIMTIH
 70
     0
  9
$DIMTOH
 70
     0
  9
$DIMSE1
 70
     0
  9
$DIMSE2
 70
     0
  9
$DIMTAD
 70
     1
  9
$DIMZIN
 70
     8
  9
$DIMBLK
  1

  9
$DIMASO
 70
     1
  9
$DIMSHO
 70
     1
  9
$DIMPOST
  1

  9
$DIMAPOST
  1

  9
$DIMALT
 70
     0
  9
$DIMALTD
 70
     2
  9
$DIMALTF
 40
0.03937
  9
$DIMLFAC
 40
1.0
  9
$DIMTOFL
 70
     0
  9
$DIMTVP
 40
0.0
  9
$DIMTIX
 70
     0
  9
$DIMSOXD
 70
     0
  9
$DIMSAH
 70
     0
  9
$DIMBLK1
  1

  9
$DIMBLK2
  1

  9
$DIMSTYLE
  2
STANDARD
  9
$DIMCLRD
 70
     0
  9
$DIMCLRE
 70
     0
  9
$DIMCLRT
 70
     0
  9
$DIMTFAC
 40
1.0
  9
$DIMGAP
 40
0.625
  9
$DIMJUST
 70
     0
  9
$DIMSD1
 70
     0
  9
$DIMSD2
 70
     0
  9
$DIMTOLJ
 70
     1
  9
$DIMTZIN
 70
     8
  9
$DIMALTZ
 70
     0
  9
$DIMALTTZ
 70
     0
  9
$DIMFIT
 70
     3
  9
$DIMUPT
 70
     0
  9
$DIMUNIT
 70
     2
  9
$DIMDEC
 70
     2
  9
$DIMTDEC
 70
     2
  9
$DIMALTU
 70
     2
  9
$DIMALTTD
 70
     2
  9
$DIMTXSTY
  7
STANDARD
  9
$DIMAUNIT
 70
     0
  9
$LUNITS
 70
     2
  9
$LUPREC
 70
     4
  9
$SKETCHINC
 40
0.1
  9
$FILLETRAD
 40
0.8
  9
$AUNITS
 70
     0
  9
$AUPREC
 70
     0
  9
$MENU
  1
acad
  9
$ELEVATION
 40
0.0
  9
$PELEVATION
 40
0.0
  9
$THICKNESS
 40
0.0
  9
$LIMCHECK
 70
     0
  9
$BLIPMODE
 70
     1
  9
$CHAMFERA
 40
0.0
  9
$CHAMFERB
 40
0.0
  9
$CHAMFERC
 40
20.0
  9
$CHAMFERD
 40
0.0
  9
$SKPOLY
 70
     0
  9
$TDCREATE
 40
2452481.284075347
  9
$TDUPDATE
 40
2452674.325445602
  9
$TDINDWG
 40
0.0500599537
  9
$TDUSRTIMER
 40
0.0500599537
  9
$USRTIMER
 70
     1
  9
$ANGBASE
 50
0.0
  9
$ANGDIR
 70
     0
  9
$PDMODE
 70
     0
  9
$PDSIZE
 40
0.0
  9
$PLINEWID
 40
0.0
  9
$COORDS
 70
     1
  9
$SPLFRAME
 70
     0
  9
$SPLINETYPE
 70
     6
  9
$SPLINESEGS
 70
     8
  9
$ATTDIA
 70
     0
  9
$ATTREQ
 70
     1
  9
$HANDLING
 70
     1
  9
$HANDSEED
  5
1231
  9
$SURFTAB1
 70
     6
  9
$SURFTAB2
 70
     6
  9
$SURFTYPE
 70
     6
  9
$SURFU
 70
     6
  9
$SURFV
 70
     6
  9
$UCSNAME
  2

  9
$UCSORG
 10
0.0
 20
0.0
 30
0.0
  9
$UCSXDIR
 10
1.0
 20
0.0
 30
0.0
  9
$UCSYDIR
 10
0.0
 20
1.0
 30
0.0
  9
$PUCSNAME
  2

  9
$PUCSORG
 10
0.0
 20
0.0
 30
0.0
  9
$PUCSXDIR
 10
1.0
 20
0.0
 30
0.0
  9
$PUCSYDIR
 10
0.0
 20
1.0
 30
0.0
  9
$USERI1
 70
     0
  9
$USERI2
 70
     0
  9
$USERI3
 70
     0
  9
$USERI4
 70
     0
  9
$USERI5
 70
     0
  9
$USERR1
 40
0.0
  9
$USERR2
 40
0.0
  9
$USERR3
 40
0.0
  9
$USERR4
 40
0.0
  9
$USERR5
 40
0.0
  9
$WORLDVIEW
 70
     1
  9
$SHADEDGE
 70
     3
  9
$SHADEDIF
 70
    70
  9
$TILEMODE
 70
     1
  9
$MAXACTVP
 70
    16
  9
$PINSBASE
 10
0.0
 20
0.0
 30
0.0
  9
$PLIMCHECK
 70
     0
  9
$PEXTMIN
 10
1.000000E+20
 20
1.000000E+20
 30
1.000000E+20
  9
$PEXTMAX
 10
-1.000000E+20
 20
-1.000000E+20
 30
-1.000000E+20
  9
$PLIMMIN
 10
0.0
 20
0.0
  9
$PLIMMAX
 10
12.0
 20
9.0
  9
$UNITMODE
 70
     0
  9
$VISRETAIN
 70
     0
  9
$PLINEGEN
 70
     0
  9
$PSLTSCALE
 70
     1
  9
$TREEDEPTH
 70
  3020
  9
$PICKSTYLE
 70
     1
  9
$CMLSTYLE
  2
STANDARD
  9
$CMLJUST
 70
     0
  9
$CMLSCALE
 40
20.0
  9
$SAVEIMAGES
 70
     0
  0
ENDSEC
  0
SECTION
  2
CLASSES
  0
ENDSEC
  0
SECTION
  2
TABLES
  0
TABLE
  2
VPORT
  5
8
100
AcDbSymbolTable
 70
     2
  0
VPORT
  5
1230
100
AcDbSymbolTableRecord
100
AcDbViewportTableRecord
  2
*ACTIVE
 70
     0
 10
0.0
 20
0.0
 11
1.0
 21
1.0
 12
-1799.264785
 22
-1492.357148
 13
0.0
 23
0.0
 14
10.0
 24
10.0
 15
10.0
 25
10.0
 16
0.0
 26
0.0
 36
1.0
 17
0.0
 27
0.0
 37
0.0
 40
146.828225
 41
1.563011
 42
50.0
 43
0.0
 44
0.0
 50
0.0
 51
0.0
 71
     0
 72
   100
 73
     1
 74
     0
 75
     0
 76
     0
 77
     0
 78
     0
  0
ENDTAB
  0
TABLE
  2
LTYPE
  5
5
100
AcDbSymbolTable
 70
     4
  0
LTYPE
  5
13
100
AcDbSymbolTableRecord
100
AcDbLinetypeTableRecord
  2
BYBLOCK
 70
     0
  3

 72
    65
 73
     0
 40
0.0
  0
LTYPE
  5
14
100
AcDbSymbolTableRecord
100
AcDbLinetypeTableRecord
  2
BYLAYER
 70
     0
  3

 72
    65
 73
     0
 40
0.0
  0
LTYPE
  5
15
100
AcDbSymbolTableRecord
100
AcDbLinetypeTableRecord
  2
CONTINUOUS
 70
    64
  3
Solid line
 72
    65
 73
     0
 40
0.0
  0
LTYPE
  5
94
100
AcDbSymbolTableRecord
100
AcDbLinetypeTableRecord
  2
ACAD_ISO04W100
 70
    64
  3
____ . ____ . ____ . ____ . ____ . ____ . ____ 
 72
    65
 73
     4
 40
30.5
 49
24.0
 74
     0
 49
-3.0
 74
     0
 49
0.5
 74
     0
 49
-3.0
 74
     0
  0
LTYPE
  5
225
100
AcDbSymbolTableRecord
100
AcDbLinetypeTableRecord
  2
TRATTEGGIATAX2
 70
    64
  3
____  ____  ____  ____  ____  ____  ____  ____ 
 72
    65
 73
     2
 40
1.5
 49
1.0
 74
     0
 49
-0.5
 74
     0
  0
LTYPE
  5
226
100
AcDbSymbolTableRecord
100
AcDbLinetypeTableRecord
  2
NASCOSTA
 70
    64
  3
__ __ __ __ __ __ __ __ __ __ __ __ __ __ __ __
 72
    65
 73
     2
 40
0.375
 49
0.25
 74
     0
 49
-0.125
 74
     0
  0
ENDTAB
  0
TABLE
  2
LAYER
  5
2
100
AcDbSymbolTable
 70
    11
  0
LAYER
  5
F
100
AcDbSymbolTableRecord
100
AcDbLayerTableRecord
  2
0
 70
     0
 62
     7
  6
CONTINUOUS
  0
LAYER
  5
95
100
AcDbSymbolTableRecord
100
AcDbLayerTableRecord
  2
DISEGNO
 70
    64
 62
     7
  6
CONTINUOUS
  0
LAYER
  5
96
100
AcDbSymbolTableRecord
100
AcDbLayerTableRecord
  2
ASSI
 70
    64
 62
     1
  6
ACAD_ISO04W100
  0
LAYER
  5
97
100
AcDbSymbolTableRecord
100
AcDbLayerTableRecord
  2
SEZIONE
 70
    64
 62
     3
  6
CONTINUOUS
  0
LAYER
  5
98
100
AcDbSymbolTableRecord
100
AcDbLayerTableRecord
  2
TEMPRA
 70
    64
 62
     2
  6
CONTINUOUS
  0
LAYER
  5
99
100
AcDbSymbolTableRecord
100
AcDbLayerTableRecord
  2
QUOTE
 70
    64
 62
     5
  6
CONTINUOUS
  0
LAYER
  5
1A3
100
AcDbSymbolTableRecord
100
AcDbLayerTableRecord
  2
TRATTO
 70
    64
 62
     6
  6
NASCOSTA
  0
LAYER
  5
28A
100
AcDbSymbolTableRecord
100
AcDbLayerTableRecord
  2
DEFPOINTS
 70
    64
 62
     7
  6
CONTINUOUS
  0
LAYER
  5
4A6
100
AcDbSymbolTableRecord
100
AcDbLayerTableRecord
  2
TABELLA
 70
    64
 62
     8
  6
CONTINUOUS
  0
LAYER
  5
55B
100
AcDbSymbolTableRecord
100
AcDbLayerTableRecord
  2
MARCATURA
 70
    64
 62
   136
  6
CONTINUOUS
  0
LAYER
  5
55C
100
AcDbSymbolTableRecord
100
AcDbLayerTableRecord
  2
TESTO
 70
    64
 62
   140
  6
CONTINUOUS
  0
ENDTAB
  0
TABLE
  2
STYLE
  5
3
100
AcDbSymbolTable
 70
     2
  0
STYLE
  5
10
100
AcDbSymbolTableRecord
100
AcDbTextStyleTableRecord
  2
STANDARD
 70
    64
 40
0.0
 41
1.1
 50
0.0
 71
     0
 42
3.0
  3
D:\Programmi\AutoCAD LT\isocp.shx
  4

  0
STYLE
  5
B0
100
AcDbSymbolTableRecord
100
AcDbTextStyleTableRecord
  2
STYLE3
 70
    64
 40
0.0
 41
1.1
 50
0.0
 71
     0
 42
3.0
  3
D:\Programmi\AutoCAD LT\isocp.shx
  4

  0
ENDTAB
  0
TABLE
  2
VIEW
  5
6
100
AcDbSymbolTable
 70
     0
  0
ENDTAB
  0
TABLE
  2
UCS
  5
7
100
AcDbSymbolTable
 70
     0
  0
ENDTAB
  0
TABLE
  2
APPID
  5
9
100
AcDbSymbolTable
 70
     1
  0
APPID
  5
11
100
AcDbSymbolTableRecord
100
AcDbRegAppTableRecord
  2
ACAD
 70
     0
  0
ENDTAB
  0
TABLE
  2
DIMSTYLE
  5
A
100
AcDbSymbolTable
 70
    24
  0
DIMSTYLE
105
1D
100
AcDbSymbolTableRecord
100
AcDbDimStyleTableRecord
  2
STANDARD
 70
     0
  3

  4

  5

  6

  7

 40
1.0
 41
2.5
 42
0.625
 43
3.75
 44
1.25
 45
0.0
 46
0.0
 47
0.0
 48
0.0
140
3.5
141
2.5
142
0.0
143
0.03937
144
1.0
145
0.0
146
1.0
147
0.625
 71
     0
 72
     0
 73
     0
 74
     0
 75
     0
 76
     0
 77
     1
 78
     8
170
     0
171
     2
172
     0
173
     0
174
     0
175
     0
176
     0
177
     0
178
     0
270
     2
271
     2
272
     2
273
     2
274
     2
340
10
275
     0
280
     0
281
     0
282
     0
283
     1
284
     8
285
     0
286
     0
287
     3
288
     0
  0
DIMSTYLE
105
234
100
AcDbSymbolTableRecord
100
AcDbDimStyleTableRecord
  2
TOLL-04
 70
     0
  3

  4

  5

  6

  7

 40
1.0
 41
2.5
 42
0.625
 43
3.75
 44
1.25
 45
0.0
 46
0.0
 47
0.02
 48
0.02
140
3.5
141
2.5
142
0.0
143
0.03937
144
1.0
145
0.0
146
0.8
147
0.625
 71
     1
 72
     0
 73
     0
 74
     0
 75
     0
 76
     0
 77
     1
 78
     8
170
     0
171
     2
172
     0
173
     0
174
     0
175
     0
176
     0
177
     0
178
     0
270
     2
271
     2
272
     2
273
     2
274
     2
340
10
275
     0
280
     0
281
     0
282
     0
283
     2
284
     8
285
     0
286
     0
287
     3
288
     0
  0
DIMSTYLE
105
4A7
100
AcDbSymbolTableRecord
100
AcDbDimStyleTableRecord
  2
ISO-25
 70
     0
  3

  4

  5

  6

  7

 40
1.0
 41
2.5
 42
0.625
 43
3.75
 44
1.25
 45
0.0
 46
0.0
 47
0.0
 48
0.0
140
2.5
141
2.5
142
0.0
143
0.0394
144
1.0
145
1.0
146
1.0
147
0.625
 71
     0
 72
     0
 73
     1
 74
     0
 75
     0
 76
     0
 77
     1
 78
     8
170
     0
171
     2
172
     1
173
     0
174
     0
175
     0
176
     0
177
     0
178
     0
270
     2
271
     4
272
     4
273
     2
274
     2
340
10
275
     0
280
     0
281
     0
282
     0
283
     1
284
     0
285
     0
286
     0
287
     3
288
     0
  0
DIMSTYLE
105
574
100
AcDbSymbolTableRecord
100
AcDbDimStyleTableRecord
  2
TOLL-01
 70
     0
  3

  4

  5

  6

  7

 40
1.0
 41
2.5
 42
0.625
 43
3.75
 44
1.25
 45
0.0
 46
0.0
 47
0.01
 48
0.01
140
3.5
141
2.5
142
0.0
143
0.03937
144
1.0
145
0.0
146
0.8
147
0.625
 71
     1
 72
     0
 73
     0
 74
     0
 75
     0
 76
     0
 77
     1
 78
     8
170
     0
171
     2
172
     0
173
     0
174
     0
175
     0
176
     0
177
     0
178
     0
270
     2
271
     2
272
     2
273
     2
274
     2
340
10
275
     0
280
     0
281
     0
282
     0
283
     2
284
     8
285
     0
286
     0
287
     3
288
     0
  0
DIMSTYLE
105
575
100
AcDbSymbolTableRecord
100
AcDbDimStyleTableRecord
  2
TOLL-02
 70
     0
  3

  4

  5

  6

  7

 40
1.0
 41
2.5
 42
0.625
 43
3.75
 44
1.25
 45
0.0
 46
0.0
 47
0.01
 48
0.0
140
3.5
141
2.5
142
0.0
143
0.03937
144
1.0
145
0.0
146
0.8
147
0.625
 71
     1
 72
     0
 73
     0
 74
     0
 75
     0
 76
     0
 77
     1
 78
     8
170
     0
171
     2
172
     0
173
     0
174
     0
175
     0
176
     0
177
     0
178
     0
270
     2
271
     2
272
     2
273
     2
274
     2
340
10
275
     0
280
     0
281
     0
282
     0
283
     2
284
     8
285
     0
286
     0
287
     3
288
     0
  0
DIMSTYLE
105
576
100
AcDbSymbolTableRecord
100
AcDbDimStyleTableRecord
  2
TOLL-03
 70
     0
  3

  4

  5

  6

  7

 40
1.0
 41
2.5
 42
0.625
 43
3.75
 44
1.25
 45
0.0
 46
0.0
 47
-0.01
 48
0.0
140
3.5
141
2.5
142
0.0
143
0.03937
144
1.0
145
0.0
146
0.8
147
0.625
 71
     1
 72
     0
 73
     0
 74
     0
 75
     0
 76
     0
 77
     1
 78
     8
170
     0
171
     2
172
     0
173
     0
174
     0
175
     0
176
     0
177
     0
178
     0
270
     2
271
     2
272
     2
273
     2
274
     2
340
10
275
     0
280
     0
281
     0
282
     0
283
     2
284
     8
285
     0
286
     0
287
     3
288
     0
  0
DIMSTYLE
105
577
100
AcDbSymbolTableRecord
100
AcDbDimStyleTableRecord
  2
TOLL-05
 70
     0
  3

  4

  5

  6

  7

 40
1.0
 41
2.5
 42
0.625
 43
3.75
 44
1.25
 45
0.0
 46
0.0
 47
0.02
 48
0.0
140
3.5
141
2.5
142
0.0
143
0.03937
144
1.0
145
0.0
146
0.8
147
0.625
 71
     1
 72
     0
 73
     0
 74
     0
 75
     0
 76
     0
 77
     1
 78
     8
170
     0
171
     2
172
     0
173
     0
174
     0
175
     0
176
     0
177
     0
178
     0
270
     2
271
     2
272
     2
273
     2
274
     2
340
10
275
     0
280
     0
281
     0
282
     0
283
     2
284
     8
285
     0
286
     0
287
     3
288
     0
  0
DIMSTYLE
105
578
100
AcDbSymbolTableRecord
100
AcDbDimStyleTableRecord
  2
TOLL-06
 70
     0
  3

  4

  5

  6

  7

 40
1.0
 41
2.5
 42
0.625
 43
3.75
 44
1.25
 45
0.0
 46
0.0
 47
-0.02
 48
0.0
140
3.5
141
2.5
142
0.0
143
0.03937
144
1.0
145
0.0
146
0.8
147
0.625
 71
     1
 72
     0
 73
     0
 74
     0
 75
     0
 76
     0
 77
     1
 78
     8
170
     0
171
     2
172
     0
173
     0
174
     0
175
     0
176
     0
177
     0
178
     0
270
     2
271
     2
272
     2
273
     2
274
     2
340
10
275
     0
280
     0
281
     0
282
     0
283
     2
284
     8
285
     0
286
     0
287
     3
288
     0
  0
DIMSTYLE
105
579
100
AcDbSymbolTableRecord
100
AcDbDimStyleTableRecord
  2
TOLL-07
 70
     0
  3

  4

  5

  6

  7

 40
1.0
 41
2.5
 42
0.625
 43
3.75
 44
1.25
 45
0.0
 46
0.0
 47
0.05
 48
0.05
140
3.5
141
2.5
142
0.0
143
0.03937
144
1.0
145
0.0
146
0.8
147
0.625
 71
     1
 72
     0
 73
     0
 74
     0
 75
     0
 76
     0
 77
     1
 78
     8
170
     0
171
     2
172
     0
173
     0
174
     0
175
     0
176
     0
177
     0
178
     0
270
     2
271
     2
272
     2
273
     2
274
     2
340
10
275
     0
280
     0
281
     0
282
     0
283
     2
284
     8
285
     0
286
     0
287
     3
288
     0
  0
DIMSTYLE
105
57A
100
AcDbSymbolTableRecord
100
AcDbDimStyleTableRecord
  2
TOLL-08
 70
     0
  3

  4

  5

  6

  7

 40
1.0
 41
2.5
 42
0.625
 43
3.75
 44
1.25
 45
0.0
 46
0.0
 47
0.05
 48
0.0
140
3.5
141
2.5
142
0.0
143
0.03937
144
1.0
145
0.0
146
0.8
147
0.625
 71
     1
 72
     0
 73
     0
 74
     0
 75
     0
 76
     0
 77
     1
 78
     8
170
     0
171
     2
172
     0
173
     0
174
     0
175
     0
176
     0
177
     0
178
     0
270
     2
271
     2
272
     2
273
     2
274
     2
340
10
275
     0
280
     0
281
     0
282
     0
283
     2
284
     8
285
     0
286
     0
287
     3
288
     0
  0
DIMSTYLE
105
57B
100
AcDbSymbolTableRecord
100
AcDbDimStyleTableRecord
  2
TOLL-09
 70
     0
  3

  4

  5

  6

  7

 40
1.0
 41
2.5
 42
0.625
 43
3.75
 44
1.25
 45
0.0
 46
0.0
 47
-0.05
 48
0.0
140
3.5
141
2.5
142
0.0
143
0.03937
144
1.0
145
0.0
146
0.8
147
0.625
 71
     1
 72
     0
 73
     0
 74
     0
 75
     0
 76
     0
 77
     1
 78
     8
170
     0
171
     2
172
     0
173
     0
174
     0
175
     0
176
     0
177
     0
178
     0
270
     2
271
     2
272
     2
273
     2
274
     2
340
10
275
     0
280
     0
281
     0
282
     0
283
     2
284
     8
285
     0
286
     0
287
     3
288
     0
  0
DIMSTYLE
105
57C
100
AcDbSymbolTableRecord
100
AcDbDimStyleTableRecord
  2
TOLL-10
 70
     0
  3

  4

  5

  6

  7

 40
1.0
 41
2.5
 42
0.625
 43
3.75
 44
1.25
 45
0.0
 46
0.0
 47
0.1
 48
0.1
140
3.5
141
2.5
142
0.0
143
0.03937
144
1.0
145
0.0
146
0.8
147
0.625
 71
     1
 72
     0
 73
     0
 74
     0
 75
     0
 76
     0
 77
     1
 78
     8
170
     0
171
     2
172
     0
173
     0
174
     0
175
     0
176
     0
177
     0
178
     0
270
     2
271
     2
272
     2
273
     2
274
     2
340
10
275
     0
280
     0
281
     0
282
     0
283
     2
284
     8
285
     0
286
     0
287
     3
288
     0
  0
DIMSTYLE
105
57D
100
AcDbSymbolTableRecord
100
AcDbDimStyleTableRecord
  2
TOLL-11
 70
     0
  3

  4

  5

  6

  7

 40
1.0
 41
2.5
 42
0.625
 43
3.75
 44
1.25
 45
0.0
 46
0.0
 47
0.1
 48
0.0
140
3.5
141
2.5
142
0.0
143
0.03937
144
1.0
145
0.0
146
0.8
147
0.625
 71
     1
 72
     0
 73
     0
 74
     0
 75
     0
 76
     0
 77
     1
 78
     8
170
     0
171
     2
172
     0
173
     0
174
     0
175
     0
176
     0
177
     0
178
     0
270
     2
271
     2
272
     2
273
     2
274
     2
340
10
275
     0
280
     0
281
     0
282
     0
283
     2
284
     8
285
     0
286
     0
287
     3
288
     0
  0
DIMSTYLE
105
57E
100
AcDbSymbolTableRecord
100
AcDbDimStyleTableRecord
  2
TOLL-12
 70
     0
  3

  4

  5

  6

  7

 40
1.0
 41
2.5
 42
0.625
 43
3.75
 44
1.25
 45
0.0
 46
0.0
 47
-0.1
 48
0.0
140
3.5
141
2.5
142
0.0
143
0.03937
144
1.0
145
0.0
146
0.8
147
0.625
 71
     1
 72
     0
 73
     0
 74
     0
 75
     0
 76
     0
 77
     1
 78
     8
170
     0
171
     2
172
     0
173
     0
174
     0
175
     0
176
     0
177
     0
178
     0
270
     2
271
     2
272
     2
273
     2
274
     2
340
10
275
     0
280
     0
281
     0
282
     0
283
     2
284
     8
285
     0
286
     0
287
     3
288
     0
  0
DIMSTYLE
105
57F
100
AcDbSymbolTableRecord
100
AcDbDimStyleTableRecord
  2
TOLL-13
 70
     0
  3

  4

  5

  6

  7

 40
1.0
 41
2.5
 42
0.625
 43
3.75
 44
1.25
 45
0.0
 46
0.0
 47
0.2
 48
0.2
140
3.5
141
2.5
142
0.0
143
0.03937
144
1.0
145
0.0
146
0.8
147
0.625
 71
     1
 72
     0
 73
     0
 74
     0
 75
     0
 76
     0
 77
     1
 78
     8
170
     0
171
     2
172
     0
173
     0
174
     0
175
     0
176
     0
177
     0
178
     0
270
     2
271
     2
272
     2
273
     2
274
     2
340
10
275
     0
280
     0
281
     0
282
     0
283
     2
284
     8
285
     0
286
     0
287
     3
288
     0
  0
DIMSTYLE
105
580
100
AcDbSymbolTableRecord
100
AcDbDimStyleTableRecord
  2
TOLL-14
 70
     0
  3

  4

  5

  6

  7

 40
1.0
 41
2.5
 42
0.625
 43
3.75
 44
1.25
 45
0.0
 46
0.0
 47
0.2
 48
0.0
140
3.5
141
2.5
142
0.0
143
0.03937
144
1.0
145
0.0
146
0.8
147
0.625
 71
     1
 72
     0
 73
     0
 74
     0
 75
     0
 76
     0
 77
     1
 78
     8
170
     0
171
     2
172
     0
173
     0
174
     0
175
     0
176
     0
177
     0
178
     0
270
     2
271
     2
272
     2
273
     2
274
     2
340
10
275
     0
280
     0
281
     0
282
     0
283
     2
284
     8
285
     0
286
     0
287
     3
288
     0
  0
DIMSTYLE
105
581
100
AcDbSymbolTableRecord
100
AcDbDimStyleTableRecord
  2
TOLL-15
 70
     0
  3

  4

  5

  6

  7

 40
1.0
 41
2.5
 42
0.625
 43
3.75
 44
1.25
 45
0.0
 46
0.0
 47
-0.2
 48
0.0
140
3.5
141
2.5
142
0.0
143
0.03937
144
1.0
145
0.0
146
0.8
147
0.625
 71
     1
 72
     0
 73
     0
 74
     0
 75
     0
 76
     0
 77
     1
 78
     8
170
     0
171
     2
172
     0
173
     0
174
     0
175
     0
176
     0
177
     0
178
     0
270
     2
271
     2
272
     2
273
     2
274
     2
340
10
275
     0
280
     0
281
     0
282
     0
283
     2
284
     8
285
     0
286
     0
287
     3
288
     0
  0
DIMSTYLE
105
582
100
AcDbSymbolTableRecord
100
AcDbDimStyleTableRecord
  2
TOLL-16
 70
     0
  3

  4

  5

  6

  7

 40
1.0
 41
2.5
 42
0.625
 43
3.75
 44
1.25
 45
0.0
 46
0.0
 47
0.5
 48
0.5
140
3.5
141
2.5
142
0.0
143
0.03937
144
1.0
145
0.0
146
0.8
147
0.625
 71
     1
 72
     0
 73
     0
 74
     0
 75
     0
 76
     0
 77
     1
 78
     8
170
     0
171
     2
172
     0
173
     0
174
     0
175
     0
176
     0
177
     0
178
     0
270
     2
271
     2
272
     2
273
     2
274
     2
340
10
275
     0
280
     0
281
     0
282
     0
283
     2
284
     8
285
     0
286
     0
287
     3
288
     0
  0
DIMSTYLE
105
583
100
AcDbSymbolTableRecord
100
AcDbDimStyleTableRecord
  2
TOLL-17
 70
     0
  3

  4

  5

  6

  7

 40
1.0
 41
2.5
 42
0.625
 43
3.75
 44
1.25
 45
0.0
 46
0.0
 47
0.5
 48
0.0
140
3.5
141
2.5
142
0.0
143
0.03937
144
1.0
145
0.0
146
0.8
147
0.625
 71
     1
 72
     0
 73
     0
 74
     0
 75
     0
 76
     0
 77
     1
 78
     8
170
     0
171
     2
172
     0
173
     0
174
     0
175
     0
176
     0
177
     0
178
     0
270
     2
271
     2
272
     2
273
     2
274
     2
340
10
275
     0
280
     0
281
     0
282
     0
283
     2
284
     8
285
     0
286
     0
287
     3
288
     0
  0
DIMSTYLE
105
584
100
AcDbSymbolTableRecord
100
AcDbDimStyleTableRecord
  2
TOLL-18
 70
     0
  3

  4

  5

  6

  7

 40
1.0
 41
2.5
 42
0.625
 43
3.75
 44
1.25
 45
0.0
 46
0.0
 47
-0.5
 48
0.0
140
3.5
141
2.5
142
0.0
143
0.03937
144
1.0
145
0.0
146
0.8
147
0.625
 71
     1
 72
     0
 73
     0
 74
     0
 75
     0
 76
     0
 77
     1
 78
     8
170
     0
171
     2
172
     0
173
     0
174
     0
175
     0
176
     0
177
     0
178
     0
270
     2
271
     2
272
     2
273
     2
274
     2
340
10
275
     0
280
     0
281
     0
282
     0
283
     2
284
     8
285
     0
286
     0
287
     3
288
     0
  0
DIMSTYLE
105
585
100
AcDbSymbolTableRecord
100
AcDbDimStyleTableRecord
  2
TOLL-19
 70
     0
  3

  4

  5

  6

  7

 40
1.0
 41
2.5
 42
0.625
 43
3.75
 44
1.25
 45
0.0
 46
0.0
 47
0.16
 48
0.0
140
3.5
141
2.5
142
0.0
143
0.03937
144
1.0
145
0.0
146
0.8
147
0.625
 71
     1
 72
     0
 73
     0
 74
     0
 75
     0
 76
     0
 77
     1
 78
     8
170
     0
171
     2
172
     0
173
     0
174
     0
175
     0
176
     0
177
     0
178
     0
270
     2
271
     0
272
     2
273
     2
274
     2
340
10
275
     1
280
     0
281
     0
282
     0
283
     2
284
     8
285
     0
286
     0
287
     3
288
     0
  0
DIMSTYLE
105
5E5
100
AcDbSymbolTableRecord
100
AcDbDimStyleTableRecord
  2
TOLL-20
 70
     0
  3

  4

  5

  6

  7

 40
1.0
 41
2.5
 42
0.625
 43
3.75
 44
1.25
 45
0.0
 46
0.0
 47
-0.08
 48
-0.08
140
3.5
141
2.5
142
0.0
143
0.03937
144
1.0
145
0.0
146
0.8
147
0.625
 71
     1
 72
     0
 73
     0
 74
     0
 75
     0
 76
     0
 77
     1
 78
     8
170
     0
171
     2
172
     0
173
     0
174
     0
175
     0
176
     0
177
     0
178
     0
270
     2
271
     0
272
     2
273
     2
274
     2
340
10
275
     1
280
     0
281
     0
282
     0
283
     2
284
     8
285
     0
286
     0
287
     3
288
     0
  0
DIMSTYLE
105
5E6
100
AcDbSymbolTableRecord
100
AcDbDimStyleTableRecord
  2
TOLL-21
 70
     0
  3

  4

  5

  6

  7

 40
1.0
 41
2.5
 42
0.625
 43
3.75
 44
1.25
 45
0.0
 46
0.0
 47
0.033
 48
0.0
140
3.5
141
2.5
142
0.0
143
0.03937
144
1.0
145
0.0
146
0.8
147
0.625
 71
     1
 72
     0
 73
     0
 74
     0
 75
     0
 76
     0
 77
     1
 78
     8
170
     0
171
     2
172
     0
173
     0
174
     0
175
     0
176
     0
177
     0
178
     0
270
     2
271
     0
272
     2
273
     2
274
     2
340
10
275
     1
280
     0
281
     0
282
     0
283
     2
284
     8
285
     0
286
     0
287
     3
288
     0
  0
DIMSTYLE
105
60E
100
AcDbSymbolTableRecord
100
AcDbDimStyleTableRecord
  2
TOLL-22
 70
     0
  3

  4

  5

  6

  7

 40
1.0
 41
2.5
 42
0.625
 43
3.75
 44
1.25
 45
0.0
 46
0.0
 47
-0.033
 48
0.0
140
3.5
141
2.5
142
0.0
143
0.03937
144
1.0
145
0.0
146
0.8
147
0.625
 71
     1
 72
     0
 73
     0
 74
     0
 75
     0
 76
     0
 77
     1
 78
     8
170
     0
171
     2
172
     0
173
     0
174
     0
175
     0
176
     0
177
     0
178
     0
270
     2
271
     0
272
     2
273
     2
274
     2
340
10
275
     1
280
     0
281
     0
282
     0
283
     2
284
     8
285
     0
286
     0
287
     3
288
     0
  0
ENDTAB
  0
TABLE
  2
BLOCK_RECORD
  5
1
100
AcDbSymbolTable
 70
    49
  0
BLOCK_RECORD
  5
19
100
AcDbSymbolTableRecord
100
AcDbBlockTableRecord
  2
*MODEL_SPACE
  0
BLOCK_RECORD
  5
16
100
AcDbSymbolTableRecord
100
AcDbBlockTableRecord
  2
*PAPER_SPACE
  0
BLOCK_RECORD
  5
3A2
100
AcDbSymbolTableRecord
100
AcDbBlockTableRecord
  2
RUGOSITA
  0
BLOCK_RECORD
  5
4A8
100
AcDbSymbolTableRecord
100
AcDbBlockTableRecord
  2
A$C52B2
  0
BLOCK_RECORD
  5
62B
100
AcDbSymbolTableRecord
100
AcDbBlockTableRecord
  2
A$C350
  0
BLOCK_RECORD
  5
69B
100
AcDbSymbolTableRecord
100
AcDbBlockTableRecord
  2
*D3
  0
BLOCK_RECORD
  5
6A8
100
AcDbSymbolTableRecord
100
AcDbBlockTableRecord
  2
*D4
  0
BLOCK_RECORD
  5
6CF
100
AcDbSymbolTableRecord
100
AcDbBlockTableRecord
  2
*D5
  0
BLOCK_RECORD
  5
708
100
AcDbSymbolTableRecord
100
AcDbBlockTableRecord
  2
*D6
  0
BLOCK_RECORD
  5
723
100
AcDbSymbolTableRecord
100
AcDbBlockTableRecord
  2
*D7
  0
BLOCK_RECORD
  5
731
100
AcDbSymbolTableRecord
100
AcDbBlockTableRecord
  2
*D8
  0
BLOCK_RECORD
  5
7B8
100
AcDbSymbolTableRecord
100
AcDbBlockTableRecord
  2
*D9
  0
BLOCK_RECORD
  5
807
100
AcDbSymbolTableRecord
100
AcDbBlockTableRecord
  2
*D10
  0
BLOCK_RECORD
  5
815
100
AcDbSymbolTableRecord
100
AcDbBlockTableRecord
  2
*D11
  0
BLOCK_RECORD
  5
862
100
AcDbSymbolTableRecord
100
AcDbBlockTableRecord
  2
*D12
  0
BLOCK_RECORD
  5
892
100
AcDbSymbolTableRecord
100
AcDbBlockTableRecord
  2
*D13
  0
BLOCK_RECORD
  5
926
100
AcDbSymbolTableRecord
100
AcDbBlockTableRecord
  2
*D14
  0
BLOCK_RECORD
  5
933
100
AcDbSymbolTableRecord
100
AcDbBlockTableRecord
  2
*D15
  0
BLOCK_RECORD
  5
941
100
AcDbSymbolTableRecord
100
AcDbBlockTableRecord
  2
*D16
  0
BLOCK_RECORD
  5
AE0
100
AcDbSymbolTableRecord
100
AcDbBlockTableRecord
  2
*D17
  0
BLOCK_RECORD
  5
AEC
100
AcDbSymbolTableRecord
100
AcDbBlockTableRecord
  2
*D18
  0
BLOCK_RECORD
  5
AF9
100
AcDbSymbolTableRecord
100
AcDbBlockTableRecord
  2
*D19
  0
BLOCK_RECORD
  5
B7D
100
AcDbSymbolTableRecord
100
AcDbBlockTableRecord
  2
*D20
  0
BLOCK_RECORD
  5
B8A
100
AcDbSymbolTableRecord
100
AcDbBlockTableRecord
  2
*D21
  0
BLOCK_RECORD
  5
B98
100
AcDbSymbolTableRecord
100
AcDbBlockTableRecord
  2
*D22
  0
BLOCK_RECORD
  5
BA5
100
AcDbSymbolTableRecord
100
AcDbBlockTableRecord
  2
*D23
  0
BLOCK_RECORD
  5
BB4
100
AcDbSymbolTableRecord
100
AcDbBlockTableRecord
  2
*D24
  0
BLOCK_RECORD
  5
BCE
100
AcDbSymbolTableRecord
100
AcDbBlockTableRecord
  2
*D25
  0
BLOCK_RECORD
  5
BEA
100
AcDbSymbolTableRecord
100
AcDbBlockTableRecord
  2
*D26
  0
BLOCK_RECORD
  5
C05
100
AcDbSymbolTableRecord
100
AcDbBlockTableRecord
  2
*D27
  0
BLOCK_RECORD
  5
C13
100
AcDbSymbolTableRecord
100
AcDbBlockTableRecord
  2
*D28
  0
BLOCK_RECORD
  5
EE2
100
AcDbSymbolTableRecord
100
AcDbBlockTableRecord
  2
*D29
  0
BLOCK_RECORD
  5
EF1
100
AcDbSymbolTableRecord
100
AcDbBlockTableRecord
  2
*D30
  0
BLOCK_RECORD
  5
F1F
100
AcDbSymbolTableRecord
100
AcDbBlockTableRecord
  2
*D31
  0
BLOCK_RECORD
  5
F29
100
AcDbSymbolTableRecord
100
AcDbBlockTableRecord
  2
*D32
  0
BLOCK_RECORD
  5
F8E
100
AcDbSymbolTableRecord
100
AcDbBlockTableRecord
  2
*X33
  0
BLOCK_RECORD
  5
FD6
100
AcDbSymbolTableRecord
100
AcDbBlockTableRecord
  2
*D34
  0
BLOCK_RECORD
  5
FF4
100
AcDbSymbolTableRecord
100
AcDbBlockTableRecord
  2
*D35
  0
BLOCK_RECORD
  5
1052
100
AcDbSymbolTableRecord
100
AcDbBlockTableRecord
  2
*D36
  0
BLOCK_RECORD
  5
1062
100
AcDbSymbolTableRecord
100
AcDbBlockTableRecord
  2
*D37
  0
BLOCK_RECORD
  5
1070
100
AcDbSymbolTableRecord
100
AcDbBlockTableRecord
  2
*D38
  0
BLOCK_RECORD
  5
10C1
100
AcDbSymbolTableRecord
100
AcDbBlockTableRecord
  2
*X39
  0
BLOCK_RECORD
  5
1110
100
AcDbSymbolTableRecord
100
AcDbBlockTableRecord
  2
*D40
  0
BLOCK_RECORD
  5
1136
100
AcDbSymbolTableRecord
100
AcDbBlockTableRecord
  2
*D41
  0
BLOCK_RECORD
  5
1166
100
AcDbSymbolTableRecord
100
AcDbBlockTableRecord
  2
*D42
  0
BLOCK_RECORD
  5
1173
100
AcDbSymbolTableRecord
100
AcDbBlockTableRecord
  2
*D43
  0
BLOCK_RECORD
  5
11B1
100
AcDbSymbolTableRecord
100
AcDbBlockTableRecord
  2
*D44
  0
BLOCK_RECORD
  5
11BE
100
AcDbSymbolTableRecord
100
AcDbBlockTableRecord
  2
*D45
  0
BLOCK_RECORD
  5
1200
100
AcDbSymbolTableRecord
100
AcDbBlockTableRecord
  2
*D46
  0
BLOCK_RECORD
  5
120D
100
AcDbSymbolTableRecord
100
AcDbBlockTableRecord
  2
*D47
  0
BLOCK_RECORD
  5
1225
100
AcDbSymbolTableRecord
100
AcDbBlockTableRecord
  2
A$C170
  0
ENDTAB
  0
ENDSEC
  0
SECTION
  2
BLOCKS
  0
BLOCK
  5
1A
100
AcDbEntity
  8
0
100
AcDbBlockBegin
  2
*MODEL_SPACE
 70
     0
 10
0.0
 20
0.0
 30
0.0
  3
*MODEL_SPACE
  1

  0
ENDBLK
  5
1B
100
AcDbEntity
  8
0
100
AcDbBlockEnd
  0
BLOCK
  5
17
100
AcDbEntity
 67
     1
  8
0
100
AcDbBlockBegin
  2
*PAPER_SPACE
 70
     0
 10
0.0
 20
0.0
 30
0.0
  3
*PAPER_SPACE
  1

  0
ENDBLK
  5
18
100
AcDbEntity
 67
     1
  8
0
100
AcDbBlockEnd
  0
BLOCK
  5
3A7
100
AcDbEntity
  8
DISEGNO
100
AcDbBlockBegin
  2
RUGOSITA
 70
     2
 10
0.0
 20
0.0
 30
0.0
  3
RUGOSITA
  1

  0
ATTDEF
  5
3A3
100
AcDbEntity
  8
QUOTE
100
AcDbText
 10
-1.071886
 20
3.214106
 30
0.0
 40
1.5
  1
0.8
100
AcDbAttributeDefinition
  3
CHE RUGOSITA ?
  2
RUGOSITA
 70
     0
  0
LINE
  5
3A4
100
AcDbEntity
  8
QUOTE
100
AcDbLine
 10
0.0
 20
0.0
 30
0.0
 11
4.0
 21
6.928203
 31
0.0
  0
LINE
  5
3A5
100
AcDbEntity
  8
QUOTE
100
AcDbLine
 10
0.0
 20
0.0
 30
0.0
 11
-1.75
 21
3.031089
 31
0.0
  0
LINE
  5
3A6
100
AcDbEntity
  8
QUOTE
100
AcDbLine
 10
-1.75
 20
3.031089
 30
0.0
 11
1.75
 21
3.031089
 31
0.0
  0
ENDBLK
  5
3A8
100
AcDbEntity
  8
DISEGNO
100
AcDbBlockEnd
  0
BLOCK
  5
547
100
AcDbEntity
  8
QUOTE
100
AcDbBlockBegin
  2
A$C52B2
 70
     0
 10
0.0
 20
0.0
 30
0.0
  3
A$C52B2
  1

  0
LINE
  5
4A9
100
AcDbEntity
  8
TABELLA
  6
CONTINUOUS
100
AcDbLine
 10
100.781064
 20
5.387067
 30
0.0
 11
103.281064
 21
0.387067
 31
0.0
  0
LINE
  5
4AA
100
AcDbEntity
  8
TABELLA
  6
CONTINUOUS
100
AcDbLine
 10
100.781064
 20
0.387067
 30
0.0
 11
103.281064
 21
0.387067
 31
0.0
  0
LINE
  5
4AB
100
AcDbEntity
  8
TABELLA
  6
CONTINUOUS
100
AcDbLine
 10
103.281064
 20
287.387067
 30
0.0
 11
100.781064
 21
282.387067
 31
0.0
  0
LINE
  5
4AC
100
AcDbEntity
  8
TABELLA
  6
CONTINUOUS
100
AcDbLine
 10
100.781064
 20
287.387067
 30
0.0
 11
103.281064
 21
287.387067
 31
0.0
  0
TEXT
  5
4AD
100
AcDbEntity
  8
TABELLA
  6
CONTINUOUS
100
AcDbText
 10
83.891226
 20
14.123583
 30
0.0
 40
6.0
  1
ROLLERI
100
AcDbText
  0
LINE
  5
4AE
100
AcDbEntity
  8
TABELLA
  6
CONTINUOUS
100
AcDbLine
 10
115.706968
 20
22.612261
 30
0.0
 11
84.107383
 21
22.612261
 31
0.0
1001
ACAD
1000
ASC_BOUNDS
1002
{
1070
    19
1002
}
  0
LINE
  5
4AF
100
AcDbEntity
  8
TABELLA
  6
CONTINUOUS
100
AcDbLine
 10
82.055262
 20
11.456564
 30
0.0
 11
113.654847
 21
11.456564
 31
0.0
1001
ACAD
1000
ASC_BOUNDS
1002
{
1070
    19
1002
}
  0
LINE
  5
4B0
100
AcDbEntity
  8
TABELLA
  6
CONTINUOUS
100
AcDbLine
 10
116.407176
 20
23.612261
 30
0.0
 11
83.407176
 21
23.612261
 31
0.0
1001
ACAD
1000
ASC_BOUNDS
1002
{
1070
    19
1002
}
  0
LINE
  5
4B1
100
AcDbEntity
  8
TABELLA
  6
CONTINUOUS
100
AcDbLine
 10
81.355055
 20
10.456564
 30
0.0
 11
114.355055
 21
10.456564
 31
0.0
1001
ACAD
1000
ASC_BOUNDS
1002
{
1070
    19
1002
}
  0
TEXT
  5
4B2
100
AcDbEntity
  8
TABELLA
  6
CONTINUOUS
100
AcDbText
 10
79.770815
 20
6.679292
 30
0.0
 40
2.0
  1
Vigolzone ( Piacenza ) - ITALIA
100
AcDbText
  0
LINE
  5
4B3
100
AcDbEntity
  8
TABELLA
  6
CONTINUOUS
100
AcDbLine
 10
125.782064
 20
35.387067
 30
0.0
 11
75.782064
 21
35.387067
 31
0.0
  0
LINE
  5
4B4
100
AcDbEntity
  8
TABELLA
  6
CONTINUOUS
100
AcDbLine
 10
195.782064
 20
45.387067
 30
0.0
 11
5.697058
 21
45.395351
 31
0.0
  0
LINE
  5
4B5
100
AcDbEntity
  8
TABELLA
  6
CONTINUOUS
100
AcDbLine
 10
125.782064
 20
25.387067
 30
0.0
 11
75.782064
 21
25.387067
 31
0.0
  0
LINE
  5
4B6
100
AcDbEntity
  8
TABELLA
  6
CONTINUOUS
100
AcDbLine
 10
195.782064
 20
5.387067
 30
0.0
 11
5.782064
 21
5.387067
 31
0.0
  0
LINE
  5
4B7
100
AcDbEntity
  8
TABELLA
  6
CONTINUOUS
100
AcDbLine
 10
5.782064
 20
282.387067
 30
0.0
 11
195.782064
 21
282.387067
 31
0.0
  0
LINE
  5
4B8
100
AcDbEntity
  8
TABELLA
  6
CONTINUOUS
100
AcDbLine
 10
5.782064
 20
143.887067
 30
0.0
 11
0.782064
 21
141.387067
 31
0.0
  0
LINE
  5
4B9
100
AcDbEntity
  8
TABELLA
  6
CONTINUOUS
100
AcDbLine
 10
0.782064
 20
143.887067
 30
0.0
 11
0.782064
 21
141.387067
 31
0.0
  0
LINE
  5
4BA
100
AcDbEntity
  8
TABELLA
  6
CONTINUOUS
100
AcDbLine
 10
5.782064
 20
5.387067
 30
0.0
 11
5.782064
 21
282.387067
 31
0.0
  0
POLYLINE
  5
4BB
100
AcDbEntity
  8
QUOTE
100
AcDb2dPolyline
 66
     1
 10
0.0
 20
0.0
 30
0.0
 70
     1
  0
VERTEX
  5
4BC
100
AcDbEntity
  8
QUOTE
100
AcDbVertex
100
AcDb2dVertex
 10
11.507487
 20
62.582414
 30
0.0
  0
VERTEX
  5
4BD
100
AcDbEntity
  8
QUOTE
100
AcDbVertex
100
AcDb2dVertex
 10
11.507487
 20
49.867806
 30
0.0
  0
VERTEX
  5
4BE
100
AcDbEntity
  8
QUOTE
100
AcDbVertex
100
AcDb2dVertex
 10
52.626527
 20
49.867806
 30
0.0
  0
VERTEX
  5
4BF
100
AcDbEntity
  8
QUOTE
100
AcDbVertex
100
AcDb2dVertex
 10
52.626527
 20
62.582414
 30
0.0
  0
SEQEND
  5
4C0
100
AcDbEntity
  8
QUOTE
  0
TOLERANCE
  5
4C1
100
AcDbEntity
  8
QUOTE
  6
CONTINUOUS
100
AcDbFcf
  3
ISO-25
 10
30.863585
 20
54.182522
 30
0.0
  1
{\Fgdt;u}%%v0.02%%v%%v%%v%%v
1001
ACAD
1000
DSTYLE
1002
{
1070
   140
1040
2.6
1070
    47
1040
0.02
1070
    73
1070
     0
1070
   272
1070
     2
1070
   147
1040
0.53
1070
    42
1040
0.5261
1070
    44
1040
1.0522
1070
    43
1040
3.1566
1070
   271
1070
     2
1070
   141
1040
2.1044
1070
    41
1040
2.6
1002
}
  0
TEXT
  5
4C2
100
AcDbEntity
  8
QUOTE
100
AcDbText
 10
12.101072
 20
58.118453
 30
0.0
 40
2.5
  1
TOLLERANZE AL METRO
 41
1.1
100
AcDbText
  0
TEXT
  5
4C3
100
AcDbEntity
  8
TABELLA
  6
CONTINUOUS
100
AcDbText
 10
7.271803
 20
15.7314
 30
0.0
 40
2.0
  1
- Angoli su superfici lavorate = +/- 30'
100
AcDbText
  0
TEXT
  5
4C4
100
AcDbEntity
  8
TABELLA
  6
CONTINUOUS
100
AcDbText
 10
7.271803
 20
23.3314
 30
0.0
 40
2.0
  1
   da mm 151 a mm 500 = +/- 0.4
100
AcDbText
  0
TEXT
  5
4C5
100
AcDbEntity
  8
TABELLA
  6
CONTINUOUS
100
AcDbText
 10
7.271803
 20
27.1314
 30
0.0
 40
2.0
  1
   da mm 51 a mm 150 = +/- 0.3
100
AcDbText
  0
TEXT
  5
4C6
100
AcDbEntity
  8
TABELLA
  6
CONTINUOUS
100
AcDbText
 10
7.271803
 20
30.9314
 30
0.0
 40
2.0
  1
- Superfici lavorate da mm 1 a mm 50 = +/- 0.2
100
AcDbText
  0
TEXT
  5
4C7
100
AcDbEntity
  8
TABELLA
  6
CONTINUOUS
100
AcDbText
 10
7.271803
 20
34.7314
 30
0.0
 40
2.0
  1
- Parti fuse con spessori >10 mm = +/- 10%
100
AcDbText
  0
TEXT
  5
4C8
100
AcDbEntity
  8
TABELLA
  6
CONTINUOUS
100
AcDbText
 10
7.271803
 20
38.5314
 30
0.0
 40
2.0
  1
- Parti fuse con spessori <10 mm = +/- 1 mm
100
AcDbText
  0
TOLERANCE
  5
4C9
100
AcDbEntity
  8
QUOTE
  6
CONTINUOUS
100
AcDbFcf
  3
ISO-25
 10
15.305627
 20
54.182522
 30
0.0
  1
{\Fgdt;b}%%v0.02%%v%%v%%v%%v
1001
ACAD
1000
DSTYLE
1002
{
1070
   140
1040
2.6
1070
    47
1040
0.02
1070
    73
1070
     0
1070
   272
1070
     2
1070
   147
1040
0.53
1070
    42
1040
0.5261
1070
    44
1040
1.0522
1070
    43
1040
3.1566
1070
   271
1070
     2
1070
   141
1040
2.1044
1070
    41
1040
2.6
1002
}
  0
TEXT
  5
4CA
100
AcDbEntity
  8
TABELLA
  6
CONTINUOUS
100
AcDbText
 10
0.769342
 20
51.259863
 30
0.0
 40
4.0
  1
B
100
AcDbText
  0
TEXT
  5
4CB
100
AcDbEntity
  8
TABELLA
  6
CONTINUOUS
100
AcDbText
 10
0.353187
 20
15.100813
 30
0.0
 40
4.0
  1
A
100
AcDbText
  0
LINE
  5
4CC
100
AcDbEntity
  8
TABELLA
  6
CONTINUOUS
100
AcDbLine
 10
5.782064
 20
36.262067
 30
0.0
 11
0.782064
 21
36.262067
 31
0.0
  0
TEXT
  5
4CD
100
AcDbEntity
  8
TABELLA
  6
CONTINUOUS
100
AcDbText
 10
15.583223
 20
0.138446
 30
0.0
 40
4.0
  1
6
100
AcDbText
  0
LINE
  5
4CE
100
AcDbEntity
  8
TABELLA
  6
CONTINUOUS
100
AcDbLine
 10
34.115064
 20
5.387067
 30
0.0
 11
34.115064
 21
0.387067
 31
0.0
  0
TEXT
  5
4CF
100
AcDbEntity
  8
TABELLA
  6
CONTINUOUS
100
AcDbText
 10
7.271803
 20
11.9314
 30
0.0
 40
2.0
  1
- Interassi fori = +/- 0.25
100
AcDbText
  0
TEXT
  5
4D0
100
AcDbEntity
  8
TABELLA
  6
CONTINUOUS
100
AcDbText
 10
7.271803
 20
19.5314
 30
0.0
 40
2.0
  1
   oltre 500 mm = +/- 0.5
100
AcDbText
  0
TEXT
  5
4D1
100
AcDbEntity
  8
TABELLA
  6
CONTINUOUS
100
AcDbText
 10
7.271803
 20
42.3314
 30
0.0
 40
2.0
  1
TOLLERANZE GENERALI :
100
AcDbText
  0
LINE
  5
4D2
100
AcDbEntity
  8
TABELLA
  6
CONTINUOUS
100
AcDbLine
 10
5.782064
 20
72.137067
 30
0.0
 11
0.782064
 21
72.137067
 31
0.0
  0
TEXT
  5
4D3
100
AcDbEntity
  8
TABELLA
  6
CONTINUOUS
100
AcDbText
 10
0.769342
 20
87.459725
 30
0.0
 40
4.0
  1
C
100
AcDbText
  0
LINE
  5
4D4
100
AcDbEntity
  8
TABELLA
  6
CONTINUOUS
100
AcDbLine
 10
5.782064
 20
108.012067
 30
0.0
 11
0.782064
 21
108.012067
 31
0.0
  0
TEXT
  5
4D5
100
AcDbEntity
  8
TABELLA
  6
CONTINUOUS
100
AcDbText
 10
0.769342
 20
124.034397
 30
0.0
 40
4.0
  1
D
100
AcDbText
  0
LINE
  5
4D6
100
AcDbEntity
  8
TABELLA
  6
CONTINUOUS
100
AcDbLine
 10
65.792444
 20
45.394891
 30
0.0
 11
65.782064
 21
5.389662
 31
0.0
  0
TEXT
  5
4D7
100
AcDbEntity
  8
TABELLA
  6
CONTINUOUS
100
AcDbText
 10
68.438556
 20
7.454028
 30
0.0
 40
1.5
  1
A termine di legge la Rolleri si riserva la
 50
90.0
100
AcDbText
  0
TEXT
  5
4D8
100
AcDbEntity
  8
TABELLA
  6
CONTINUOUS
100
AcDbText
 10
49.29176
 20
0.138446
 30
0.0
 40
4.0
  1
5
100
AcDbText
  0
LINE
  5
4D9
100
AcDbEntity
  8
TABELLA
  6
CONTINUOUS
100
AcDbLine
 10
67.448064
 20
5.387067
 30
0.0
 11
67.448064
 21
0.387067
 31
0.0
  0
LINE
  5
4DA
100
AcDbEntity
  8
TABELLA
  6
CONTINUOUS
100
AcDbLine
 10
75.792442
 20
45.387067
 30
0.0
 11
75.792442
 21
5.387067
 31
0.0
  0
TEXT
  5
4DB
100
AcDbEntity
  8
TABELLA
  6
CONTINUOUS
100
AcDbText
 10
74.138556
 20
7.454028
 30
0.0
 40
1.5
  1
di riprodurlo e di comunicarlo a terzi.
 50
90.0
100
AcDbText
  0
TEXT
  5
4DC
100
AcDbEntity
  8
TABELLA
  6
CONTINUOUS
100
AcDbText
 10
71.288556
 20
7.454028
 30
0.0
 40
1.5
  1
proprietà di questo disegno, con divieto
 50
90.0
100
AcDbText
  0
TEXT
  5
4DD
100
AcDbEntity
  8
TABELLA
  6
CONTINUOUS
100
AcDbText
 10
83.416451
 20
0.554068
 30
0.0
 40
4.0
  1
4
100
AcDbText
  0
LINE
  5
4DE
100
AcDbEntity
  8
TABELLA
  6
CONTINUOUS
100
AcDbLine
 10
98.281064
 20
0.387067
 30
0.0
 11
100.781064
 21
5.387067
 31
0.0
  0
LINE
  5
4DF
100
AcDbEntity
  8
TABELLA
  6
CONTINUOUS
100
AcDbLine
 10
100.781064
 20
5.387067
 30
0.0
 11
100.781064
 21
0.387067
 31
0.0
  0
LINE
  5
4E0
100
AcDbEntity
  8
TABELLA
  6
CONTINUOUS
100
AcDbLine
 10
100.781064
 20
0.387067
 30
0.0
 11
98.281064
 21
0.387067
 31
0.0
  0
TEXT
  5
4E1
100
AcDbEntity
  8
TABELLA
  6
CONTINUOUS
100
AcDbText
 10
77.180326
 20
42.484843
 30
0.0
 40
2.0
  1
Materiale
100
AcDbText
  0
TEXT
  5
4E2
100
AcDbEntity
  8
TABELLA
  6
CONTINUOUS
100
AcDbText
 10
76.949018
 20
32.320687
 30
0.0
 40
2.0
  1
Disegnato da
100
AcDbText
  0
LINE
  5
4E3
100
AcDbEntity
  8
TABELLA
  6
CONTINUOUS
100
AcDbLine
 10
84.107383
 20
22.612261
 30
0.0
 11
81.051152
 21
14.215335
 31
0.0
1001
ACAD
1000
ASC_BOUNDS
1002
{
1070
    19
1002
}
  0
LINE
  5
4E4
100
AcDbEntity
  8
TABELLA
  6
CONTINUOUS
100
AcDbLine
 10
83.407176
 20
23.612261
 30
0.0
 11
79.986974
 21
14.215335
 31
0.0
1001
ACAD
1000
ASC_BOUNDS
1002
{
1070
    19
1002
}
  0
LINE
  5
4E5
100
AcDbEntity
  8
TABELLA
  6
CONTINUOUS
100
AcDbLine
 10
81.051152
 20
14.215335
 30
0.0
 11
82.055262
 21
11.456564
 31
0.0
1001
ACAD
1000
ASC_BOUNDS
1002
{
1070
    19
1002
}
  0
LINE
  5
4E6
100
AcDbEntity
  8
TABELLA
  6
CONTINUOUS
100
AcDbLine
 10
79.986974
 20
14.215335
 30
0.0
 11
81.355055
 21
10.456564
 31
0.0
1001
ACAD
1000
ASC_BOUNDS
1002
{
1070
    19
1002
}
  0
LINE
  5
4E7
100
AcDbEntity
  8
TABELLA
  6
CONTINUOUS
100
AcDbLine
 10
100.782064
 20
35.387067
 30
0.0
 11
100.782064
 21
25.387067
 31
0.0
  0
TEXT
  5
4E8
100
AcDbEntity
  8
TABELLA
  6
CONTINUOUS
100
AcDbText
 10
1.185497
 20
230.800736
 30
0.0
 40
4.0
  1
G
100
AcDbText
  0
LINE
  5
4E9
100
AcDbEntity
  8
TABELLA
  6
CONTINUOUS
100
AcDbLine
 10
0.782064
 20
146.387067
 30
0.0
 11
5.782064
 21
143.887067
 31
0.0
  0
LINE
  5
4EA
100
AcDbEntity
  8
TABELLA
  6
CONTINUOUS
100
AcDbLine
 10
5.782064
 20
143.887067
 30
0.0
 11
0.782064
 21
143.887067
 31
0.0
  0
LINE
  5
4EB
100
AcDbEntity
  8
TABELLA
  6
CONTINUOUS
100
AcDbLine
 10
0.782064
 20
143.887067
 30
0.0
 11
0.782064
 21
146.387067
 31
0.0
  0
TEXT
  5
4EC
100
AcDbEntity
  8
TABELLA
  6
CONTINUOUS
100
AcDbText
 10
1.601651
 20
158.319393
 30
0.0
 40
4.0
  1
E
100
AcDbText
  0
LINE
  5
4ED
100
AcDbEntity
  8
TABELLA
  6
CONTINUOUS
100
AcDbLine
 10
5.782064
 20
179.762067
 30
0.0
 11
0.782064
 21
179.762067
 31
0.0
  0
TEXT
  5
4EE
100
AcDbEntity
  8
TABELLA
  6
CONTINUOUS
100
AcDbText
 10
1.185497
 20
195.309687
 30
0.0
 40
4.0
  1
F
100
AcDbText
  0
LINE
  5
4EF
100
AcDbEntity
  8
TABELLA
  6
CONTINUOUS
100
AcDbLine
 10
5.782064
 20
215.637067
 30
0.0
 11
0.782064
 21
215.637067
 31
0.0
  0
LINE
  5
4F0
100
AcDbEntity
  8
TABELLA
  6
CONTINUOUS
100
AcDbLine
 10
5.782064
 20
251.512067
 30
0.0
 11
0.782064
 21
251.512067
 31
0.0
  0
TEXT
  5
4F1
100
AcDbEntity
  8
TABELLA
  6
CONTINUOUS
100
AcDbText
 10
1.185497
 20
268.206651
 30
0.0
 40
4.0
  1
H
100
AcDbText
  0
TEXT
  5
4F2
100
AcDbEntity
  8
TABELLA
  6
CONTINUOUS
100
AcDbText
 10
15.583224
 20
283.209827
 30
0.0
 40
4.0
  1
6
100
AcDbText
  0
LINE
  5
4F3
100
AcDbEntity
  8
TABELLA
  6
CONTINUOUS
100
AcDbLine
 10
34.115064
 20
282.387067
 30
0.0
 11
34.115064
 21
287.387067
 31
0.0
  0
TEXT
  5
4F4
100
AcDbEntity
  8
TABELLA
  6
CONTINUOUS
100
AcDbText
 10
50.12407
 20
283.250638
 30
0.0
 40
4.0
  1
5
100
AcDbText
  0
LINE
  5
4F5
100
AcDbEntity
  8
TABELLA
  6
CONTINUOUS
100
AcDbLine
 10
67.448064
 20
282.387067
 30
0.0
 11
67.448064
 21
287.387067
 31
0.0
  0
TEXT
  5
4F6
100
AcDbEntity
  8
TABELLA
  6
CONTINUOUS
100
AcDbText
 10
83.832607
 20
283.250638
 30
0.0
 40
4.0
  1
4
100
AcDbText
  0
LINE
  5
4F7
100
AcDbEntity
  8
TABELLA
  6
CONTINUOUS
100
AcDbLine
 10
100.781064
 20
282.387067
 30
0.0
 11
98.281064
 21
287.387067
 31
0.0
  0
LINE
  5
4F8
100
AcDbEntity
  8
TABELLA
  6
CONTINUOUS
100
AcDbLine
 10
100.781064
 20
282.387067
 30
0.0
 11
100.781064
 21
287.387067
 31
0.0
  0
LINE
  5
4F9
100
AcDbEntity
  8
TABELLA
  6
CONTINUOUS
100
AcDbLine
 10
100.781064
 20
287.387067
 30
0.0
 11
98.281064
 21
287.387067
 31
0.0
  0
LINE
  5
4FA
100
AcDbEntity
  8
TABELLA
  6
CONTINUOUS
100
AcDbLine
 10
200.782064
 20
141.387067
 30
0.0
 11
195.782064
 21
143.887067
 31
0.0
  0
LINE
  5
4FB
100
AcDbEntity
  8
TABELLA
  6
CONTINUOUS
100
AcDbLine
 10
200.782064
 20
143.887067
 30
0.0
 11
200.782064
 21
141.387067
 31
0.0
  0
LINE
  5
4FC
100
AcDbEntity
  8
TABELLA
  6
CONTINUOUS
100
AcDbLine
 10
191.781227
 20
165.387241
 30
0.0
 11
191.781227
 21
45.387241
 31
0.0
  0
LINE
  5
4FD
100
AcDbEntity
  8
TABELLA
  6
CONTINUOUS
100
AcDbLine
 10
195.782064
 20
5.387067
 30
0.0
 11
195.782064
 21
282.387067
 31
0.0
  0
TEXT
  5
4FE
100
AcDbEntity
  8
TABELLA
  6
CONTINUOUS
100
AcDbText
 10
147.267168
 20
42.484843
 30
0.0
 40
2.0
  1
Trattamento Termico
100
AcDbText
  0
TEXT
  5
4FF
100
AcDbEntity
  8
TABELLA
  6
CONTINUOUS
100
AcDbText
 10
161.83968
 20
32.089683
 30
0.0
 40
2.0
  1
Scala
100
AcDbText
  0
TEXT
  5
500
100
AcDbEntity
  8
TABELLA
  6
CONTINUOUS
100
AcDbText
 10
162.070991
 20
12.223377
 30
0.0
 40
2.0
  1
Data
100
AcDbText
  0
LINE
  5
501
100
AcDbEntity
  8
TABELLA
  6
CONTINUOUS
100
AcDbLine
 10
125.782064
 20
35.387067
 30
0.0
 11
195.782064
 21
35.387067
 31
0.0
  0
LINE
  5
502
100
AcDbEntity
  8
TABELLA
  6
CONTINUOUS
100
AcDbLine
 10
125.782064
 20
25.387067
 30
0.0
 11
195.782064
 21
25.387067
 31
0.0
  0
LINE
  5
503
100
AcDbEntity
  8
TABELLA
  6
CONTINUOUS
100
AcDbLine
 10
120.666552
 20
15.457427
 30
0.0
 11
195.782064
 21
15.387067
 31
0.0
  0
TEXT
  5
504
100
AcDbEntity
  8
TABELLA
  6
CONTINUOUS
100
AcDbText
 10
116.965597
 20
42.484843
 30
0.0
 40
2.0
  1
Dimensioni di prelievo
100
AcDbText
  0
TEXT
  5
505
100
AcDbEntity
  8
TABELLA
  6
CONTINUOUS
100
AcDbText
 10
126.911915
 20
32.089683
 30
0.0
 40
2.0
  1
Approvato da - data
100
AcDbText
  0
TEXT
  5
506
100
AcDbEntity
  8
TABELLA
  6
CONTINUOUS
100
AcDbText
 10
121.823101
 20
22.387534
 30
0.0
 40
2.0
  1
Particolare
100
AcDbText
  0
LINE
  5
507
100
AcDbEntity
  8
TABELLA
  6
CONTINUOUS
100
AcDbLine
 10
120.782064
 20
15.387067
 30
0.0
 11
120.782064
 21
5.387067
 31
0.0
  0
TEXT
  5
508
100
AcDbEntity
  8
TABELLA
  6
CONTINUOUS
100
AcDbText
 10
116.708833
 20
0.138446
 30
0.0
 40
4.0
  1
3
100
AcDbText
  0
LINE
  5
509
100
AcDbEntity
  8
TABELLA
  6
CONTINUOUS
100
AcDbLine
 10
116.711078
 20
19.853491
 30
0.0
 11
115.706968
 21
22.612261
 31
0.0
1001
ACAD
1000
ASC_BOUNDS
1002
{
1070
    19
1002
}
  0
LINE
  5
50A
100
AcDbEntity
  8
TABELLA
  6
CONTINUOUS
100
AcDbLine
 10
113.654847
 20
11.456564
 30
0.0
 11
116.711078
 21
19.853491
 31
0.0
1001
ACAD
1000
ASC_BOUNDS
1002
{
1070
    19
1002
}
  0
LINE
  5
50B
100
AcDbEntity
  8
TABELLA
  6
CONTINUOUS
100
AcDbLine
 10
114.355055
 20
10.456564
 30
0.0
 11
117.775256
 21
19.853491
 31
0.0
1001
ACAD
1000
ASC_BOUNDS
1002
{
1070
    19
1002
}
  0
TEXT
  5
50C
100
AcDbEntity
  8
TABELLA
  6
CONTINUOUS
100
AcDbText
 10
101.930465
 20
32.089683
 30
0.0
 40
2.0
  1
Controllato da
100
AcDbText
  0
LINE
  5
50D
100
AcDbEntity
  8
TABELLA
  6
CONTINUOUS
100
AcDbLine
 10
115.782064
 20
35.387067
 30
0.0
 11
115.782064
 21
45.387067
 31
0.0
  0
LINE
  5
50E
100
AcDbEntity
  8
TABELLA
  6
CONTINUOUS
100
AcDbLine
 10
125.782064
 20
35.387067
 30
0.0
 11
125.782064
 21
25.387067
 31
0.0
  0
TEXT
  5
50F
100
AcDbEntity
  8
TABELLA
  6
CONTINUOUS
100
AcDbText
 10
121.591791
 20
12.223377
 30
0.0
 40
2.0
  1
Disegno
100
AcDbText
  0
LINE
  5
510
100
AcDbEntity
  8
TABELLA
  6
CONTINUOUS
100
AcDbLine
 10
117.775256
 20
19.853491
 30
0.0
 11
116.407176
 21
23.612261
 31
0.0
1001
ACAD
1000
ASC_BOUNDS
1002
{
1070
    19
1002
}
  0
LINE
  5
511
100
AcDbEntity
  8
TABELLA
  6
CONTINUOUS
100
AcDbLine
 10
120.782064
 20
25.387067
 30
0.0
 11
120.782064
 21
15.387067
 31
0.0
  0
LINE
  5
512
100
AcDbEntity
  8
TABELLA
  6
CONTINUOUS
100
AcDbLine
 10
160.782064
 20
15.387067
 30
0.0
 11
160.782064
 21
5.387067
 31
0.0
  0
LINE
  5
513
100
AcDbEntity
  8
TABELLA
  6
CONTINUOUS
100
AcDbLine
 10
134.114064
 20
5.387067
 30
0.0
 11
134.114064
 21
0.387067
 31
0.0
  0
TEXT
  5
514
100
AcDbEntity
  8
TABELLA
  6
CONTINUOUS
100
AcDbText
 10
150.41737
 20
0.138446
 30
0.0
 40
4.0
  1
2
100
AcDbText
  0
LINE
  5
515
100
AcDbEntity
  8
TABELLA
  6
CONTINUOUS
100
AcDbLine
 10
145.782064
 20
35.387067
 30
0.0
 11
145.782064
 21
45.387067
 31
0.0
  0
LINE
  5
516
100
AcDbEntity
  8
TABELLA
  6
CONTINUOUS
100
AcDbLine
 10
160.782064
 20
35.387067
 30
0.0
 11
160.782064
 21
25.387067
 31
0.0
  0
TEXT
  5
517
100
AcDbEntity
  8
TABELLA
  6
CONTINUOUS
100
AcDbText
 10
197.026704
 20
51.259863
 30
0.0
 40
4.0
  1
B
100
AcDbText
  0
TEXT
  5
518
100
AcDbEntity
  8
TABELLA
  6
CONTINUOUS
100
AcDbText
 10
195.001816
 20
46.303578
 30
0.0
 40
2.0
  1
N° rev.
 50
90.0
100
AcDbText
  0
LINE
  5
519
100
AcDbEntity
  8
TABELLA
  6
CONTINUOUS
100
AcDbLine
 10
176.747411
 20
30.474182
 30
0.0
 11
194.673913
 21
30.474182
 31
0.0
  0
LINE
  5
51A
100
AcDbEntity
  8
TABELLA
  6
CONTINUOUS
100
AcDbLine
 10
180.782064
 20
15.387067
 30
0.0
 11
180.782064
 21
5.387067
 31
0.0
  0
LINE
  5
51B
100
AcDbEntity
  8
TABELLA
  6
CONTINUOUS
100
AcDbLine
 10
167.447064
 20
5.387067
 30
0.0
 11
167.447064
 21
0.387067
 31
0.0
  0
TEXT
  5
51C
100
AcDbEntity
  8
TABELLA
  6
CONTINUOUS
100
AcDbText
 10
184.542061
 20
0.138446
 30
0.0
 40
4.0
  1
1
100
AcDbText
  0
LINE
  5
51D
100
AcDbEntity
  8
TABELLA
  6
CONTINUOUS
100
AcDbLine
 10
176.747411
 20
31.974182
 30
0.0
 11
182.656258
 21
33.016071
 31
0.0
  0
LINE
  5
51E
100
AcDbEntity
  8
TABELLA
  6
CONTINUOUS
100
AcDbLine
 10
176.747411
 20
28.974182
 30
0.0
 11
182.656258
 21
27.932293
 31
0.0
  0
LINE
  5
51F
100
AcDbEntity
  8
TABELLA
  6
CONTINUOUS
100
AcDbLine
 10
176.747411
 20
31.974182
 30
0.0
 11
176.747411
 21
28.974182
 31
0.0
  0
LINE
  5
520
100
AcDbEntity
  8
TABELLA
  6
CONTINUOUS
100
AcDbLine
 10
175.782064
 20
35.387067
 30
0.0
 11
175.782064
 21
25.387067
 31
0.0
  0
CIRCLE
  5
521
100
AcDbEntity
  8
TABELLA
  6
CONTINUOUS
100
AcDbCircle
 10
189.932065
 20
30.474182
 30
0.0
 40
1.5
  0
LINE
  5
522
100
AcDbEntity
  8
TABELLA
  6
CONTINUOUS
100
AcDbLine
 10
189.932065
 20
28.369782
 30
0.0
 11
189.932065
 21
32.578582
 31
0.0
  0
CIRCLE
  5
523
100
AcDbEntity
  8
TABELLA
  6
CONTINUOUS
100
AcDbCircle
 10
189.932065
 20
30.474182
 30
0.0
 40
2.54
  0
LINE
  5
524
100
AcDbEntity
  8
TABELLA
  6
CONTINUOUS
100
AcDbLine
 10
182.656258
 20
33.016071
 30
0.0
 11
182.656258
 21
27.932293
 31
0.0
  0
TEXT
  5
525
100
AcDbEntity
  8
TABELLA
  6
CONTINUOUS
100
AcDbText
 10
181.963625
 20
11.992375
 30
0.0
 40
2.0
  1
Formato
100
AcDbText
  0
LINE
  5
526
100
AcDbEntity
  8
TABELLA
  6
CONTINUOUS
100
AcDbLine
 10
187.827665
 20
30.474182
 30
0.0
 11
192.036465
 21
30.474182
 31
0.0
  0
LINE
  5
527
100
AcDbEntity
  8
TABELLA
  6
CONTINUOUS
100
AcDbLine
 10
195.782064
 20
5.387067
 30
0.0
 11
195.782064
 21
35.387067
 31
0.0
  0
TEXT
  5
528
100
AcDbEntity
  8
TABELLA
  6
CONTINUOUS
100
AcDbText
 10
197.026704
 20
14.685191
 30
0.0
 40
4.0
  1
A
100
AcDbText
  0
LINE
  5
529
100
AcDbEntity
  8
TABELLA
  6
CONTINUOUS
100
AcDbLine
 10
195.782064
 20
36.262067
 30
0.0
 11
200.782064
 21
36.262067
 31
0.0
  0
TEXT
  5
52A
100
AcDbEntity
  8
TABELLA
  6
CONTINUOUS
100
AcDbText
 10
195.209894
 20
130.984517
 30
0.0
 40
2.0
  1
Data
 50
90.0
100
AcDbText
  0
TEXT
  5
52B
100
AcDbEntity
  8
TABELLA
  6
CONTINUOUS
100
AcDbText
 10
195.209894
 20
56.278486
 30
0.0
 40
2.0
  1
Nota di revisione
 50
90.0
100
AcDbText
  0
LINE
  5
52C
100
AcDbEntity
  8
TABELLA
  6
CONTINUOUS
100
AcDbLine
 10
191.781227
 20
55.387241
 30
0.0
 11
195.782064
 21
55.387241
 31
0.0
  0
LINE
  5
52D
100
AcDbEntity
  8
TABELLA
  6
CONTINUOUS
100
AcDbLine
 10
191.781227
 20
130.387241
 30
0.0
 11
195.782064
 21
130.387241
 31
0.0
  0
LINE
  5
52E
100
AcDbEntity
  8
TABELLA
  6
CONTINUOUS
100
AcDbLine
 10
195.782064
 20
72.137067
 30
0.0
 11
200.782064
 21
72.137067
 31
0.0
  0
TEXT
  5
52F
100
AcDbEntity
  8
TABELLA
  6
CONTINUOUS
100
AcDbText
 10
197.442859
 20
87.459725
 30
0.0
 40
4.0
  1
C
100
AcDbText
  0
LINE
  5
530
100
AcDbEntity
  8
TABELLA
  6
CONTINUOUS
100
AcDbLine
 10
195.782064
 20
108.012067
 30
0.0
 11
200.782064
 21
108.012067
 31
0.0
  0
TEXT
  5
531
100
AcDbEntity
  8
TABELLA
  6
CONTINUOUS
100
AcDbText
 10
197.442859
 20
123.618776
 30
0.0
 40
4.0
  1
D
100
AcDbText
  0
TEXT
  5
532
100
AcDbEntity
  8
TABELLA
  6
CONTINUOUS
100
AcDbText
 10
116.708835
 20
283.250638
 30
0.0
 40
4.0
  1
3
100
AcDbText
  0
LINE
  5
533
100
AcDbEntity
  8
TABELLA
  6
CONTINUOUS
100
AcDbLine
 10
134.114064
 20
282.387067
 30
0.0
 11
134.114064
 21
287.387067
 31
0.0
  0
TEXT
  5
534
100
AcDbEntity
  8
TABELLA
  6
CONTINUOUS
100
AcDbText
 10
150.417372
 20
283.250638
 30
0.0
 40
4.0
  1
2
100
AcDbText
  0
TEXT
  5
535
100
AcDbEntity
  8
TABELLA
  6
CONTINUOUS
100
AcDbText
 10
197.026704
 20
230.800736
 30
0.0
 40
4.0
  1
G
100
AcDbText
  0
TEXT
  5
536
100
AcDbEntity
  8
TABELLA
  6
CONTINUOUS
100
AcDbText
 10
195.209894
 20
155.7956
 30
0.0
 40
2.0
  1
Control.
 50
90.0
100
AcDbText
  0
TEXT
  5
537
100
AcDbEntity
  8
TABELLA
  6
CONTINUOUS
100
AcDbText
 10
195.209894
 20
146.028502
 30
0.0
 40
2.0
  1
Firma
 50
90.0
100
AcDbText
  0
LINE
  5
538
100
AcDbEntity
  8
TABELLA
  6
CONTINUOUS
100
AcDbLine
 10
191.781227
 20
145.387241
 30
0.0
 11
195.782064
 21
145.387241
 31
0.0
  0
LINE
  5
539
100
AcDbEntity
  8
TABELLA
  6
CONTINUOUS
100
AcDbLine
 10
191.781227
 20
155.387241
 30
0.0
 11
195.782064
 21
155.387241
 31
0.0
  0
LINE
  5
53A
100
AcDbEntity
  8
TABELLA
  6
CONTINUOUS
100
AcDbLine
 10
191.781227
 20
165.387241
 30
0.0
 11
195.782064
 21
165.387241
 31
0.0
  0
LINE
  5
53B
100
AcDbEntity
  8
TABELLA
  6
CONTINUOUS
100
AcDbLine
 10
195.782064
 20
143.887067
 30
0.0
 11
200.782064
 21
146.387067
 31
0.0
  0
LINE
  5
53C
100
AcDbEntity
  8
TABELLA
  6
CONTINUOUS
100
AcDbLine
 10
195.782064
 20
143.887067
 30
0.0
 11
200.782064
 21
143.887067
 31
0.0
  0
LINE
  5
53D
100
AcDbEntity
  8
TABELLA
  6
CONTINUOUS
100
AcDbLine
 10
200.782064
 20
143.887067
 30
0.0
 11
200.782064
 21
146.387067
 31
0.0
  0
TEXT
  5
53E
100
AcDbEntity
  8
TABELLA
  6
CONTINUOUS
100
AcDbText
 10
197.442859
 20
158.319393
 30
0.0
 40
4.0
  1
E
100
AcDbText
  0
LINE
  5
53F
100
AcDbEntity
  8
TABELLA
  6
CONTINUOUS
100
AcDbLine
 10
195.782064
 20
179.762067
 30
0.0
 11
200.782064
 21
179.762067
 31
0.0
  0
TEXT
  5
540
100
AcDbEntity
  8
TABELLA
  6
CONTINUOUS
100
AcDbText
 10
197.859013
 20
195.309687
 30
0.0
 40
4.0
  1
F
100
AcDbText
  0
LINE
  5
541
100
AcDbEntity
  8
TABELLA
  6
CONTINUOUS
100
AcDbLine
 10
195.782064
 20
215.637067
 30
0.0
 11
200.782064
 21
215.637067
 31
0.0
  0
LINE
  5
542
100
AcDbEntity
  8
TABELLA
  6
CONTINUOUS
100
AcDbLine
 10
167.447064
 20
282.387067
 30
0.0
 11
167.447064
 21
287.387067
 31
0.0
  0
TEXT
  5
543
100
AcDbEntity
  8
TABELLA
  6
CONTINUOUS
100
AcDbText
 10
184.958217
 20
283.250638
 30
0.0
 40
4.0
  1
1
100
AcDbText
  0
LINE
  5
544
100
AcDbEntity
  8
TABELLA
  6
CONTINUOUS
100
AcDbLine
 10
195.782064
 20
282.387067
 30
0.0
 11
195.782064
 21
278.387067
 31
0.0
  0
LINE
  5
545
100
AcDbEntity
  8
TABELLA
  6
CONTINUOUS
100
AcDbLine
 10
195.782064
 20
251.512067
 30
0.0
 11
200.782064
 21
251.512067
 31
0.0
  0
TEXT
  5
546
100
AcDbEntity
  8
TABELLA
  6
CONTINUOUS
100
AcDbText
 10
197.026704
 20
268.206651
 30
0.0
 40
4.0
  1
H
100
AcDbText
  0
ENDBLK
  5
548
100
AcDbEntity
  8
QUOTE
100
AcDbBlockEnd
  0
BLOCK
  5
660
100
AcDbEntity
  8
DISEGNO
100
AcDbBlockBegin
  2
A$C350
 70
     0
 10
0.0
 20
0.0
 30
0.0
  3
A$C350
  1

  0
LINE
  5
62C
100
AcDbEntity
  8
DISEGNO
100
AcDbLine
 10
8.0579
 20
17.260118
 30
0.0
 11
8.0579
 21
20.260118
 31
0.0
  0
LINE
  5
62D
100
AcDbEntity
  8
DISEGNO
100
AcDbLine
 10
16.0579
 20
17.260118
 30
0.0
 11
8.0579
 21
17.260118
 31
0.0
  0
LINE
  5
62E
100
AcDbEntity
  8
DISEGNO
100
AcDbLine
 10
16.0579
 20
20.260118
 30
0.0
 11
16.0579
 21
17.260118
 31
0.0
  0
LINE
  5
62F
100
AcDbEntity
  8
DISEGNO
100
AcDbLine
 10
8.0579
 20
20.260118
 30
0.0
 11
16.0579
 21
20.260118
 31
0.0
  0
LINE
  5
630
100
AcDbEntity
  8
DISEGNO
100
AcDbLine
 10
50.0579
 20
0.260118
 30
0.0
 11
50.0579
 21
24.260118
 31
0.0
  0
LINE
  5
631
100
AcDbEntity
  8
DISEGNO
100
AcDbLine
 10
0.0579
 20
0.260118
 30
0.0
 11
0.0579
 21
24.260118
 31
0.0
  0
LINE
  5
632
100
AcDbEntity
  8
DISEGNO
100
AcDbLine
 10
0.0579
 20
24.260118
 30
0.0
 11
50.0579
 21
24.260118
 31
0.0
  0
LINE
  5
633
100
AcDbEntity
  8
DISEGNO
100
AcDbLine
 10
0.0579
 20
9.260118
 30
0.0
 11
50.0579
 21
9.260118
 31
0.0
  0
LINE
  5
634
100
AcDbEntity
  8
DISEGNO
100
AcDbLine
 10
0.0579
 20
6.260118
 30
0.0
 11
50.0579
 21
6.260118
 31
0.0
  0
LINE
  5
635
100
AcDbEntity
  8
DISEGNO
100
AcDbLine
 10
0.0579
 20
0.260118
 30
0.0
 11
50.0579
 21
0.260118
 31
0.0
  0
ARC
  5
636
100
AcDbEntity
  8
DISEGNO
100
AcDbCircle
 10
100.198804
 20
122.244193
 30
0.0
 40
1.0
100
AcDbArc
 50
195.0
 51
345.0
1001
ACAD
1000
ASC_BOUNDS
1002
{
1070
    19
1005
0
1002
}
  0
LINE
  5
637
100
AcDbEntity
  8
ASSI
100
AcDbLine
 10
100.198804
 20
65.964984
 30
0.0
 11
100.198804
 21
18.126553
 31
0.0
  0
LINE
  5
638
100
AcDbEntity
  8
ASSI
100
AcDbLine
 10
100.198804
 20
11.442606
 30
0.0
 11
100.198804
 21
10.119892
 31
0.0
  0
ARC
  5
639
100
AcDbEntity
  8
DISEGNO
100
AcDbCircle
 10
105.966131
 20
136.040743
 30
0.0
 40
1.0
100
AcDbArc
 50
90.0
 51
165.0
1001
ACAD
1000
ASC_BOUNDS
1002
{
1070
    19
1005
0
1002
}
  0
ARC
  5
63A
100
AcDbEntity
  8
DISEGNO
100
AcDbCircle
 10
94.431477
 20
136.040743
 30
0.0
 40
1.0
100
AcDbArc
 50
15.0
 51
90.0
1001
ACAD
1000
ASC_BOUNDS
1002
{
1070
    19
1005
0
1002
}
  0
LINE
  5
63B
100
AcDbEntity
  8
DISEGNO
100
AcDbLine
 10
111.698804
 20
82.040743
 30
0.0
 11
112.698804
 21
81.040743
 31
0.0
1001
ACAD
1000
ASC_BOUNDS
1002
{
1070
    19
1002
}
  0
LINE
  5
63C
100
AcDbEntity
  8
DISEGNO
100
AcDbLine
 10
87.698804
 20
81.040743
 30
0.0
 11
88.698804
 21
82.040743
 31
0.0
  0
LINE
  5
63D
100
AcDbEntity
  8
ASSI
100
AcDbLine
 10
100.198804
 20
152.302677
 30
0.0
 11
100.198804
 21
149.197785
 31
0.0
  0
LINE
  5
63E
100
AcDbEntity
  8
DISEGNO
100
AcDbLine
 10
105.966131
 20
137.040743
 30
0.0
 11
109.198804
 21
137.040743
 31
0.0
1001
ACAD
1000
ASC_BOUNDS
1002
{
1070
    19
1005
0
1002
}
  0
LINE
  5
63F
100
AcDbEntity
  8
DISEGNO
100
AcDbLine
 10
95.397403
 20
136.299563
 30
0.0
 11
99.232878
 21
121.985374
 31
0.0
1001
ACAD
1000
ASC_BOUNDS
1002
{
1070
    19
1005
0
1002
}
  0
LINE
  5
640
100
AcDbEntity
  8
DISEGNO
100
AcDbLine
 10
105.000205
 20
136.299563
 30
0.0
 11
101.16473
 21
121.985374
 31
0.0
1001
ACAD
1000
ASC_BOUNDS
1002
{
1070
    19
1005
0
1002
}
  0
LINE
  5
641
100
AcDbEntity
  8
DISEGNO
100
AcDbLine
 10
91.198804
 20
137.040743
 30
0.0
 11
94.431477
 21
137.040743
 31
0.0
1001
ACAD
1000
ASC_BOUNDS
1002
{
1070
    19
1005
0
1002
}
  0
LINE
  5
642
100
AcDbEntity
  8
DISEGNO
100
AcDbLine
 10
90.198804
 20
82.040743
 30
0.0
 11
88.698804
 21
82.040743
 31
0.0
  0
LINE
  5
643
100
AcDbEntity
  8
DISEGNO
100
AcDbLine
 10
87.698804
 20
81.040743
 30
0.0
 11
87.698804
 21
76.540743
 31
0.0
1001
ACAD
1000
ASC_BOUNDS
1002
{
1070
    19
1002
}
  0
LINE
  5
644
100
AcDbEntity
  8
DISEGNO
100
AcDbLine
 10
110.198804
 20
82.040743
 30
0.0
 11
110.198804
 21
136.040743
 31
0.0
1001
ACAD
1000
ASC_BOUNDS
1002
{
1070
    19
1005
0
1002
}
  0
LINE
  5
645
100
AcDbEntity
  8
DISEGNO
100
AcDbLine
 10
111.698804
 20
82.040743
 30
0.0
 11
110.198804
 21
82.040743
 31
0.0
  0
LINE
  5
646
100
AcDbEntity
  8
DISEGNO
100
AcDbLine
 10
109.198804
 20
137.040743
 30
0.0
 11
110.198804
 21
136.040743
 31
0.0
1001
ACAD
1000
ASC_BOUNDS
1002
{
1070
    19
1005
0
1002
}
  0
LINE
  5
647
100
AcDbEntity
  8
DISEGNO
100
AcDbLine
 10
90.198804
 20
136.040743
 30
0.0
 11
91.198804
 21
137.040743
 31
0.0
1001
ACAD
1000
ASC_BOUNDS
1002
{
1070
    19
1005
0
1002
}
  0
LINE
  5
648
100
AcDbEntity
  8
DISEGNO
100
AcDbLine
 10
87.698804
 20
68.040743
 30
0.0
 11
88.698804
 21
67.040743
 31
0.0
  0
LINE
  5
649
100
AcDbEntity
  8
DISEGNO
100
AcDbLine
 10
111.698804
 20
67.040743
 30
0.0
 11
112.698804
 21
68.040743
 31
0.0
  0
LINE
  5
64A
100
AcDbEntity
  8
DISEGNO
100
AcDbLine
 10
105.698804
 20
47.040743
 30
0.0
 11
106.698804
 21
48.040743
 31
0.0
  0
LINE
  5
64B
100
AcDbEntity
  8
DISEGNO
100
AcDbLine
 10
93.698804
 20
48.040743
 30
0.0
 11
94.698804
 21
47.040743
 31
0.0
  0
LINE
  5
64C
100
AcDbEntity
  8
ASSI
100
AcDbLine
 10
75.396992
 20
75.040743
 30
0.0
 11
74.902374
 21
75.040743
 31
0.0
  0
LINE
  5
64D
100
AcDbEntity
  8
DISEGNO
100
AcDbLine
 10
87.698804
 20
73.540743
 30
0.0
 11
87.698804
 21
68.040743
 31
0.0
  0
LINE
  5
64E
100
AcDbEntity
  8
DISEGNO
100
AcDbLine
 10
87.698804
 20
73.540743
 30
0.0
 11
89.198804
 21
75.040743
 31
0.0
  0
LINE
  5
64F
100
AcDbEntity
  8
DISEGNO
100
AcDbLine
 10
87.698804
 20
76.540743
 30
0.0
 11
89.198804
 21
75.040743
 31
0.0
  0
LINE
  5
650
100
AcDbEntity
  8
ASSI
100
AcDbLine
 10
94.698804
 20
75.040743
 30
0.0
 11
79.697732
 21
75.040743
 31
0.0
  0
LINE
  5
651
100
AcDbEntity
  8
DISEGNO
100
AcDbLine
 10
105.638144
 20
66.68719
 30
0.0
 11
107.052358
 21
68.101404
 31
0.0
  0
LINE
  5
652
100
AcDbEntity
  8
DISEGNO
100
AcDbLine
 10
108.113018
 20
67.040743
 30
0.0
 11
107.052358
 21
68.101404
 31
0.0
  0
LINE
  5
653
100
AcDbEntity
  8
DISEGNO
100
AcDbLine
 10
106.698804
 20
65.62653
 30
0.0
 11
105.638144
 21
66.68719
 31
0.0
  0
LINE
  5
654
100
AcDbEntity
  8
DISEGNO
100
AcDbLine
 10
94.759464
 20
66.68719
 30
0.0
 11
93.345251
 21
68.101404
 31
0.0
  0
LINE
  5
655
100
AcDbEntity
  8
DISEGNO
100
AcDbLine
 10
93.698804
 20
65.62653
 30
0.0
 11
94.759464
 21
66.68719
 31
0.0
  0
LINE
  5
656
100
AcDbEntity
  8
DISEGNO
100
AcDbLine
 10
92.284591
 20
67.040743
 30
0.0
 11
93.345251
 21
68.101404
 31
0.0
  0
LINE
  5
657
100
AcDbEntity
  8
ASSI
100
AcDbLine
 10
100.198804
 20
141.638559
 30
0.0
 11
100.198804
 21
74.55863
 31
0.0
  0
LINE
  5
658
100
AcDbEntity
  8
DISEGNO
100
AcDbLine
 10
93.698804
 20
65.62653
 30
0.0
 11
93.698804
 21
48.040743
 31
0.0
  0
LINE
  5
659
100
AcDbEntity
  8
DISEGNO
100
AcDbLine
 10
88.698804
 20
67.040743
 30
0.0
 11
92.284591
 21
67.040743
 31
0.0
  0
LINE
  5
65A
100
AcDbEntity
  8
DISEGNO
100
AcDbLine
 10
90.198804
 20
136.040743
 30
0.0
 11
90.198804
 21
82.040743
 31
0.0
1001
ACAD
1000
ASC_BOUNDS
1002
{
1070
    19
1005
0
1002
}
  0
LINE
  5
65B
100
AcDbEntity
  8
DISEGNO
100
AcDbLine
 10
112.698804
 20
68.040743
 30
0.0
 11
112.698804
 21
81.040743
 31
0.0
1001
ACAD
1000
ASC_BOUNDS
1002
{
1070
    19
1002
}
  0
LINE
  5
65C
100
AcDbEntity
  8
DISEGNO
100
AcDbLine
 10
108.113018
 20
67.040743
 30
0.0
 11
111.698804
 21
67.040743
 31
0.0
  0
LINE
  5
65D
100
AcDbEntity
  8
DISEGNO
100
AcDbLine
 10
106.698804
 20
48.040743
 30
0.0
 11
106.698804
 21
65.62653
 31
0.0
  0
LINE
  5
65E
100
AcDbEntity
  8
DISEGNO
100
AcDbLine
 10
94.698804
 20
47.040743
 30
0.0
 11
105.698804
 21
47.040743
 31
0.0
  0
LINE
  5
65F
100
AcDbEntity
  8
ASSI
100
AcDbLine
 10
100.198804
 20
165.803287
 30
0.0
 11
100.198804
 21
159.62319
 31
0.0
  0
ENDBLK
  5
661
100
AcDbEntity
  8
DISEGNO
100
AcDbBlockEnd
  0
BLOCK
  5
756
100
AcDbEntity
  8
0
100
AcDbBlockBegin
  2
*D3
 70
    65
 10
0.0
 20
0.0
 30
0.0
  3
*D3
  1

  0
LINE
  5
757
100
AcDbEntity
  8
0
  6
BYBLOCK
 62
     0
100
AcDbLine
 10
-1806.221673
 20
-1524.645768
 30
0.0
 11
-1806.221673
 21
-1543.249355
 31
0.0
  0
LINE
  5
758
100
AcDbEntity
  8
0
  6
BYBLOCK
 62
     0
100
AcDbLine
 10
-1819.221673
 20
-1524.645768
 30
0.0
 11
-1819.221673
 21
-1543.249355
 31
0.0
  0
LINE
  5
759
100
AcDbEntity
  8
0
  6
BYBLOCK
 62
     0
100
AcDbLine
 10
-1816.721673
 20
-1541.999355
 30
0.0
 11
-1808.721673
 21
-1541.999355
 31
0.0
  0
LINE
  5
75A
100
AcDbEntity
  8
0
  6
BYBLOCK
 62
     0
100
AcDbLine
 10
-1806.221673
 20
-1541.999355
 30
0.0
 11
-1782.94112
 21
-1541.999355
 31
0.0
  0
SOLID
  5
75B
100
AcDbEntity
  8
0
  6
BYBLOCK
 62
     0
100
AcDbTrace
 10
-1816.721673
 20
-1541.582689
 30
0.0
 11
-1816.721673
 21
-1542.416022
 31
0.0
 12
-1819.221673
 22
-1541.999355
 32
0.0
 13
-1819.221673
 23
-1541.999355
 33
0.0
  0
SOLID
  5
75C
100
AcDbEntity
  8
0
  6
BYBLOCK
 62
     0
100
AcDbTrace
 10
-1808.721673
 20
-1541.582689
 30
0.0
 11
-1808.721673
 21
-1542.416022
 31
0.0
 12
-1806.221673
 22
-1541.999355
 32
0.0
 13
-1806.221673
 23
-1541.999355
 33
0.0
  0
MTEXT
  5
75D
100
AcDbEntity
  8
0
  6
BYBLOCK
 62
     0
100
AcDbMText
 10
-1789.88012
 20
-1539.624355
 30
0.0
 40
3.5
 41
0.0
 71
     5
 72
     1
  1
\A2;13{\H2.800000;±0.01}
  0
POINT
  5
75E
100
AcDbEntity
  8
DEFPOINTS
  6
BYBLOCK
 62
     0
100
AcDbPoint
 10
-1806.221673
 20
-1524.020768
 30
0.0
  0
POINT
  5
75F
100
AcDbEntity
  8
DEFPOINTS
  6
BYBLOCK
 62
     0
100
AcDbPoint
 10
-1819.221673
 20
-1524.020768
 30
0.0
  0
POINT
  5
760
100
AcDbEntity
  8
DEFPOINTS
  6
BYBLOCK
 62
     0
100
AcDbPoint
 10
-1819.221673
 20
-1541.999355
 30
0.0
  0
ENDBLK
  5
761
100
AcDbEntity
  8
0
100
AcDbBlockEnd
  0
BLOCK
  5
73F
100
AcDbEntity
  8
0
100
AcDbBlockBegin
  2
*D4
 70
    65
 10
0.0
 20
0.0
 30
0.0
  3
*D4
  1

  0
LINE
  5
740
100
AcDbEntity
  8
0
  6
BYBLOCK
 62
     0
100
AcDbLine
 10
-1800.221673
 20
-1504.645768
 30
0.0
 11
-1800.221673
 21
-1559.968972
 31
0.0
  0
LINE
  5
741
100
AcDbEntity
  8
0
  6
BYBLOCK
 62
     0
100
AcDbLine
 10
-1825.221673
 20
-1504.645768
 30
0.0
 11
-1825.221673
 21
-1559.968972
 31
0.0
  0
LINE
  5
742
100
AcDbEntity
  8
0
  6
BYBLOCK
 62
     0
100
AcDbLine
 10
-1802.721673
 20
-1558.718972
 30
0.0
 11
-1822.721673
 21
-1558.718972
 31
0.0
  0
SOLID
  5
743
100
AcDbEntity
  8
0
  6
BYBLOCK
 62
     0
100
AcDbTrace
 10
-1802.721673
 20
-1558.302306
 30
0.0
 11
-1802.721673
 21
-1559.135639
 31
0.0
 12
-1800.221673
 22
-1558.718972
 32
0.0
 13
-1800.221673
 23
-1558.718972
 33
0.0
  0
SOLID
  5
744
100
AcDbEntity
  8
0
  6
BYBLOCK
 62
     0
100
AcDbTrace
 10
-1822.721673
 20
-1558.302306
 30
0.0
 11
-1822.721673
 21
-1559.135639
 31
0.0
 12
-1825.221673
 22
-1558.718972
 32
0.0
 13
-1825.221673
 23
-1558.718972
 33
0.0
  0
MTEXT
  5
745
100
AcDbEntity
  8
0
  6
BYBLOCK
 62
     0
100
AcDbMText
 10
-1812.721673
 20
-1556.343972
 30
0.0
 40
3.5
 41
0.0
 71
     5
 72
     1
  1
\A2;25{\H2.800000;±0.01}
  0
POINT
  5
746
100
AcDbEntity
  8
DEFPOINTS
  6
BYBLOCK
 62
     0
100
AcDbPoint
 10
-1800.221673
 20
-1504.020768
 30
0.0
  0
POINT
  5
747
100
AcDbEntity
  8
DEFPOINTS
  6
BYBLOCK
 62
     0
100
AcDbPoint
 10
-1825.221673
 20
-1504.020768
 30
0.0
  0
POINT
  5
748
100
AcDbEntity
  8
DEFPOINTS
  6
BYBLOCK
 62
     0
100
AcDbPoint
 10
-1825.221673
 20
-1558.718972
 30
0.0
  0
ENDBLK
  5
749
100
AcDbEntity
  8
0
100
AcDbBlockEnd
  0
BLOCK
  5
6D0
100
AcDbEntity
  8
0
100
AcDbBlockBegin
  2
*D5
 70
    65
 10
0.0
 20
0.0
 30
0.0
  3
*D5
  1

  0
LINE
  5
6D1
100
AcDbEntity
  8
0
  6
BYBLOCK
 62
     0
100
AcDbLine
 10
-1800.596673
 20
-1505.020768
 30
0.0
 11
-1782.599478
 21
-1505.020768
 31
0.0
  0
LINE
  5
6D2
100
AcDbEntity
  8
0
  6
BYBLOCK
 62
     0
100
AcDbLine
 10
-1806.596673
 20
-1525.020768
 30
0.0
 11
-1782.599478
 21
-1525.020768
 31
0.0
  0
LINE
  5
6D3
100
AcDbEntity
  8
0
  6
BYBLOCK
 62
     0
100
AcDbLine
 10
-1783.849478
 20
-1507.520768
 30
0.0
 11
-1783.849478
 21
-1522.520768
 31
0.0
  0
SOLID
  5
6D4
100
AcDbEntity
  8
0
  6
BYBLOCK
 62
     0
100
AcDbTrace
 10
-1784.266144
 20
-1507.520768
 30
0.0
 11
-1783.432811
 21
-1507.520768
 31
0.0
 12
-1783.849478
 22
-1505.020768
 32
0.0
 13
-1783.849478
 23
-1505.020768
 33
0.0
  0
SOLID
  5
6D5
100
AcDbEntity
  8
0
  6
BYBLOCK
 62
     0
100
AcDbTrace
 10
-1784.266144
 20
-1522.520768
 30
0.0
 11
-1783.432811
 21
-1522.520768
 31
0.0
 12
-1783.849478
 22
-1525.020768
 32
0.0
 13
-1783.849478
 23
-1525.020768
 33
0.0
  0
MTEXT
  5
6D6
100
AcDbEntity
  8
0
  6
BYBLOCK
 62
     0
100
AcDbMText
 10
-1786.224478
 20
-1515.020768
 30
0.0
 40
3.5
 41
0.0
 71
     5
 72
     1
  1
\A1;20
 11
0.0
 21
1.0
 31
0.0
  0
POINT
  5
6D7
100
AcDbEntity
  8
DEFPOINTS
  6
BYBLOCK
 62
     0
100
AcDbPoint
 10
-1801.221673
 20
-1505.020768
 30
0.0
  0
POINT
  5
6D8
100
AcDbEntity
  8
DEFPOINTS
  6
BYBLOCK
 62
     0
100
AcDbPoint
 10
-1807.221673
 20
-1525.020768
 30
0.0
  0
POINT
  5
6D9
100
AcDbEntity
  8
DEFPOINTS
  6
BYBLOCK
 62
     0
100
AcDbPoint
 10
-1783.849478
 20
-1525.020768
 30
0.0
  0
ENDBLK
  5
6DA
100
AcDbEntity
  8
0
100
AcDbBlockEnd
  0
BLOCK
  5
778
100
AcDbEntity
  8
0
100
AcDbBlockBegin
  2
*D6
 70
    65
 10
0.0
 20
0.0
 30
0.0
  3
*D6
  1

  0
LINE
  5
779
100
AcDbEntity
  8
0
  6
BYBLOCK
 62
     0
100
AcDbLine
 10
-1822.721673
 20
-1461.264706
 30
0.0
 11
-1822.721673
 21
-1459.418888
 31
0.0
  0
LINE
  5
77A
100
AcDbEntity
  8
0
  6
BYBLOCK
 62
     0
100
AcDbLine
 10
-1802.721673
 20
-1461.141285
 30
0.0
 11
-1802.721673
 21
-1461.918888
 31
0.0
  0
LINE
  5
77B
100
AcDbEntity
  8
0
  6
BYBLOCK
 62
     0
100
AcDbLine
 10
-1820.221673
 20
-1460.668888
 30
0.0
 11
-1805.221673
 21
-1460.668888
 31
0.0
  0
SOLID
  5
77C
100
AcDbEntity
  8
0
  6
BYBLOCK
 62
     0
100
AcDbTrace
 10
-1820.221673
 20
-1460.252221
 30
0.0
 11
-1820.221673
 21
-1461.085555
 31
0.0
 12
-1822.721673
 22
-1460.668888
 32
0.0
 13
-1822.721673
 23
-1460.668888
 33
0.0
  0
SOLID
  5
77D
100
AcDbEntity
  8
0
  6
BYBLOCK
 62
     0
100
AcDbTrace
 10
-1805.221673
 20
-1460.252221
 30
0.0
 11
-1805.221673
 21
-1461.085555
 31
0.0
 12
-1802.721673
 22
-1460.668888
 32
0.0
 13
-1802.721673
 23
-1460.668888
 33
0.0
  0
MTEXT
  5
77E
100
AcDbEntity
  8
0
  6
BYBLOCK
 62
     0
100
AcDbMText
 10
-1812.721673
 20
-1458.293888
 30
0.0
 40
3.5
 41
0.0
 71
     5
 72
     1
  1
\A2;20{\H2.800000;±0.01}
  0
POINT
  5
77F
100
AcDbEntity
  8
DEFPOINTS
  6
BYBLOCK
 62
     0
100
AcDbPoint
 10
-1822.721673
 20
-1461.889706
 30
0.0
  0
POINT
  5
780
100
AcDbEntity
  8
DEFPOINTS
  6
BYBLOCK
 62
     0
100
AcDbPoint
 10
-1802.721673
 20
-1460.516285
 30
0.0
  0
POINT
  5
781
100
AcDbEntity
  8
DEFPOINTS
  6
BYBLOCK
 62
     0
100
AcDbPoint
 10
-1802.721673
 20
-1460.668888
 30
0.0
  0
ENDBLK
  5
782
100
AcDbEntity
  8
0
100
AcDbBlockEnd
  0
BLOCK
  5
724
100
AcDbEntity
  8
0
100
AcDbBlockBegin
  2
*D7
 70
    65
 10
0.0
 20
0.0
 30
0.0
  3
*D7
  1

  0
LINE
  5
725
100
AcDbEntity
  8
0
  6
BYBLOCK
 62
     0
100
AcDbLine
 10
-1820.193945
 20
-1505.462709
 30
0.0
 11
-1819.425308
 21
-1506.231347
 31
0.0
  0
LINE
  5
726
100
AcDbEntity
  8
0
  6
BYBLOCK
 62
     0
100
AcDbLine
 10
-1819.133285
 20
-1504.402049
 30
0.0
 11
-1818.364648
 21
-1505.170687
 31
0.0
  0
LINE
  5
727
100
AcDbEntity
  8
0
  6
BYBLOCK
 62
     0
100
AcDbLine
 10
-1822.076958
 20
-1507.11523
 30
0.0
 11
-1823.844725
 21
-1508.882997
 31
0.0
  0
LINE
  5
728
100
AcDbEntity
  8
0
  6
BYBLOCK
 62
     0
100
AcDbLine
 10
-1817.480764
 20
-1502.519036
 30
0.0
 11
-1811.449516
 21
-1496.487789
 31
0.0
  0
SOLID
  5
729
100
AcDbEntity
  8
0
  6
BYBLOCK
 62
     0
100
AcDbTrace
 10
-1822.371586
 20
-1506.820602
 30
0.0
 11
-1821.78233
 21
-1507.409858
 31
0.0
 12
-1820.309191
 22
-1505.347463
 32
0.0
 13
-1820.309191
 23
-1505.347463
 33
0.0
  0
SOLID
  5
72A
100
AcDbEntity
  8
0
  6
BYBLOCK
 62
     0
100
AcDbTrace
 10
-1817.775392
 20
-1502.224408
 30
0.0
 11
-1817.186136
 21
-1502.813664
 31
0.0
 12
-1819.248531
 22
-1504.286803
 32
0.0
 13
-1819.248531
 23
-1504.286803
 33
0.0
  0
MTEXT
  5
72B
100
AcDbEntity
  8
0
  6
BYBLOCK
 62
     0
100
AcDbMText
 10
-1815.260635
 20
-1496.94015
 30
0.0
 40
3.5
 41
0.0
 71
     5
 72
     1
  1
\A1;1.5
 11
0.707107
 21
0.707107
 31
0.0
  0
POINT
  5
72C
100
AcDbEntity
  8
DEFPOINTS
  6
BYBLOCK
 62
     0
100
AcDbPoint
 10
-1820.635887
 20
-1505.020768
 30
0.0
  0
POINT
  5
72D
100
AcDbEntity
  8
DEFPOINTS
  6
BYBLOCK
 62
     0
100
AcDbPoint
 10
-1819.575227
 20
-1503.960107
 30
0.0
  0
POINT
  5
72E
100
AcDbEntity
  8
DEFPOINTS
  6
BYBLOCK
 62
     0
100
AcDbPoint
 10
-1819.248531
 20
-1504.286803
 30
0.0
  0
ENDBLK
  5
72F
100
AcDbEntity
  8
0
100
AcDbBlockEnd
  0
BLOCK
  5
732
100
AcDbEntity
  8
0
100
AcDbBlockBegin
  2
*D8
 70
    65
 10
0.0
 20
0.0
 30
0.0
  3
*D8
  1

  0
LINE
  5
733
100
AcDbEntity
  8
0
  6
BYBLOCK
 62
     0
100
AcDbLine
 10
-1807.724275
 20
-1504.932379
 30
0.0
 11
-1809.499717
 21
-1503.156938
 31
0.0
  0
LINE
  5
734
100
AcDbEntity
  8
0
  6
BYBLOCK
 62
     0
100
AcDbLine
 10
-1806.310062
 20
-1503.518166
 30
0.0
 11
-1808.085503
 21
-1501.742724
 31
0.0
  0
LINE
  5
735
100
AcDbEntity
  8
0
  6
BYBLOCK
 62
     0
100
AcDbLine
 10
-1810.3836
 20
-1505.808588
 30
0.0
 11
-1812.151367
 21
-1507.576355
 31
0.0
  0
LINE
  5
736
100
AcDbEntity
  8
0
  6
BYBLOCK
 62
     0
100
AcDbLine
 10
-1805.433853
 20
-1500.858841
 30
0.0
 11
-1801.460625
 21
-1496.885613
 31
0.0
  0
SOLID
  5
737
100
AcDbEntity
  8
0
  6
BYBLOCK
 62
     0
100
AcDbTrace
 10
-1810.678228
 20
-1505.51396
 30
0.0
 11
-1810.088972
 21
-1506.103216
 31
0.0
 12
-1808.615833
 22
-1504.040821
 32
0.0
 13
-1808.615833
 23
-1504.040821
 33
0.0
  0
SOLID
  5
738
100
AcDbEntity
  8
0
  6
BYBLOCK
 62
     0
100
AcDbTrace
 10
-1805.728481
 20
-1500.564213
 30
0.0
 11
-1805.139225
 21
-1501.153468
 31
0.0
 12
-1807.20162
 22
-1502.626608
 32
0.0
 13
-1807.20162
 23
-1502.626608
 33
0.0
  0
MTEXT
  5
739
100
AcDbEntity
  8
0
  6
BYBLOCK
 62
     0
100
AcDbMText
 10
-1804.242977
 20
-1496.308721
 30
0.0
 40
3.5
 41
0.0
 71
     5
 72
     1
  1
\A1;2
 11
0.707107
 21
0.707107
 31
0.0
  0
POINT
  5
73A
100
AcDbEntity
  8
DEFPOINTS
  6
BYBLOCK
 62
     0
100
AcDbPoint
 10
-1807.282333
 20
-1505.374321
 30
0.0
  0
POINT
  5
73B
100
AcDbEntity
  8
DEFPOINTS
  6
BYBLOCK
 62
     0
100
AcDbPoint
 10
-1805.86812
 20
-1503.960107
 30
0.0
  0
POINT
  5
73C
100
AcDbEntity
  8
DEFPOINTS
  6
BYBLOCK
 62
     0
100
AcDbPoint
 10
-1807.20162
 20
-1502.626608
 30
0.0
  0
ENDBLK
  5
73D
100
AcDbEntity
  8
0
100
AcDbBlockEnd
  0
BLOCK
  5
7FC
100
AcDbEntity
  8
0
100
AcDbBlockBegin
  2
*D9
 70
    65
 10
0.0
 20
0.0
 30
0.0
  3
*D9
  1

  0
LINE
  5
7FD
100
AcDbEntity
  8
0
  6
BYBLOCK
 62
     0
100
AcDbLine
 10
-1862.862577
 20
-1572.426394
 30
0.0
 11
-1862.862577
 21
-1584.164194
 31
0.0
  0
LINE
  5
7FE
100
AcDbEntity
  8
0
  6
BYBLOCK
 62
     0
100
AcDbLine
 10
-1912.862577
 20
-1572.426394
 30
0.0
 11
-1912.862577
 21
-1584.164194
 31
0.0
  0
LINE
  5
7FF
100
AcDbEntity
  8
0
  6
BYBLOCK
 62
     0
100
AcDbLine
 10
-1865.362577
 20
-1582.914194
 30
0.0
 11
-1910.362577
 21
-1582.914194
 31
0.0
  0
SOLID
  5
800
100
AcDbEntity
  8
0
  6
BYBLOCK
 62
     0
100
AcDbTrace
 10
-1865.362577
 20
-1582.497527
 30
0.0
 11
-1865.362577
 21
-1583.330861
 31
0.0
 12
-1862.862577
 22
-1582.914194
 32
0.0
 13
-1862.862577
 23
-1582.914194
 33
0.0
  0
SOLID
  5
801
100
AcDbEntity
  8
0
  6
BYBLOCK
 62
     0
100
AcDbTrace
 10
-1910.362577
 20
-1582.497527
 30
0.0
 11
-1910.362577
 21
-1583.330861
 31
0.0
 12
-1912.862577
 22
-1582.914194
 32
0.0
 13
-1912.862577
 23
-1582.914194
 33
0.0
  0
MTEXT
  5
802
100
AcDbEntity
  8
0
  6
BYBLOCK
 62
     0
100
AcDbMText
 10
-1887.862577
 20
-1580.539194
 30
0.0
 40
3.5
 41
0.0
 71
     5
 72
     1
  1
\A1;{1000 +/- 0,1}
  0
POINT
  5
803
100
AcDbEntity
  8
DEFPOINTS
  6
BYBLOCK
 62
     0
100
AcDbPoint
 10
-1862.862577
 20
-1571.801394
 30
0.0
  0
POINT
  5
804
100
AcDbEntity
  8
DEFPOINTS
  6
BYBLOCK
 62
     0
100
AcDbPoint
 10
-1912.862577
 20
-1571.801394
 30
0.0
  0
POINT
  5
805
100
AcDbEntity
  8
DEFPOINTS
  6
BYBLOCK
 62
     0
100
AcDbPoint
 10
-1912.862577
 20
-1582.914194
 30
0.0
  0
ENDBLK
  5
806
100
AcDbEntity
  8
0
100
AcDbBlockEnd
  0
BLOCK
  5
830
100
AcDbEntity
  8
0
100
AcDbBlockBegin
  2
*D10
 70
    65
 10
0.0
 20
0.0
 30
0.0
  3
*D10
  1

  0
LINE
  5
831
100
AcDbEntity
  8
0
  6
BYBLOCK
 62
     0
100
AcDbLine
 10
-1862.237577
 20
-1571.801394
 30
0.0
 11
-1855.846704
 21
-1571.801394
 31
0.0
  0
ARC
  5
832
100
AcDbEntity
  8
0
  6
BYBLOCK
 62
     0
100
AcDbCircle
 10
-1862.862577
 20
-1571.801394
 30
0.0
 40
5.765874
100
AcDbArc
 50
25.041459
 51
64.958541
  0
SOLID
  5
833
100
AcDbEntity
  8
0
  6
BYBLOCK
 62
     0
100
AcDbTrace
 10
-1857.231928
 20
-1569.270519
 30
0.0
 11
-1858.045443
 21
-1569.45118
 31
0.0
 12
-1857.096704
 22
-1571.801394
 32
0.0
 13
-1857.096704
 23
-1571.801394
 33
0.0
  0
SOLID
  5
834
100
AcDbEntity
  8
0
  6
BYBLOCK
 62
     0
100
AcDbTrace
 10
-1860.512363
 20
-1566.984259
 30
0.0
 11
-1860.331703
 21
-1566.170745
 31
0.0
 12
-1862.862577
 22
-1566.03552
 32
0.0
 13
-1862.862577
 23
-1566.03552
 33
0.0
  0
MTEXT
  5
835
100
AcDbEntity
  8
0
  6
BYBLOCK
 62
     0
100
AcDbMText
 10
-1855.78581
 20
-1565.331761
 30
0.0
 40
3.5
 41
0.0
 71
     5
 72
     1
  1
\A2;90°{\H2.800000;\S-0°2'^  0°0';}
 11
0.674738
 21
-0.738058
 31
0.0
  0
POINT
  5
836
100
AcDbEntity
  8
DEFPOINTS
  6
BYBLOCK
 62
     0
100
AcDbPoint
 10
-1859.97964
 20
-1566.808001
 30
0.0
  0
POINT
  5
837
100
AcDbEntity
  8
DEFPOINTS
  6
BYBLOCK
 62
     0
100
AcDbPoint
 10
-1912.862577
 20
-1571.801394
 30
0.0
  0
POINT
  5
838
100
AcDbEntity
  8
DEFPOINTS
  6
BYBLOCK
 62
     0
100
AcDbPoint
 10
-1862.862577
 20
-1571.801394
 30
0.0
  0
POINT
  5
839
100
AcDbEntity
  8
DEFPOINTS
  6
BYBLOCK
 62
     0
100
AcDbPoint
 10
-1862.862577
 20
-1547.801394
 30
0.0
  0
POINT
  5
83A
100
AcDbEntity
  8
DEFPOINTS
  6
BYBLOCK
 62
     0
100
AcDbPoint
 10
-1862.862577
 20
-1571.801394
 30
0.0
  0
ENDBLK
  5
83B
100
AcDbEntity
  8
0
100
AcDbBlockEnd
  0
BLOCK
  5
855
100
AcDbEntity
  8
0
100
AcDbBlockBegin
  2
*D11
 70
    65
 10
0.0
 20
0.0
 30
0.0
  3
*D11
  1

  0
LINE
  5
856
100
AcDbEntity
  8
0
  6
BYBLOCK
 62
     0
100
AcDbLine
 10
-1913.487577
 20
-1571.801394
 30
0.0
 11
-1919.170275
 21
-1571.801394
 31
0.0
  0
ARC
  5
857
100
AcDbEntity
  8
0
  6
BYBLOCK
 62
     0
100
AcDbCircle
 10
-1912.862577
 20
-1571.801394
 30
0.0
 40
5.057697
100
AcDbArc
 50
118.617624
 51
151.382376
  0
SOLID
  5
858
100
AcDbEntity
  8
0
  6
BYBLOCK
 62
     0
100
AcDbTrace
 10
-1915.388
 20
-1566.957825
 30
0.0
 11
-1915.182043
 21
-1567.765307
 31
0.0
 12
-1912.862577
 22
-1566.743696
 32
0.0
 13
-1912.862577
 23
-1566.743696
 33
0.0
  0
SOLID
  5
859
100
AcDbEntity
  8
0
  6
BYBLOCK
 62
     0
100
AcDbTrace
 10
-1916.898664
 20
-1569.481928
 30
0.0
 11
-1917.706145
 21
-1569.275971
 31
0.0
 12
-1917.920275
 22
-1571.801394
 32
0.0
 13
-1917.920275
 23
-1571.801394
 33
0.0
  0
MTEXT
  5
85A
100
AcDbEntity
  8
0
  6
BYBLOCK
 62
     0
100
AcDbMText
 10
-1920.044252
 20
-1566.57824
 30
0.0
 40
3.5
 41
0.0
 71
     5
 72
     1
  1
\A2;90°{\H2.800000;\S-0°2'^  0°0';}
 11
0.58818
 21
0.80873
 31
0.0
  0
POINT
  5
85B
100
AcDbEntity
  8
DEFPOINTS
  6
BYBLOCK
 62
     0
100
AcDbPoint
 10
-1915.391426
 20
-1567.421299
 30
0.0
  0
POINT
  5
85C
100
AcDbEntity
  8
DEFPOINTS
  6
BYBLOCK
 62
     0
100
AcDbPoint
 10
-1912.862577
 20
-1571.801394
 30
0.0
  0
POINT
  5
85D
100
AcDbEntity
  8
DEFPOINTS
  6
BYBLOCK
 62
     0
100
AcDbPoint
 10
-1912.862577
 20
-1571.801394
 30
0.0
  0
POINT
  5
85E
100
AcDbEntity
  8
DEFPOINTS
  6
BYBLOCK
 62
     0
100
AcDbPoint
 10
-1912.862577
 20
-1547.801394
 30
0.0
  0
POINT
  5
85F
100
AcDbEntity
  8
DEFPOINTS
  6
BYBLOCK
 62
     0
100
AcDbPoint
 10
-1862.862577
 20
-1571.801394
 30
0.0
  0
ENDBLK
  5
860
100
AcDbEntity
  8
0
100
AcDbBlockEnd
  0
BLOCK
  5
886
100
AcDbEntity
  8
0
100
AcDbBlockBegin
  2
*D12
 70
    65
 10
0.0
 20
0.0
 30
0.0
  3
*D12
  1

  0
LINE
  5
887
100
AcDbEntity
  8
0
  6
BYBLOCK
 62
     0
100
AcDbLine
 10
-1904.862577
 20
-1551.176394
 30
0.0
 11
-1904.862577
 21
-1537.971706
 31
0.0
  0
LINE
  5
888
100
AcDbEntity
  8
0
  6
BYBLOCK
 62
     0
100
AcDbLine
 10
-1912.862577
 20
-1547.176394
 30
0.0
 11
-1912.862577
 21
-1537.971706
 31
0.0
  0
LINE
  5
889
100
AcDbEntity
  8
0
  6
BYBLOCK
 62
     0
100
AcDbLine
 10
-1902.362577
 20
-1539.221706
 30
0.0
 11
-1899.862577
 21
-1539.221706
 31
0.0
  0
LINE
  5
88A
100
AcDbEntity
  8
0
  6
BYBLOCK
 62
     0
100
AcDbLine
 10
-1915.362577
 20
-1539.221706
 30
0.0
 11
-1917.862577
 21
-1539.221706
 31
0.0
  0
SOLID
  5
88B
100
AcDbEntity
  8
0
  6
BYBLOCK
 62
     0
100
AcDbTrace
 10
-1902.362577
 20
-1538.805039
 30
0.0
 11
-1902.362577
 21
-1539.638373
 31
0.0
 12
-1904.862577
 22
-1539.221706
 32
0.0
 13
-1904.862577
 23
-1539.221706
 33
0.0
  0
SOLID
  5
88C
100
AcDbEntity
  8
0
  6
BYBLOCK
 62
     0
100
AcDbTrace
 10
-1915.362577
 20
-1538.805039
 30
0.0
 11
-1915.362577
 21
-1539.638373
 31
0.0
 12
-1912.862577
 22
-1539.221706
 32
0.0
 13
-1912.862577
 23
-1539.221706
 33
0.0
  0
MTEXT
  5
88D
100
AcDbEntity
  8
0
  6
BYBLOCK
 62
     0
100
AcDbMText
 10
-1908.862577
 20
-1536.846706
 30
0.0
 40
3.5
 41
0.0
 71
     5
 72
     1
  1
\A1;{50}
  0
POINT
  5
88E
100
AcDbEntity
  8
DEFPOINTS
  6
BYBLOCK
 62
     0
100
AcDbPoint
 10
-1904.862577
 20
-1551.801394
 30
0.0
  0
POINT
  5
88F
100
AcDbEntity
  8
DEFPOINTS
  6
BYBLOCK
 62
     0
100
AcDbPoint
 10
-1912.862577
 20
-1547.801394
 30
0.0
  0
POINT
  5
890
100
AcDbEntity
  8
DEFPOINTS
  6
BYBLOCK
 62
     0
100
AcDbPoint
 10
-1912.862577
 20
-1539.221706
 30
0.0
  0
ENDBLK
  5
891
100
AcDbEntity
  8
0
100
AcDbBlockEnd
  0
BLOCK
  5
8B8
100
AcDbEntity
  8
0
100
AcDbBlockBegin
  2
*D13
 70
    65
 10
0.0
 20
0.0
 30
0.0
  3
*D13
  1

  0
LINE
  5
8B9
100
AcDbEntity
  8
0
  6
BYBLOCK
 62
     0
100
AcDbLine
 10
-1896.237577
 20
-1551.801394
 30
0.0
 11
-1883.016989
 21
-1551.801394
 31
0.0
  0
LINE
  5
8BA
100
AcDbEntity
  8
0
  6
BYBLOCK
 62
     0
100
AcDbLine
 10
-1884.281038
 20
-1547.801394
 30
0.0
 11
-1885.516989
 21
-1547.801394
 31
0.0
  0
LINE
  5
8BB
100
AcDbEntity
  8
0
  6
BYBLOCK
 62
     0
100
AcDbLine
 10
-1884.266989
 20
-1554.301394
 30
0.0
 11
-1884.266989
 21
-1556.801394
 31
0.0
  0
LINE
  5
8BC
100
AcDbEntity
  8
0
  6
BYBLOCK
 62
     0
100
AcDbLine
 10
-1884.266989
 20
-1545.301394
 30
0.0
 11
-1884.266989
 21
-1537.310331
 31
0.0
  0
SOLID
  5
8BD
100
AcDbEntity
  8
0
  6
BYBLOCK
 62
     0
100
AcDbTrace
 10
-1884.683656
 20
-1554.301394
 30
0.0
 11
-1883.850323
 21
-1554.301394
 31
0.0
 12
-1884.266989
 22
-1551.801394
 32
0.0
 13
-1884.266989
 23
-1551.801394
 33
0.0
  0
SOLID
  5
8BE
100
AcDbEntity
  8
0
  6
BYBLOCK
 62
     0
100
AcDbTrace
 10
-1884.683656
 20
-1545.301394
 30
0.0
 11
-1883.850323
 21
-1545.301394
 31
0.0
 12
-1884.266989
 22
-1547.801394
 32
0.0
 13
-1884.266989
 23
-1547.801394
 33
0.0
  0
MTEXT
  5
8BF
100
AcDbEntity
  8
0
  6
BYBLOCK
 62
     0
100
AcDbMText
 10
-1886.641989
 20
-1540.055862
 30
0.0
 40
3.5
 41
0.0
 71
     5
 72
     1
  1
\A1;{20}
 11
0.0
 21
1.0
 31
0.0
  0
POINT
  5
8C0
100
AcDbEntity
  8
DEFPOINTS
  6
BYBLOCK
 62
     0
100
AcDbPoint
 10
-1896.862577
 20
-1551.801394
 30
0.0
  0
POINT
  5
8C1
100
AcDbEntity
  8
DEFPOINTS
  6
BYBLOCK
 62
     0
100
AcDbPoint
 10
-1883.656038
 20
-1547.801394
 30
0.0
  0
POINT
  5
8C2
100
AcDbEntity
  8
DEFPOINTS
  6
BYBLOCK
 62
     0
100
AcDbPoint
 10
-1884.266989
 20
-1547.801394
 30
0.0
  0
ENDBLK
  5
8C3
100
AcDbEntity
  8
0
100
AcDbBlockEnd
  0
BLOCK
  5
927
100
AcDbEntity
  8
0
100
AcDbBlockBegin
  2
*D14
 70
    65
 10
0.0
 20
0.0
 30
0.0
  3
*D14
  1

  0
LINE
  5
928
100
AcDbEntity
  8
0
  6
BYBLOCK
 62
     0
100
AcDbLine
 10
-1838.643103
 20
-1497.020768
 30
0.0
 11
-1847.959048
 21
-1497.020768
 31
0.0
  0
LINE
  5
929
100
AcDbEntity
  8
0
  6
BYBLOCK
 62
     0
100
AcDbLine
 10
-1824.846673
 20
-1505.020768
 30
0.0
 11
-1847.959048
 21
-1505.020768
 31
0.0
  0
LINE
  5
92A
100
AcDbEntity
  8
0
  6
BYBLOCK
 62
     0
100
AcDbLine
 10
-1846.709048
 20
-1499.520768
 30
0.0
 11
-1846.709048
 21
-1502.520768
 31
0.0
  0
SOLID
  5
92B
100
AcDbEntity
  8
0
  6
BYBLOCK
 62
     0
100
AcDbTrace
 10
-1847.125715
 20
-1499.520768
 30
0.0
 11
-1846.292381
 21
-1499.520768
 31
0.0
 12
-1846.709048
 22
-1497.020768
 32
0.0
 13
-1846.709048
 23
-1497.020768
 33
0.0
  0
SOLID
  5
92C
100
AcDbEntity
  8
0
  6
BYBLOCK
 62
     0
100
AcDbTrace
 10
-1847.125715
 20
-1502.520768
 30
0.0
 11
-1846.292381
 21
-1502.520768
 31
0.0
 12
-1846.709048
 22
-1505.020768
 32
0.0
 13
-1846.709048
 23
-1505.020768
 33
0.0
  0
MTEXT
  5
92D
100
AcDbEntity
  8
0
  6
BYBLOCK
 62
     0
100
AcDbMText
 10
-1849.084048
 20
-1501.020768
 30
0.0
 40
3.5
 41
0.0
 71
     5
 72
     1
  1
\A1;8
 11
0.0
 21
1.0
 31
0.0
  0
POINT
  5
92E
100
AcDbEntity
  8
DEFPOINTS
  6
BYBLOCK
 62
     0
100
AcDbPoint
 10
-1838.018103
 20
-1497.020768
 30
0.0
  0
POINT
  5
92F
100
AcDbEntity
  8
DEFPOINTS
  6
BYBLOCK
 62
     0
100
AcDbPoint
 10
-1824.221673
 20
-1505.020768
 30
0.0
  0
POINT
  5
930
100
AcDbEntity
  8
DEFPOINTS
  6
BYBLOCK
 62
     0
100
AcDbPoint
 10
-1846.709048
 20
-1505.020768
 30
0.0
  0
ENDBLK
  5
931
100
AcDbEntity
  8
0
100
AcDbBlockEnd
  0
BLOCK
  5
934
100
AcDbEntity
  8
0
100
AcDbBlockBegin
  2
*D15
 70
    65
 10
0.0
 20
0.0
 30
0.0
  3
*D15
  1

  0
LINE
  5
935
100
AcDbEntity
  8
0
  6
BYBLOCK
 62
     0
100
AcDbLine
 10
-1825.846673
 20
-1495.520768
 30
0.0
 11
-1834.059904
 21
-1495.520768
 31
0.0
  0
LINE
  5
936
100
AcDbEntity
  8
0
  6
BYBLOCK
 62
     0
100
AcDbLine
 10
-1825.846673
 20
-1498.520768
 30
0.0
 11
-1834.059904
 21
-1498.520768
 31
0.0
  0
LINE
  5
937
100
AcDbEntity
  8
0
  6
BYBLOCK
 62
     0
100
AcDbLine
 10
-1832.809904
 20
-1493.020768
 30
0.0
 11
-1832.809904
 21
-1490.520768
 31
0.0
  0
LINE
  5
938
100
AcDbEntity
  8
0
  6
BYBLOCK
 62
     0
100
AcDbLine
 10
-1832.809904
 20
-1501.020768
 30
0.0
 11
-1832.809904
 21
-1503.520768
 31
0.0
  0
SOLID
  5
939
100
AcDbEntity
  8
0
  6
BYBLOCK
 62
     0
100
AcDbTrace
 10
-1833.22657
 20
-1493.020768
 30
0.0
 11
-1832.393237
 21
-1493.020768
 31
0.0
 12
-1832.809904
 22
-1495.520768
 32
0.0
 13
-1832.809904
 23
-1495.520768
 33
0.0
  0
SOLID
  5
93A
100
AcDbEntity
  8
0
  6
BYBLOCK
 62
     0
100
AcDbTrace
 10
-1833.22657
 20
-1501.020768
 30
0.0
 11
-1832.393237
 21
-1501.020768
 31
0.0
 12
-1832.809904
 22
-1498.520768
 32
0.0
 13
-1832.809904
 23
-1498.520768
 33
0.0
  0
MTEXT
  5
93B
100
AcDbEntity
  8
0
  6
BYBLOCK
 62
     0
100
AcDbMText
 10
-1835.184904
 20
-1497.020768
 30
0.0
 40
3.5
 41
0.0
 71
     5
 72
     1
  1
\A1;3
 11
0.0
 21
1.0
 31
0.0
  0
POINT
  5
93C
100
AcDbEntity
  8
DEFPOINTS
  6
BYBLOCK
 62
     0
100
AcDbPoint
 10
-1825.221673
 20
-1495.520768
 30
0.0
  0
POINT
  5
93D
100
AcDbEntity
  8
DEFPOINTS
  6
BYBLOCK
 62
     0
100
AcDbPoint
 10
-1825.221673
 20
-1498.520768
 30
0.0
  0
POINT
  5
93E
100
AcDbEntity
  8
DEFPOINTS
  6
BYBLOCK
 62
     0
100
AcDbPoint
 10
-1832.809904
 20
-1498.520768
 30
0.0
  0
ENDBLK
  5
93F
100
AcDbEntity
  8
0
100
AcDbBlockEnd
  0
BLOCK
  5
942
100
AcDbEntity
  8
0
100
AcDbBlockBegin
  2
*D16
 70
    65
 10
0.0
 20
0.0
 30
0.0
  3
*D16
  1

  0
LINE
  5
943
100
AcDbEntity
  8
0
  6
BYBLOCK
 62
     0
100
AcDbLine
 10
-1825.663615
 20
-1495.078826
 30
0.0
 11
-1845.101867
 21
-1475.640574
 31
0.0
  0
LINE
  5
944
100
AcDbEntity
  8
0
  6
BYBLOCK
 62
     0
100
AcDbLine
 10
-1825.663615
 20
-1498.962709
 30
0.0
 11
-1845.101867
 21
-1518.400961
 31
0.0
  0
ARC
  5
945
100
AcDbEntity
  8
0
  6
BYBLOCK
 62
     0
100
AcDbCircle
 10
-1823.721673
 20
-1497.020768
 30
0.0
 40
28.98616
100
AcDbArc
 50
139.943183
 51
220.056817
  0
SOLID
  5
946
100
AcDbEntity
  8
0
  6
BYBLOCK
 62
     0
100
AcDbTrace
 10
-1846.214932
 20
-1478.085165
 30
0.0
 11
-1845.600813
 21
-1478.648462
 31
0.0
 12
-1844.217983
 22
-1476.524458
 32
0.0
 13
-1844.217983
 23
-1476.524458
 33
0.0
  0
SOLID
  5
947
100
AcDbEntity
  8
0
  6
BYBLOCK
 62
     0
100
AcDbTrace
 10
-1845.600813
 20
-1515.393074
 30
0.0
 11
-1846.214932
 21
-1515.95637
 31
0.0
 12
-1844.217983
 22
-1517.517078
 32
0.0
 13
-1844.217983
 23
-1517.517078
 33
0.0
  0
MTEXT
  5
948
100
AcDbEntity
  8
0
  6
BYBLOCK
 62
     0
100
AcDbMText
 10
-1855.082833
 20
-1497.020768
 30
0.0
 40
3.5
 41
0.0
 71
     5
 72
     1
  1
\A1;90°
 11
0.0
 21
1.0
 31
0.0
  0
POINT
  5
949
100
AcDbEntity
  8
DEFPOINTS
  6
BYBLOCK
 62
     0
100
AcDbPoint
 10
-1851.720153
 20
-1489.518598
 30
0.0
  0
POINT
  5
94A
100
AcDbEntity
  8
DEFPOINTS
  6
BYBLOCK
 62
     0
100
AcDbPoint
 10
-1825.221673
 20
-1495.520768
 30
0.0
  0
POINT
  5
94B
100
AcDbEntity
  8
DEFPOINTS
  6
BYBLOCK
 62
     0
100
AcDbPoint
 10
-1825.221673
 20
-1498.520768
 30
0.0
  0
POINT
  5
94C
100
AcDbEntity
  8
DEFPOINTS
  6
BYBLOCK
 62
     0
100
AcDbPoint
 10
-1823.721673
 20
-1497.020768
 30
0.0
  0
POINT
  5
94D
100
AcDbEntity
  8
DEFPOINTS
  6
BYBLOCK
 62
     0
100
AcDbPoint
 10
-1823.721673
 20
-1497.020768
 30
0.0
  0
ENDBLK
  5
94E
100
AcDbEntity
  8
0
100
AcDbBlockEnd
  0
BLOCK
  5
AE1
100
AcDbEntity
  8
0
100
AcDbBlockBegin
  2
*D17
 70
    65
 10
0.0
 20
0.0
 30
0.0
  3
*D17
  1

  0
LINE
  5
AE2
100
AcDbEntity
  8
0
  6
BYBLOCK
 62
     0
100
AcDbLine
 10
-1862.862577
 20
-1572.426394
 30
0.0
 11
-1862.862577
 21
-1584.164194
 31
0.0
  0
LINE
  5
AE3
100
AcDbEntity
  8
0
  6
BYBLOCK
 62
     0
100
AcDbLine
 10
-1912.862577
 20
-1572.426394
 30
0.0
 11
-1912.862577
 21
-1584.164194
 31
0.0
  0
LINE
  5
AE4
100
AcDbEntity
  8
0
  6
BYBLOCK
 62
     0
100
AcDbLine
 10
-1865.362577
 20
-1582.914194
 30
0.0
 11
-1910.362577
 21
-1582.914194
 31
0.0
  0
SOLID
  5
AE5
100
AcDbEntity
  8
0
  6
BYBLOCK
 62
     0
100
AcDbTrace
 10
-1865.362577
 20
-1582.497527
 30
0.0
 11
-1865.362577
 21
-1583.330861
 31
0.0
 12
-1862.862577
 22
-1582.914194
 32
0.0
 13
-1862.862577
 23
-1582.914194
 33
0.0
  0
SOLID
  5
AE6
100
AcDbEntity
  8
0
  6
BYBLOCK
 62
     0
100
AcDbTrace
 10
-1910.362577
 20
-1582.497527
 30
0.0
 11
-1910.362577
 21
-1583.330861
 31
0.0
 12
-1912.862577
 22
-1582.914194
 32
0.0
 13
-1912.862577
 23
-1582.914194
 33
0.0
  0
MTEXT
  5
AE7
100
AcDbEntity
  8
0
  6
BYBLOCK
 62
     0
100
AcDbMText
 10
-1887.862577
 20
-1580.539194
 30
0.0
 40
3.5
 41
0.0
 71
     5
 72
     1
  1
\A1;{1000 +/- 0,1}
  0
POINT
  5
AE8
100
AcDbEntity
  8
DEFPOINTS
  6
BYBLOCK
 62
     0
100
AcDbPoint
 10
-1862.862577
 20
-1571.801394
 30
0.0
  0
POINT
  5
AE9
100
AcDbEntity
  8
DEFPOINTS
  6
BYBLOCK
 62
     0
100
AcDbPoint
 10
-1912.862577
 20
-1571.801394
 30
0.0
  0
POINT
  5
AEA
100
AcDbEntity
  8
DEFPOINTS
  6
BYBLOCK
 62
     0
100
AcDbPoint
 10
-1912.862577
 20
-1582.914194
 30
0.0
  0
ENDBLK
  5
AEB
100
AcDbEntity
  8
0
100
AcDbBlockEnd
  0
BLOCK
  5
AED
100
AcDbEntity
  8
0
100
AcDbBlockBegin
  2
*D18
 70
    65
 10
0.0
 20
0.0
 30
0.0
  3
*D18
  1

  0
LINE
  5
AEE
100
AcDbEntity
  8
0
  6
BYBLOCK
 62
     0
100
AcDbLine
 10
-1862.237577
 20
-1571.801394
 30
0.0
 11
-1855.846704
 21
-1571.801394
 31
0.0
  0
ARC
  5
AEF
100
AcDbEntity
  8
0
  6
BYBLOCK
 62
     0
100
AcDbCircle
 10
-1862.862577
 20
-1571.801394
 30
0.0
 40
5.765874
100
AcDbArc
 50
25.041459
 51
64.958541
  0
SOLID
  5
AF0
100
AcDbEntity
  8
0
  6
BYBLOCK
 62
     0
100
AcDbTrace
 10
-1857.231928
 20
-1569.270519
 30
0.0
 11
-1858.045443
 21
-1569.45118
 31
0.0
 12
-1857.096704
 22
-1571.801394
 32
0.0
 13
-1857.096704
 23
-1571.801394
 33
0.0
  0
SOLID
  5
AF1
100
AcDbEntity
  8
0
  6
BYBLOCK
 62
     0
100
AcDbTrace
 10
-1860.512363
 20
-1566.984259
 30
0.0
 11
-1860.331703
 21
-1566.170745
 31
0.0
 12
-1862.862577
 22
-1566.03552
 32
0.0
 13
-1862.862577
 23
-1566.03552
 33
0.0
  0
MTEXT
  5
AF2
100
AcDbEntity
  8
0
  6
BYBLOCK
 62
     0
100
AcDbMText
 10
-1855.78581
 20
-1565.331761
 30
0.0
 40
3.5
 41
0.0
 71
     5
 72
     1
  1
\A2;90°{\H2.800000;\S-0°2'^  0°0';}
 11
0.674738
 21
-0.738058
 31
0.0
  0
POINT
  5
AF3
100
AcDbEntity
  8
DEFPOINTS
  6
BYBLOCK
 62
     0
100
AcDbPoint
 10
-1859.97964
 20
-1566.808001
 30
0.0
  0
POINT
  5
AF4
100
AcDbEntity
  8
DEFPOINTS
  6
BYBLOCK
 62
     0
100
AcDbPoint
 10
-1912.862577
 20
-1571.801394
 30
0.0
  0
POINT
  5
AF5
100
AcDbEntity
  8
DEFPOINTS
  6
BYBLOCK
 62
     0
100
AcDbPoint
 10
-1862.862577
 20
-1571.801394
 30
0.0
  0
POINT
  5
AF6
100
AcDbEntity
  8
DEFPOINTS
  6
BYBLOCK
 62
     0
100
AcDbPoint
 10
-1862.862577
 20
-1547.801394
 30
0.0
  0
POINT
  5
AF7
100
AcDbEntity
  8
DEFPOINTS
  6
BYBLOCK
 62
     0
100
AcDbPoint
 10
-1862.862577
 20
-1571.801394
 30
0.0
  0
ENDBLK
  5
AF8
100
AcDbEntity
  8
0
100
AcDbBlockEnd
  0
BLOCK
  5
AFA
100
AcDbEntity
  8
0
100
AcDbBlockBegin
  2
*D19
 70
    65
 10
0.0
 20
0.0
 30
0.0
  3
*D19
  1

  0
LINE
  5
AFB
100
AcDbEntity
  8
0
  6
BYBLOCK
 62
     0
100
AcDbLine
 10
-1913.487577
 20
-1571.801394
 30
0.0
 11
-1919.170275
 21
-1571.801394
 31
0.0
  0
ARC
  5
AFC
100
AcDbEntity
  8
0
  6
BYBLOCK
 62
     0
100
AcDbCircle
 10
-1912.862577
 20
-1571.801394
 30
0.0
 40
5.057697
100
AcDbArc
 50
118.617624
 51
151.382376
  0
SOLID
  5
AFD
100
AcDbEntity
  8
0
  6
BYBLOCK
 62
     0
100
AcDbTrace
 10
-1915.388
 20
-1566.957825
 30
0.0
 11
-1915.182043
 21
-1567.765307
 31
0.0
 12
-1912.862577
 22
-1566.743696
 32
0.0
 13
-1912.862577
 23
-1566.743696
 33
0.0
  0
SOLID
  5
AFE
100
AcDbEntity
  8
0
  6
BYBLOCK
 62
     0
100
AcDbTrace
 10
-1916.898664
 20
-1569.481928
 30
0.0
 11
-1917.706145
 21
-1569.275971
 31
0.0
 12
-1917.920275
 22
-1571.801394
 32
0.0
 13
-1917.920275
 23
-1571.801394
 33
0.0
  0
MTEXT
  5
AFF
100
AcDbEntity
  8
0
  6
BYBLOCK
 62
     0
100
AcDbMText
 10
-1920.044252
 20
-1566.57824
 30
0.0
 40
3.5
 41
0.0
 71
     5
 72
     1
  1
\A2;90°{\H2.800000;\S-0°2'^  0°0';}
 11
0.58818
 21
0.80873
 31
0.0
  0
POINT
  5
B00
100
AcDbEntity
  8
DEFPOINTS
  6
BYBLOCK
 62
     0
100
AcDbPoint
 10
-1915.391426
 20
-1567.421299
 30
0.0
  0
POINT
  5
B01
100
AcDbEntity
  8
DEFPOINTS
  6
BYBLOCK
 62
     0
100
AcDbPoint
 10
-1912.862577
 20
-1571.801394
 30
0.0
  0
POINT
  5
B02
100
AcDbEntity
  8
DEFPOINTS
  6
BYBLOCK
 62
     0
100
AcDbPoint
 10
-1912.862577
 20
-1571.801394
 30
0.0
  0
POINT
  5
B03
100
AcDbEntity
  8
DEFPOINTS
  6
BYBLOCK
 62
     0
100
AcDbPoint
 10
-1912.862577
 20
-1547.801394
 30
0.0
  0
POINT
  5
B04
100
AcDbEntity
  8
DEFPOINTS
  6
BYBLOCK
 62
     0
100
AcDbPoint
 10
-1862.862577
 20
-1571.801394
 30
0.0
  0
ENDBLK
  5
B05
100
AcDbEntity
  8
0
100
AcDbBlockEnd
  0
BLOCK
  5
B7E
100
AcDbEntity
  8
0
100
AcDbBlockBegin
  2
*D20
 70
    65
 10
0.0
 20
0.0
 30
0.0
  3
*D20
  1

  0
LINE
  5
B7F
100
AcDbEntity
  8
0
  6
BYBLOCK
 62
     0
100
AcDbLine
 10
-1562.625628
 20
-1505.320768
 30
0.0
 11
-1540.971044
 21
-1505.320768
 31
0.0
  0
LINE
  5
B80
100
AcDbEntity
  8
0
  6
BYBLOCK
 62
     0
100
AcDbLine
 10
-1568.625628
 20
-1525.320768
 30
0.0
 11
-1540.971044
 21
-1525.320768
 31
0.0
  0
LINE
  5
B81
100
AcDbEntity
  8
0
  6
BYBLOCK
 62
     0
100
AcDbLine
 10
-1542.221044
 20
-1507.820768
 30
0.0
 11
-1542.221044
 21
-1522.820768
 31
0.0
  0
SOLID
  5
B82
100
AcDbEntity
  8
0
  6
BYBLOCK
 62
     0
100
AcDbTrace
 10
-1542.637711
 20
-1507.820768
 30
0.0
 11
-1541.804378
 21
-1507.820768
 31
0.0
 12
-1542.221044
 22
-1505.320768
 32
0.0
 13
-1542.221044
 23
-1505.320768
 33
0.0
  0
SOLID
  5
B83
100
AcDbEntity
  8
0
  6
BYBLOCK
 62
     0
100
AcDbTrace
 10
-1542.637711
 20
-1522.820768
 30
0.0
 11
-1541.804378
 21
-1522.820768
 31
0.0
 12
-1542.221044
 22
-1525.320768
 32
0.0
 13
-1542.221044
 23
-1525.320768
 33
0.0
  0
MTEXT
  5
B84
100
AcDbEntity
  8
0
  6
BYBLOCK
 62
     0
100
AcDbMText
 10
-1544.596044
 20
-1515.320768
 30
0.0
 40
3.5
 41
0.0
 71
     5
 72
     1
  1
\A1;20
 11
0.0
 21
1.0
 31
0.0
  0
POINT
  5
B85
100
AcDbEntity
  8
DEFPOINTS
  6
BYBLOCK
 62
     0
100
AcDbPoint
 10
-1563.250628
 20
-1505.320768
 30
0.0
  0
POINT
  5
B86
100
AcDbEntity
  8
DEFPOINTS
  6
BYBLOCK
 62
     0
100
AcDbPoint
 10
-1569.250628
 20
-1525.320768
 30
0.0
  0
POINT
  5
B87
100
AcDbEntity
  8
DEFPOINTS
  6
BYBLOCK
 62
     0
100
AcDbPoint
 10
-1542.221044
 20
-1525.320768
 30
0.0
  0
ENDBLK
  5
B88
100
AcDbEntity
  8
0
100
AcDbBlockEnd
  0
BLOCK
  5
CDE
100
AcDbEntity
  8
0
100
AcDbBlockBegin
  2
*D21
 70
    65
 10
0.0
 20
0.0
 30
0.0
  3
*D21
  1

  0
LINE
  5
CDF
100
AcDbEntity
  8
0
  6
BYBLOCK
 62
     0
100
AcDbLine
 10
-1567.700628
 20
-1524.395768
 30
0.0
 11
-1567.700628
 21
-1541.320167
 31
0.0
  0
LINE
  5
CE0
100
AcDbEntity
  8
0
  6
BYBLOCK
 62
     0
100
AcDbLine
 10
-1581.200628
 20
-1524.395768
 30
0.0
 11
-1581.200628
 21
-1541.320167
 31
0.0
  0
LINE
  5
CE1
100
AcDbEntity
  8
0
  6
BYBLOCK
 62
     0
100
AcDbLine
 10
-1578.700628
 20
-1540.070167
 30
0.0
 11
-1570.200628
 21
-1540.070167
 31
0.0
  0
LINE
  5
CE2
100
AcDbEntity
  8
0
  6
BYBLOCK
 62
     0
100
AcDbLine
 10
-1567.700628
 20
-1540.070167
 30
0.0
 11
-1540.190587
 21
-1540.070167
 31
0.0
  0
SOLID
  5
CE3
100
AcDbEntity
  8
0
  6
BYBLOCK
 62
     0
100
AcDbTrace
 10
-1578.700628
 20
-1539.6535
 30
0.0
 11
-1578.700628
 21
-1540.486834
 31
0.0
 12
-1581.200628
 22
-1540.070167
 32
0.0
 13
-1581.200628
 23
-1540.070167
 33
0.0
  0
SOLID
  5
CE4
100
AcDbEntity
  8
0
  6
BYBLOCK
 62
     0
100
AcDbTrace
 10
-1570.200628
 20
-1539.6535
 30
0.0
 11
-1570.200628
 21
-1540.486834
 31
0.0
 12
-1567.700628
 22
-1540.070167
 32
0.0
 13
-1567.700628
 23
-1540.070167
 33
0.0
  0
MTEXT
  5
CE5
100
AcDbEntity
  8
0
  6
BYBLOCK
 62
     0
100
AcDbMText
 10
-1548.438587
 20
-1536.317398
 30
0.0
 40
3.5
 41
0.0
 71
     5
 72
     1
  1
\A2;13.5{\H2.800000;\S+0.1^  0;}
  0
POINT
  5
CE6
100
AcDbEntity
  8
DEFPOINTS
  6
BYBLOCK
 62
     0
100
AcDbPoint
 10
-1567.700628
 20
-1523.770768
 30
0.0
  0
POINT
  5
CE7
100
AcDbEntity
  8
DEFPOINTS
  6
BYBLOCK
 62
     0
100
AcDbPoint
 10
-1581.200628
 20
-1523.770768
 30
0.0
  0
POINT
  5
CE8
100
AcDbEntity
  8
DEFPOINTS
  6
BYBLOCK
 62
     0
100
AcDbPoint
 10
-1581.200628
 20
-1540.070167
 30
0.0
  0
ENDBLK
  5
CE9
100
AcDbEntity
  8
0
100
AcDbBlockEnd
  0
BLOCK
  5
CEA
100
AcDbEntity
  8
0
100
AcDbBlockBegin
  2
*D22
 70
    65
 10
0.0
 20
0.0
 30
0.0
  3
*D22
  1

  0
LINE
  5
CEB
100
AcDbEntity
  8
0
  6
BYBLOCK
 62
     0
100
AcDbLine
 10
-1561.700628
 20
-1504.395768
 30
0.0
 11
-1561.700628
 21
-1562.379287
 31
0.0
  0
LINE
  5
CEC
100
AcDbEntity
  8
0
  6
BYBLOCK
 62
     0
100
AcDbLine
 10
-1587.200628
 20
-1504.395768
 30
0.0
 11
-1587.200628
 21
-1562.379287
 31
0.0
  0
LINE
  5
CED
100
AcDbEntity
  8
0
  6
BYBLOCK
 62
     0
100
AcDbLine
 10
-1564.200628
 20
-1561.129287
 30
0.0
 11
-1584.700628
 21
-1561.129287
 31
0.0
  0
SOLID
  5
CEE
100
AcDbEntity
  8
0
  6
BYBLOCK
 62
     0
100
AcDbTrace
 10
-1564.200628
 20
-1560.71262
 30
0.0
 11
-1564.200628
 21
-1561.545954
 31
0.0
 12
-1561.700628
 22
-1561.129287
 32
0.0
 13
-1561.700628
 23
-1561.129287
 33
0.0
  0
SOLID
  5
CEF
100
AcDbEntity
  8
0
  6
BYBLOCK
 62
     0
100
AcDbTrace
 10
-1584.700628
 20
-1560.71262
 30
0.0
 11
-1584.700628
 21
-1561.545954
 31
0.0
 12
-1587.200628
 22
-1561.129287
 32
0.0
 13
-1587.200628
 23
-1561.129287
 33
0.0
  0
MTEXT
  5
CF0
100
AcDbEntity
  8
0
  6
BYBLOCK
 62
     0
100
AcDbMText
 10
-1574.450628
 20
-1557.376518
 30
0.0
 40
3.5
 41
0.0
 71
     5
 72
     1
  1
\A2;25.5{\H2.800000;\S+0.1^  0;}
  0
POINT
  5
CF1
100
AcDbEntity
  8
DEFPOINTS
  6
BYBLOCK
 62
     0
100
AcDbPoint
 10
-1561.700628
 20
-1503.770768
 30
0.0
  0
POINT
  5
CF2
100
AcDbEntity
  8
DEFPOINTS
  6
BYBLOCK
 62
     0
100
AcDbPoint
 10
-1587.200628
 20
-1503.770768
 30
0.0
  0
POINT
  5
CF3
100
AcDbEntity
  8
DEFPOINTS
  6
BYBLOCK
 62
     0
100
AcDbPoint
 10
-1587.200628
 20
-1561.129287
 30
0.0
  0
ENDBLK
  5
CF4
100
AcDbEntity
  8
0
100
AcDbBlockEnd
  0
BLOCK
  5
EC9
100
AcDbEntity
  8
0
100
AcDbBlockBegin
  2
*D23
 70
    65
 10
0.0
 20
0.0
 30
0.0
  3
*D23
  1

  0
LINE
  5
ECA
100
AcDbEntity
  8
0
  6
BYBLOCK
 62
     0
100
AcDbLine
 10
-1584.700628
 20
-1461.458047
 30
0.0
 11
-1584.700628
 21
-1464.969322
 31
0.0
  0
LINE
  5
ECB
100
AcDbEntity
  8
0
  6
BYBLOCK
 62
     0
100
AcDbLine
 10
-1564.200628
 20
-1459.932024
 30
0.0
 11
-1564.200628
 21
-1464.969322
 31
0.0
  0
LINE
  5
ECC
100
AcDbEntity
  8
0
  6
BYBLOCK
 62
     0
100
AcDbLine
 10
-1587.200628
 20
-1463.719322
 30
0.0
 11
-1589.700628
 21
-1463.719322
 31
0.0
  0
LINE
  5
ECD
100
AcDbEntity
  8
0
  6
BYBLOCK
 62
     0
100
AcDbLine
 10
-1561.700628
 20
-1463.719322
 30
0.0
 11
-1559.200628
 21
-1463.719322
 31
0.0
  0
SOLID
  5
ECE
100
AcDbEntity
  8
0
  6
BYBLOCK
 62
     0
100
AcDbTrace
 10
-1587.200628
 20
-1463.302656
 30
0.0
 11
-1587.200628
 21
-1464.135989
 31
0.0
 12
-1584.700628
 22
-1463.719322
 32
0.0
 13
-1584.700628
 23
-1463.719322
 33
0.0
  0
SOLID
  5
ECF
100
AcDbEntity
  8
0
  6
BYBLOCK
 62
     0
100
AcDbTrace
 10
-1561.700628
 20
-1463.302656
 30
0.0
 11
-1561.700628
 21
-1464.135989
 31
0.0
 12
-1564.200628
 22
-1463.719322
 32
0.0
 13
-1564.200628
 23
-1463.719322
 33
0.0
  0
MTEXT
  5
ED0
100
AcDbEntity
  8
0
  6
BYBLOCK
 62
     0
100
AcDbMText
 10
-1574.450628
 20
-1459.966553
 30
0.0
 40
3.5
 41
0.0
 71
     5
 72
     1
  1
\A2;20.5{\H2.800000;\S+0.1^  0;}
  0
POINT
  5
ED1
100
AcDbEntity
  8
DEFPOINTS
  6
BYBLOCK
 62
     0
100
AcDbPoint
 10
-1584.700628
 20
-1460.833047
 30
0.0
  0
POINT
  5
ED2
100
AcDbEntity
  8
DEFPOINTS
  6
BYBLOCK
 62
     0
100
AcDbPoint
 10
-1564.200628
 20
-1459.307024
 30
0.0
  0
POINT
  5
ED3
100
AcDbEntity
  8
DEFPOINTS
  6
BYBLOCK
 62
     0
100
AcDbPoint
 10
-1564.200628
 20
-1463.719322
 30
0.0
  0
ENDBLK
  5
ED4
100
AcDbEntity
  8
0
100
AcDbBlockEnd
  0
BLOCK
  5
1045
100
AcDbEntity
  8
0
100
AcDbBlockBegin
  2
*D24
 70
    65
 10
0.0
 20
0.0
 30
0.0
  3
*D24
  1

  0
LINE
  5
1046
100
AcDbEntity
  8
0
  6
BYBLOCK
 62
     0
100
AcDbLine
 10
-1600.372058
 20
-1497.020768
 30
0.0
 11
-1606.057728
 21
-1497.020768
 31
0.0
  0
LINE
  5
1047
100
AcDbEntity
  8
0
  6
BYBLOCK
 62
     0
100
AcDbLine
 10
-1586.275628
 20
-1505.320768
 30
0.0
 11
-1606.057728
 21
-1505.320768
 31
0.0
  0
LINE
  5
1048
100
AcDbEntity
  8
0
  6
BYBLOCK
 62
     0
100
AcDbLine
 10
-1604.807728
 20
-1499.520768
 30
0.0
 11
-1604.807728
 21
-1502.820768
 31
0.0
  0
LINE
  5
1049
100
AcDbEntity
  8
0
  6
BYBLOCK
 62
     0
100
AcDbLine
 10
-1604.807728
 20
-1505.320768
 30
0.0
 11
-1604.807728
 21
-1539.976883
 31
0.0
  0
SOLID
  5
104A
100
AcDbEntity
  8
0
  6
BYBLOCK
 62
     0
100
AcDbTrace
 10
-1605.224395
 20
-1499.520768
 30
0.0
 11
-1604.391061
 21
-1499.520768
 31
0.0
 12
-1604.807728
 22
-1497.020768
 32
0.0
 13
-1604.807728
 23
-1497.020768
 33
0.0
  0
SOLID
  5
104B
100
AcDbEntity
  8
0
  6
BYBLOCK
 62
     0
100
AcDbTrace
 10
-1605.224395
 20
-1502.820768
 30
0.0
 11
-1604.391061
 21
-1502.820768
 31
0.0
 12
-1604.807728
 22
-1505.320768
 32
0.0
 13
-1604.807728
 23
-1505.320768
 33
0.0
  0
MTEXT
  5
104C
100
AcDbEntity
  8
0
  6
BYBLOCK
 62
     0
100
AcDbMText
 10
-1607.182728
 20
-1533.153383
 30
0.0
 40
3.5
 41
0.0
 71
     5
 72
     1
  1
\A2;8.3{\H2.800000;±0.1}
 11
0.0
 21
1.0
 31
0.0
  0
POINT
  5
104D
100
AcDbEntity
  8
DEFPOINTS
  6
BYBLOCK
 62
     0
100
AcDbPoint
 10
-1599.747058
 20
-1497.020768
 30
0.0
  0
POINT
  5
104E
100
AcDbEntity
  8
DEFPOINTS
  6
BYBLOCK
 62
     0
100
AcDbPoint
 10
-1585.650628
 20
-1505.320768
 30
0.0
  0
POINT
  5
104F
100
AcDbEntity
  8
DEFPOINTS
  6
BYBLOCK
 62
     0
100
AcDbPoint
 10
-1604.807728
 20
-1505.320768
 30
0.0
  0
ENDBLK
  5
1050
100
AcDbEntity
  8
0
100
AcDbBlockEnd
  0
BLOCK
  5
BDD
100
AcDbEntity
  8
0
100
AcDbBlockBegin
  2
*D25
 70
    65
 10
0.0
 20
0.0
 30
0.0
  3
*D25
  1

  0
LINE
  5
BDE
100
AcDbEntity
  8
0
  6
BYBLOCK
 62
     0
100
AcDbLine
 10
-1587.64257
 20
-1494.828826
 30
0.0
 11
-1607.429074
 21
-1475.042322
 31
0.0
  0
LINE
  5
BDF
100
AcDbEntity
  8
0
  6
BYBLOCK
 62
     0
100
AcDbLine
 10
-1587.64257
 20
-1499.212709
 30
0.0
 11
-1607.429074
 21
-1518.999213
 31
0.0
  0
ARC
  5
BE0
100
AcDbEntity
  8
0
  6
BYBLOCK
 62
     0
100
AcDbCircle
 10
-1585.450628
 20
-1497.020768
 30
0.0
 40
29.832216
100
AcDbArc
 50
139.802908
 51
220.197092
  0
SOLID
  5
BE1
100
AcDbEntity
  8
0
  6
BYBLOCK
 62
     0
100
AcDbTrace
 10
-1608.544048
 20
-1477.484467
 30
0.0
 11
-1607.930619
 21
-1478.048515
 31
0.0
 12
-1606.54519
 22
-1475.926205
 32
0.0
 13
-1606.54519
 23
-1475.926205
 33
0.0
  0
SOLID
  5
BE2
100
AcDbEntity
  8
0
  6
BYBLOCK
 62
     0
100
AcDbTrace
 10
-1607.930619
 20
-1515.99302
 30
0.0
 11
-1608.544048
 21
-1516.557068
 31
0.0
 12
-1606.54519
 22
-1518.11533
 32
0.0
 13
-1606.54519
 23
-1518.11533
 33
0.0
  0
MTEXT
  5
BE3
100
AcDbEntity
  8
0
  6
BYBLOCK
 62
     0
100
AcDbMText
 10
-1617.657844
 20
-1497.020768
 30
0.0
 40
3.5
 41
0.0
 71
     5
 72
     1
  1
\A1;90°
 11
0.0
 21
1.0
 31
0.0
  0
POINT
  5
BE4
100
AcDbEntity
  8
DEFPOINTS
  6
BYBLOCK
 62
     0
100
AcDbPoint
 10
-1614.266336
 20
-1489.299622
 30
0.0
  0
POINT
  5
BE5
100
AcDbEntity
  8
DEFPOINTS
  6
BYBLOCK
 62
     0
100
AcDbPoint
 10
-1587.200628
 20
-1495.270768
 30
0.0
  0
POINT
  5
BE6
100
AcDbEntity
  8
DEFPOINTS
  6
BYBLOCK
 62
     0
100
AcDbPoint
 10
-1587.200628
 20
-1498.770768
 30
0.0
  0
POINT
  5
BE7
100
AcDbEntity
  8
DEFPOINTS
  6
BYBLOCK
 62
     0
100
AcDbPoint
 10
-1585.450628
 20
-1497.020768
 30
0.0
  0
POINT
  5
BE8
100
AcDbEntity
  8
DEFPOINTS
  6
BYBLOCK
 62
     0
100
AcDbPoint
 10
-1585.450628
 20
-1497.020768
 30
0.0
  0
ENDBLK
  5
BE9
100
AcDbEntity
  8
0
100
AcDbBlockEnd
  0
BLOCK
  5
BF8
100
AcDbEntity
  8
0
100
AcDbBlockBegin
  2
*D26
 70
    65
 10
0.0
 20
0.0
 30
0.0
  3
*D26
  1

  0
LINE
  5
BF9
100
AcDbEntity
  8
0
  6
BYBLOCK
 62
     0
100
AcDbLine
 10
-1587.825628
 20
-1495.270768
 30
0.0
 11
-1600.933948
 21
-1495.270768
 31
0.0
  0
LINE
  5
BFA
100
AcDbEntity
  8
0
  6
BYBLOCK
 62
     0
100
AcDbLine
 10
-1587.825628
 20
-1498.770768
 30
0.0
 11
-1600.933948
 21
-1498.770768
 31
0.0
  0
LINE
  5
BFB
100
AcDbEntity
  8
0
  6
BYBLOCK
 62
     0
100
AcDbLine
 10
-1599.683948
 20
-1501.270768
 30
0.0
 11
-1599.683948
 21
-1503.770768
 31
0.0
  0
LINE
  5
BFC
100
AcDbEntity
  8
0
  6
BYBLOCK
 62
     0
100
AcDbLine
 10
-1599.683948
 20
-1492.770768
 30
0.0
 11
-1599.683948
 21
-1471.673381
 31
0.0
  0
SOLID
  5
BFD
100
AcDbEntity
  8
0
  6
BYBLOCK
 62
     0
100
AcDbTrace
 10
-1600.100614
 20
-1501.270768
 30
0.0
 11
-1599.267281
 21
-1501.270768
 31
0.0
 12
-1599.683948
 22
-1498.770768
 32
0.0
 13
-1599.683948
 23
-1498.770768
 33
0.0
  0
SOLID
  5
BFE
100
AcDbEntity
  8
0
  6
BYBLOCK
 62
     0
100
AcDbTrace
 10
-1600.100614
 20
-1492.770768
 30
0.0
 11
-1599.267281
 21
-1492.770768
 31
0.0
 12
-1599.683948
 22
-1495.270768
 32
0.0
 13
-1599.683948
 23
-1495.270768
 33
0.0
  0
MTEXT
  5
BFF
100
AcDbEntity
  8
0
  6
BYBLOCK
 62
     0
100
AcDbMText
 10
-1602.058948
 20
-1475.073117
 30
0.0
 40
3.5
 41
0.0
 71
     5
 72
     1
  1
\A1;3.5
 11
0.0
 21
1.0
 31
0.0
  0
POINT
  5
C00
100
AcDbEntity
  8
DEFPOINTS
  6
BYBLOCK
 62
     0
100
AcDbPoint
 10
-1587.200628
 20
-1495.270768
 30
0.0
  0
POINT
  5
C01
100
AcDbEntity
  8
DEFPOINTS
  6
BYBLOCK
 62
     0
100
AcDbPoint
 10
-1587.200628
 20
-1498.770768
 30
0.0
  0
POINT
  5
C02
100
AcDbEntity
  8
DEFPOINTS
  6
BYBLOCK
 62
     0
100
AcDbPoint
 10
-1599.683948
 20
-1498.770768
 30
0.0
  0
ENDBLK
  5
C03
100
AcDbEntity
  8
0
100
AcDbBlockEnd
  0
BLOCK
  5
C06
100
AcDbEntity
  8
0
100
AcDbBlockBegin
  2
*D27
 70
    65
 10
0.0
 20
0.0
 30
0.0
  3
*D27
  1

  0
LINE
  5
C07
100
AcDbEntity
  8
0
  6
BYBLOCK
 62
     0
100
AcDbLine
 10
-1583.106783
 20
-1504.878826
 30
0.0
 11
-1584.928911
 21
-1503.056699
 31
0.0
  0
LINE
  5
C08
100
AcDbEntity
  8
0
  6
BYBLOCK
 62
     0
100
AcDbLine
 10
-1581.746123
 20
-1503.518166
 30
0.0
 11
-1583.56825
 21
-1501.696038
 31
0.0
  0
LINE
  5
C09
100
AcDbEntity
  8
0
  6
BYBLOCK
 62
     0
100
AcDbLine
 10
-1585.812794
 20
-1505.708349
 30
0.0
 11
-1587.580561
 21
-1507.476116
 31
0.0
  0
LINE
  5
C0A
100
AcDbEntity
  8
0
  6
BYBLOCK
 62
     0
100
AcDbLine
 10
-1580.9166
 20
-1500.812155
 30
0.0
 11
-1572.850317
 21
-1492.745872
 31
0.0
  0
SOLID
  5
C0B
100
AcDbEntity
  8
0
  6
BYBLOCK
 62
     0
100
AcDbTrace
 10
-1586.107422
 20
-1505.413721
 30
0.0
 11
-1585.518166
 21
-1506.002977
 31
0.0
 12
-1584.045027
 22
-1503.940582
 32
0.0
 13
-1584.045027
 23
-1503.940582
 33
0.0
  0
SOLID
  5
C0C
100
AcDbEntity
  8
0
  6
BYBLOCK
 62
     0
100
AcDbTrace
 10
-1581.211228
 20
-1500.517527
 30
0.0
 11
-1580.621972
 21
-1501.106783
 31
0.0
 12
-1582.684367
 22
-1502.579922
 32
0.0
 13
-1582.684367
 23
-1502.579922
 33
0.0
  0
MTEXT
  5
C0D
100
AcDbEntity
  8
0
  6
BYBLOCK
 62
     0
100
AcDbMText
 10
-1577.679197
 20
-1494.215508
 30
0.0
 40
3.5
 41
0.0
 71
     5
 72
     1
  1
\A1;1.92
 11
0.707107
 21
0.707107
 31
0.0
  0
POINT
  5
C0E
100
AcDbEntity
  8
DEFPOINTS
  6
BYBLOCK
 62
     0
100
AcDbPoint
 10
-1582.664841
 20
-1505.320768
 30
0.0
  0
POINT
  5
C0F
100
AcDbEntity
  8
DEFPOINTS
  6
BYBLOCK
 62
     0
100
AcDbPoint
 10
-1581.304181
 20
-1503.960107
 30
0.0
  0
POINT
  5
C10
100
AcDbEntity
  8
DEFPOINTS
  6
BYBLOCK
 62
     0
100
AcDbPoint
 10
-1582.684367
 20
-1502.579922
 30
0.0
  0
ENDBLK
  5
C11
100
AcDbEntity
  8
0
100
AcDbBlockEnd
  0
BLOCK
  5
C14
100
AcDbEntity
  8
0
100
AcDbBlockBegin
  2
*D28
 70
    65
 10
0.0
 20
0.0
 30
0.0
  3
*D28
  1

  0
LINE
  5
C15
100
AcDbEntity
  8
0
  6
BYBLOCK
 62
     0
100
AcDbLine
 10
-1569.45323
 20
-1504.932379
 30
0.0
 11
-1572.095563
 21
-1502.290047
 31
0.0
  0
LINE
  5
C16
100
AcDbEntity
  8
0
  6
BYBLOCK
 62
     0
100
AcDbLine
 10
-1568.039016
 20
-1503.518166
 30
0.0
 11
-1570.681349
 21
-1500.875833
 31
0.0
  0
LINE
  5
C17
100
AcDbEntity
  8
0
  6
BYBLOCK
 62
     0
100
AcDbLine
 10
-1572.979446
 20
-1504.941697
 30
0.0
 11
-1574.747213
 21
-1506.709464
 31
0.0
  0
LINE
  5
C18
100
AcDbEntity
  8
0
  6
BYBLOCK
 62
     0
100
AcDbLine
 10
-1568.029699
 20
-1499.99195
 30
0.0
 11
-1564.05647
 21
-1496.018721
 31
0.0
  0
SOLID
  5
C19
100
AcDbEntity
  8
0
  6
BYBLOCK
 62
     0
100
AcDbTrace
 10
-1573.274074
 20
-1504.647069
 30
0.0
 11
-1572.684818
 21
-1505.236325
 31
0.0
 12
-1571.211679
 22
-1503.17393
 32
0.0
 13
-1571.211679
 23
-1503.17393
 33
0.0
  0
SOLID
  5
C1A
100
AcDbEntity
  8
0
  6
BYBLOCK
 62
     0
100
AcDbTrace
 10
-1568.324326
 20
-1499.697322
 30
0.0
 11
-1567.735071
 21
-1500.286577
 31
0.0
 12
-1569.797466
 22
-1501.759716
 32
0.0
 13
-1569.797466
 23
-1501.759716
 33
0.0
  0
MTEXT
  5
C1B
100
AcDbEntity
  8
0
  6
BYBLOCK
 62
     0
100
AcDbMText
 10
-1566.838823
 20
-1495.44183
 30
0.0
 40
3.5
 41
0.0
 71
     5
 72
     1
  1
\A1;2
 11
0.707107
 21
0.707107
 31
0.0
  0
POINT
  5
C1C
100
AcDbEntity
  8
DEFPOINTS
  6
BYBLOCK
 62
     0
100
AcDbPoint
 10
-1569.011288
 20
-1505.374321
 30
0.0
  0
POINT
  5
C1D
100
AcDbEntity
  8
DEFPOINTS
  6
BYBLOCK
 62
     0
100
AcDbPoint
 10
-1567.597075
 20
-1503.960107
 30
0.0
  0
POINT
  5
C1E
100
AcDbEntity
  8
DEFPOINTS
  6
BYBLOCK
 62
     0
100
AcDbPoint
 10
-1569.797466
 20
-1501.759716
 30
0.0
  0
ENDBLK
  5
C1F
100
AcDbEntity
  8
0
100
AcDbBlockEnd
  0
BLOCK
  5
F11
100
AcDbEntity
  8
0
100
AcDbBlockBegin
  2
*D29
 70
    65
 10
0.0
 20
0.0
 30
0.0
  3
*D29
  1

  0
LINE
  5
F12
100
AcDbEntity
  8
0
  6
BYBLOCK
 62
     0
100
AcDbLine
 10
-1806.721673
 20
-1434.395768
 30
0.0
 11
-1806.721673
 21
-1413.540651
 31
0.0
  0
LINE
  5
F13
100
AcDbEntity
  8
0
  6
BYBLOCK
 62
     0
100
AcDbLine
 10
-1818.721673
 20
-1434.395768
 30
0.0
 11
-1818.721673
 21
-1413.540651
 31
0.0
  0
LINE
  5
F14
100
AcDbEntity
  8
0
  6
BYBLOCK
 62
     0
100
AcDbLine
 10
-1816.221673
 20
-1414.790651
 30
0.0
 11
-1809.221673
 21
-1414.790651
 31
0.0
  0
LINE
  5
F15
100
AcDbEntity
  8
0
  6
BYBLOCK
 62
     0
100
AcDbLine
 10
-1806.721673
 20
-1414.790651
 30
0.0
 11
-1775.233921
 21
-1414.790651
 31
0.0
  0
SOLID
  5
F16
100
AcDbEntity
  8
0
  6
BYBLOCK
 62
     0
100
AcDbTrace
 10
-1816.221673
 20
-1414.373984
 30
0.0
 11
-1816.221673
 21
-1415.207317
 31
0.0
 12
-1818.721673
 22
-1414.790651
 32
0.0
 13
-1818.721673
 23
-1414.790651
 33
0.0
  0
SOLID
  5
F17
100
AcDbEntity
  8
0
  6
BYBLOCK
 62
     0
100
AcDbTrace
 10
-1809.221673
 20
-1414.373984
 30
0.0
 11
-1809.221673
 21
-1415.207317
 31
0.0
 12
-1806.721673
 22
-1414.790651
 32
0.0
 13
-1806.721673
 23
-1414.790651
 33
0.0
  0
MTEXT
  5
F18
100
AcDbEntity
  8
0
  6
BYBLOCK
 62
     0
100
AcDbMText
 10
-1782.172921
 20
-1412.415306
 30
0.0
 40
3.5
 41
0.0
 71
     5
 72
     1
  1
\A2;12{\H2.800000;±0.01}
  0
POINT
  5
F19
100
AcDbEntity
  8
DEFPOINTS
  6
BYBLOCK
 62
     0
100
AcDbPoint
 10
-1806.721673
 20
-1435.020768
 30
0.0
  0
POINT
  5
F1A
100
AcDbEntity
  8
DEFPOINTS
  6
BYBLOCK
 62
     0
100
AcDbPoint
 10
-1818.721673
 20
-1435.020768
 30
0.0
  0
POINT
  5
F1B
100
AcDbEntity
  8
DEFPOINTS
  6
BYBLOCK
 62
     0
100
AcDbPoint
 10
-1818.721673
 20
-1414.790651
 30
0.0
  0
ENDBLK
  5
F1C
100
AcDbEntity
  8
0
100
AcDbBlockEnd
  0
BLOCK
  5
EF2
100
AcDbEntity
  8
0
100
AcDbBlockBegin
  2
*D30
 70
    65
 10
0.0
 20
0.0
 30
0.0
  3
*D30
  1

  0
LINE
  5
EF3
100
AcDbEntity
  8
0
  6
BYBLOCK
 62
     0
100
AcDbLine
 10
-1813.794906
 20
-1443.202908
 30
0.0
 11
-1817.769122
 21
-1454.7586
 31
0.0
  0
SOLID
  5
EF4
100
AcDbEntity
  8
0
  6
BYBLOCK
 62
     0
100
AcDbTrace
 10
-1814.188922
 20
-1443.067399
 30
0.0
 11
-1813.400891
 21
-1443.338418
 31
0.0
 12
-1812.981851
 22
-1440.838814
 32
0.0
 13
-1812.981851
 23
-1440.838814
 33
0.0
  0
MTEXT
  5
EF5
100
AcDbEntity
  8
0
  6
BYBLOCK
 62
     0
100
AcDbMText
 10
-1818.434431
 20
-1449.390399
 30
0.0
 40
3.5
 41
0.0
 71
     5
 72
     1
  1
\A1;R0.8
 11
0.325222
 21
0.945638
 31
0.0
  0
POINT
  5
EF6
100
AcDbEntity
  8
DEFPOINTS
  6
BYBLOCK
 62
     0
100
AcDbPoint
 10
-1812.981851
 20
-1440.838814
 30
0.0
  0
POINT
  5
EF7
100
AcDbEntity
  8
DEFPOINTS
  6
BYBLOCK
 62
     0
100
AcDbPoint
 10
-1812.721673
 20
-1440.082304
 30
0.0
  0
ENDBLK
  5
EF8
100
AcDbEntity
  8
0
100
AcDbBlockEnd
  0
BLOCK
  5
F68
100
AcDbEntity
  8
0
100
AcDbBlockBegin
  2
*D31
 70
    65
 10
0.0
 20
0.0
 30
0.0
  3
*D31
  1

  0
LINE
  5
F69
100
AcDbEntity
  8
0
  6
BYBLOCK
 62
     0
100
AcDbLine
 10
-1821.257353
 20
-1433.000267
 30
0.0
 11
-1832.121563
 21
-1412.859075
 31
0.0
  0
SOLID
  5
F6A
100
AcDbEntity
  8
0
  6
BYBLOCK
 62
     0
100
AcDbTrace
 10
-1820.890634
 20
-1432.802458
 30
0.0
 11
-1821.624071
 21
-1433.198076
 31
0.0
 12
-1820.070498
 22
-1435.20058
 32
0.0
 13
-1820.070498
 23
-1435.20058
 33
0.0
  0
MTEXT
  5
F6B
100
AcDbEntity
  8
0
  6
BYBLOCK
 62
     0
100
AcDbMText
 10
-1825.523072
 20
-1420.089317
 30
0.0
 40
3.5
 41
0.0
 71
     5
 72
     1
  1
\A2;R1.5{\H2.800000;±0.02}
 11
0.474742
 21
-0.880125
 31
0.0
  0
POINT
  5
F6C
100
AcDbEntity
  8
DEFPOINTS
  6
BYBLOCK
 62
     0
100
AcDbPoint
 10
-1820.070498
 20
-1435.20058
 30
0.0
  0
POINT
  5
F6D
100
AcDbEntity
  8
DEFPOINTS
  6
BYBLOCK
 62
     0
100
AcDbPoint
 10
-1819.358386
 20
-1436.520768
 30
0.0
  0
ENDBLK
  5
F6E
100
AcDbEntity
  8
0
100
AcDbBlockEnd
  0
BLOCK
  5
F45
100
AcDbEntity
  8
0
100
AcDbBlockBegin
  2
*D32
 70
    65
 10
0.0
 20
0.0
 30
0.0
  3
*D32
  1

  0
LINE
  5
F46
100
AcDbEntity
  8
0
  6
BYBLOCK
 62
     0
100
AcDbLine
 10
-1806.729809
 20
-1435.029193
 30
0.0
 11
-1787.768808
 21
-1415.394501
 31
0.0
  0
LINE
  5
F47
100
AcDbEntity
  8
0
  6
BYBLOCK
 62
     0
100
AcDbLine
 10
-1818.713537
 20
-1435.029193
 30
0.0
 11
-1837.674539
 21
-1415.394501
 31
0.0
  0
ARC
  5
F48
100
AcDbEntity
  8
0
  6
BYBLOCK
 62
     0
100
AcDbCircle
 10
-1812.721673
 20
-1441.23395
 30
0.0
 40
34.671061
100
AcDbArc
 50
50.132279
 51
129.867721
  0
SOLID
  5
F49
100
AcDbEntity
  8
0
  6
BYBLOCK
 62
     0
100
AcDbTrace
 10
-1790.218476
 20
-1414.313029
 30
0.0
 11
-1790.775369
 21
-1414.93296
 31
0.0
 12
-1788.637131
 22
-1416.293675
 32
0.0
 13
-1788.637131
 23
-1416.293675
 33
0.0
  0
SOLID
  5
F4A
100
AcDbEntity
  8
0
  6
BYBLOCK
 62
     0
100
AcDbTrace
 10
-1834.667977
 20
-1414.93296
 30
0.0
 11
-1835.224871
 21
-1414.313029
 31
0.0
 12
-1836.806216
 22
-1416.293675
 32
0.0
 13
-1836.806216
 23
-1416.293675
 33
0.0
  0
MTEXT
  5
F4B
100
AcDbEntity
  8
0
  6
BYBLOCK
 62
     0
100
AcDbMText
 10
-1812.721673
 20
-1404.187889
 30
0.0
 40
3.5
 41
0.0
 71
     5
 72
     1
  1
\A2;88°{\H2.800000;±0°5'}
  0
POINT
  5
F4C
100
AcDbEntity
  8
DEFPOINTS
  6
BYBLOCK
 62
     0
100
AcDbPoint
 10
-1821.500218
 20
-1407.692637
 30
0.0
  0
POINT
  5
F4D
100
AcDbEntity
  8
DEFPOINTS
  6
BYBLOCK
 62
     0
100
AcDbPoint
 10
-1807.163971
 20
-1435.47878
 30
0.0
  0
POINT
  5
F4E
100
AcDbEntity
  8
DEFPOINTS
  6
BYBLOCK
 62
     0
100
AcDbPoint
 10
-1818.279376
 20
-1435.47878
 30
0.0
  0
POINT
  5
F4F
100
AcDbEntity
  8
DEFPOINTS
  6
BYBLOCK
 62
     0
100
AcDbPoint
 10
-1813.297145
 20
-1440.638031
 30
0.0
  0
POINT
  5
F50
100
AcDbEntity
  8
DEFPOINTS
  6
BYBLOCK
 62
     0
100
AcDbPoint
 10
-1812.146201
 20
-1440.638031
 30
0.0
  0
ENDBLK
  5
F51
100
AcDbEntity
  8
0
100
AcDbBlockEnd
  0
BLOCK
  5
F8F
100
AcDbEntity
  8
0
100
AcDbBlockBegin
  2
*X33
 70
    65
 10
0.0
 20
0.0
 30
0.0
  3
*X33
  1

  0
LINE
  5
F91
100
AcDbEntity
  8
0
 62
     0
100
AcDbLine
 10
-1815.328836
 20
-1438.696894
 30
0.0
 11
-1815.248886
 21
-1438.616944
 31
0.0
  0
LINE
  5
F92
100
AcDbEntity
  8
0
 62
     0
100
AcDbLine
 10
-1815.550557
 20
-1438.649207
 30
0.0
 11
-1815.381239
 21
-1438.479889
 31
0.0
  0
LINE
  5
F93
100
AcDbEntity
  8
0
 62
     0
100
AcDbLine
 10
-1815.775213
 20
-1438.604456
 30
0.0
 11
-1815.513591
 21
-1438.342834
 31
0.0
  0
LINE
  5
F94
100
AcDbEntity
  8
0
 62
     0
100
AcDbLine
 10
-1816.003284
 20
-1438.563119
 30
0.0
 11
-1815.645944
 21
-1438.205779
 31
0.0
  0
LINE
  5
F95
100
AcDbEntity
  8
0
 62
     0
100
AcDbLine
 10
-1816.235304
 20
-1438.525731
 30
0.0
 11
-1815.778296
 21
-1438.068724
 31
0.0
  0
LINE
  5
F96
100
AcDbEntity
  8
0
 62
     0
100
AcDbLine
 10
-1816.471869
 20
-1438.492889
 30
0.0
 11
-1815.910649
 21
-1437.931669
 31
0.0
  0
LINE
  5
F97
100
AcDbEntity
  8
0
 62
     0
100
AcDbLine
 10
-1816.713656
 20
-1438.465268
 30
0.0
 11
-1816.043001
 21
-1437.794614
 31
0.0
  0
LINE
  5
F98
100
AcDbEntity
  8
0
 62
     0
100
AcDbLine
 10
-1816.960506
 20
-1438.44271
 30
0.0
 11
-1816.175354
 21
-1437.657558
 31
0.0
  0
LINE
  5
F99
100
AcDbEntity
  8
0
 62
     0
100
AcDbLine
 10
-1817.209486
 20
-1438.422283
 30
0.0
 11
-1816.307707
 21
-1437.520503
 31
0.0
  0
LINE
  5
F9A
100
AcDbEntity
  8
0
 62
     0
100
AcDbLine
 10
-1817.456996
 20
-1438.400385
 30
0.0
 11
-1816.440059
 21
-1437.383448
 31
0.0
  0
LINE
  5
F9B
100
AcDbEntity
  8
0
 62
     0
100
AcDbLine
 10
-1817.69958
 20
-1438.373562
 30
0.0
 11
-1816.572412
 21
-1437.246393
 31
0.0
  0
LINE
  5
F9C
100
AcDbEntity
  8
0
 62
     0
100
AcDbLine
 10
-1817.934279
 20
-1438.338853
 30
0.0
 11
-1816.704764
 21
-1437.109338
 31
0.0
  0
LINE
  5
F9D
100
AcDbEntity
  8
0
 62
     0
100
AcDbLine
 10
-1818.158836
 20
-1438.294003
 30
0.0
 11
-1816.837117
 21
-1436.972283
 31
0.0
  0
LINE
  5
F9E
100
AcDbEntity
  8
0
 62
     0
100
AcDbLine
 10
-1818.371763
 20
-1438.237521
 30
0.0
 11
-1816.969469
 21
-1436.835228
 31
0.0
  0
LINE
  5
F9F
100
AcDbEntity
  8
0
 62
     0
100
AcDbLine
 10
-1818.573543
 20
-1438.169894
 30
0.0
 11
-1817.101822
 21
-1436.698173
 31
0.0
  0
LINE
  5
FA0
100
AcDbEntity
  8
0
 62
     0
100
AcDbLine
 10
-1818.769169
 20
-1438.096112
 30
0.0
 11
-1817.234175
 21
-1436.561118
 31
0.0
  0
LINE
  5
FA1
100
AcDbEntity
  8
0
 62
     0
100
AcDbLine
 10
-1818.963728
 20
-1438.021264
 30
0.0
 11
-1817.366527
 21
-1436.424063
 31
0.0
  0
LINE
  5
FA2
100
AcDbEntity
  8
0
 62
     0
100
AcDbLine
 10
-1819.162117
 20
-1437.950245
 30
0.0
 11
-1817.49888
 21
-1436.287007
 31
0.0
  0
LINE
  5
FA3
100
AcDbEntity
  8
0
 62
     0
100
AcDbLine
 10
-1819.369985
 20
-1437.888705
 30
0.0
 11
-1817.631232
 21
-1436.149952
 31
0.0
  0
LINE
  5
FA4
100
AcDbEntity
  8
0
 62
     0
100
AcDbLine
 10
-1819.595033
 20
-1437.844345
 30
0.0
 11
-1817.763585
 21
-1436.012897
 31
0.0
  0
LINE
  5
FA5
100
AcDbEntity
  8
0
 62
     0
100
AcDbLine
 10
-1819.842384
 20
-1437.822289
 30
0.0
 11
-1817.895937
 21
-1435.875842
 31
0.0
  0
LINE
  5
FA6
100
AcDbEntity
  8
0
 62
     0
100
AcDbLine
 10
-1820.107283
 20
-1437.81778
 30
0.0
 11
-1818.02829
 21
-1435.738787
 31
0.0
  0
LINE
  5
FA7
100
AcDbEntity
  8
0
 62
     0
100
AcDbLine
 10
-1820.379923
 20
-1437.821012
 30
0.0
 11
-1818.160643
 21
-1435.601732
 31
0.0
  0
LINE
  5
FA8
100
AcDbEntity
  8
0
 62
     0
100
AcDbLine
 10
-1820.647903
 20
-1437.819585
 30
0.0
 11
-1818.293086
 21
-1435.464767
 31
0.0
  0
LINE
  5
FA9
100
AcDbEntity
  8
0
 62
     0
100
AcDbLine
 10
-1820.900008
 20
-1437.802282
 30
0.0
 11
-1818.435783
 21
-1435.338057
 31
0.0
  0
LINE
  5
FAA
100
AcDbEntity
  8
0
 62
     0
100
AcDbLine
 10
-1821.129255
 20
-1437.762122
 30
0.0
 11
-1818.596059
 21
-1435.228925
 31
0.0
  0
LINE
  5
FAB
100
AcDbEntity
  8
0
 62
     0
100
AcDbLine
 10
-1821.33658
 20
-1437.700038
 30
0.0
 11
-1818.775284
 21
-1435.138743
 31
0.0
  0
LINE
  5
FAC
100
AcDbEntity
  8
0
 62
     0
100
AcDbLine
 10
-1821.527558
 20
-1437.621609
 30
0.0
 11
-1818.976218
 21
-1435.070269
 31
0.0
  0
LINE
  5
FAD
100
AcDbEntity
  8
0
 62
     0
100
AcDbLine
 10
-1821.706223
 20
-1437.530866
 30
0.0
 11
-1819.204082
 21
-1435.028725
 31
0.0
  0
LINE
  5
FAE
100
AcDbEntity
  8
0
 62
     0
100
AcDbLine
 10
-1821.875475
 20
-1437.43071
 30
0.0
 11
-1819.465532
 21
-1435.020768
 31
0.0
  0
LINE
  5
FAF
100
AcDbEntity
  8
0
 62
     0
100
AcDbLine
 10
-1822.037515
 20
-1437.323343
 30
0.0
 11
-1819.73494
 21
-1435.020768
 31
0.0
  0
LINE
  5
FB0
100
AcDbEntity
  8
0
 62
     0
100
AcDbLine
 10
-1822.194095
 20
-1437.210515
 30
0.0
 11
-1820.004348
 21
-1435.020768
 31
0.0
  0
LINE
  5
FB1
100
AcDbEntity
  8
0
 62
     0
100
AcDbLine
 10
-1822.346669
 20
-1437.093682
 30
0.0
 11
-1820.273755
 21
-1435.020768
 31
0.0
  0
LINE
  5
FB2
100
AcDbEntity
  8
0
 62
     0
100
AcDbLine
 10
-1822.496497
 20
-1436.974102
 30
0.0
 11
-1820.543163
 21
-1435.020768
 31
0.0
  0
LINE
  5
FB3
100
AcDbEntity
  8
0
 62
     0
100
AcDbLine
 10
-1822.644715
 20
-1436.852912
 30
0.0
 11
-1820.812571
 21
-1435.020768
 31
0.0
  0
LINE
  5
FB4
100
AcDbEntity
  8
0
 62
     0
100
AcDbLine
 10
-1822.721673
 20
-1436.660463
 30
0.0
 11
-1821.081978
 21
-1435.020768
 31
0.0
  0
LINE
  5
FB5
100
AcDbEntity
  8
0
 62
     0
100
AcDbLine
 10
-1822.721673
 20
-1436.391055
 30
0.0
 11
-1821.351386
 21
-1435.020768
 31
0.0
  0
LINE
  5
FB6
100
AcDbEntity
  8
0
 62
     0
100
AcDbLine
 10
-1822.721673
 20
-1436.121647
 30
0.0
 11
-1821.620794
 21
-1435.020768
 31
0.0
  0
LINE
  5
FB7
100
AcDbEntity
  8
0
 62
     0
100
AcDbLine
 10
-1810.238016
 20
-1438.724821
 30
0.0
 11
-1806.640717
 21
-1435.127521
 31
0.0
  0
LINE
  5
FB8
100
AcDbEntity
  8
0
 62
     0
100
AcDbLine
 10
-1809.893049
 20
-1438.649261
 30
0.0
 11
-1806.276885
 21
-1435.033097
 31
0.0
  0
LINE
  5
FB9
100
AcDbEntity
  8
0
 62
     0
100
AcDbLine
 10
-1809.558408
 20
-1438.584028
 30
0.0
 11
-1805.995148
 21
-1435.020768
 31
0.0
  0
LINE
  5
FBA
100
AcDbEntity
  8
0
 62
     0
100
AcDbLine
 10
-1809.234755
 20
-1438.529783
 30
0.0
 11
-1805.72574
 21
-1435.020768
 31
0.0
  0
LINE
  5
FBB
100
AcDbEntity
  8
0
 62
     0
100
AcDbLine
 10
-1808.92234
 20
-1438.486775
 30
0.0
 11
-1805.456333
 21
-1435.020768
 31
0.0
  0
LINE
  5
FBC
100
AcDbEntity
  8
0
 62
     0
100
AcDbLine
 10
-1808.620956
 20
-1438.454799
 30
0.0
 11
-1805.186925
 21
-1435.020768
 31
0.0
  0
LINE
  5
FBD
100
AcDbEntity
  8
0
 62
     0
100
AcDbLine
 10
-1808.32662
 20
-1438.42987
 30
0.0
 11
-1804.917517
 21
-1435.020768
 31
0.0
  0
LINE
  5
FBE
100
AcDbEntity
  8
0
 62
     0
100
AcDbLine
 10
-1808.03207
 20
-1438.404728
 30
0.0
 11
-1804.64811
 21
-1435.020768
 31
0.0
  0
LINE
  5
FBF
100
AcDbEntity
  8
0
 62
     0
100
AcDbLine
 10
-1807.729696
 20
-1438.371762
 30
0.0
 11
-1804.378702
 21
-1435.020768
 31
0.0
  0
LINE
  5
FC0
100
AcDbEntity
  8
0
 62
     0
100
AcDbLine
 10
-1807.409023
 20
-1438.320496
 30
0.0
 11
-1804.109294
 21
-1435.020768
 31
0.0
  0
LINE
  5
FC1
100
AcDbEntity
  8
0
 62
     0
100
AcDbLine
 10
-1807.050028
 20
-1438.230909
 30
0.0
 11
-1803.839887
 21
-1435.020768
 31
0.0
  0
LINE
  5
FC2
100
AcDbEntity
  8
0
 62
     0
100
AcDbLine
 10
-1806.627907
 20
-1438.078196
 30
0.0
 11
-1803.646076
 21
-1435.096365
 31
0.0
  0
LINE
  5
FC3
100
AcDbEntity
  8
0
 62
     0
100
AcDbLine
 10
-1806.206571
 20
-1437.926268
 30
0.0
 11
-1803.511372
 21
-1435.231069
 31
0.0
  0
LINE
  5
FC4
100
AcDbEntity
  8
0
 62
     0
100
AcDbLine
 10
-1805.856382
 20
-1437.845486
 30
0.0
 11
-1803.376668
 21
-1435.365773
 31
0.0
  0
LINE
  5
FC5
100
AcDbEntity
  8
0
 62
     0
100
AcDbLine
 10
-1805.562174
 20
-1437.820686
 30
0.0
 11
-1803.241965
 21
-1435.500476
 31
0.0
  0
LINE
  5
FC6
100
AcDbEntity
  8
0
 62
     0
100
AcDbLine
 10
-1805.290189
 20
-1437.818108
 30
0.0
 11
-1803.107261
 21
-1435.63518
 31
0.0
  0
LINE
  5
FC7
100
AcDbEntity
  8
0
 62
     0
100
AcDbLine
 10
-1805.024063
 20
-1437.82139
 30
0.0
 11
-1802.972557
 21
-1435.769884
 31
0.0
  0
LINE
  5
FC8
100
AcDbEntity
  8
0
 62
     0
100
AcDbLine
 10
-1804.751287
 20
-1437.818022
 30
0.0
 11
-1802.837853
 21
-1435.904588
 31
0.0
  0
LINE
  5
FC9
100
AcDbEntity
  8
0
 62
     0
100
AcDbLine
 10
-1804.453855
 20
-1437.789998
 30
0.0
 11
-1802.721673
 21
-1436.057816
 31
0.0
  0
LINE
  5
FCA
100
AcDbEntity
  8
0
 62
     0
100
AcDbLine
 10
-1804.087473
 20
-1437.693023
 30
0.0
 11
-1802.721673
 21
-1436.327224
 31
0.0
  0
LINE
  5
FCB
100
AcDbEntity
  8
0
 62
     0
100
AcDbLine
 10
-1803.534518
 20
-1437.409476
 30
0.0
 11
-1802.721673
 21
-1436.596631
 31
0.0
  0
ENDBLK
  5
FCC
100
AcDbEntity
  8
0
100
AcDbBlockEnd
  0
BLOCK
  5
FEA
100
AcDbEntity
  8
0
100
AcDbBlockBegin
  2
*D34
 70
    65
 10
0.0
 20
0.0
 30
0.0
  3
*D34
  1

  0
LINE
  5
FEB
100
AcDbEntity
  8
0
  6
BYBLOCK
 62
     0
100
AcDbLine
 10
-1913.754285
 20
-1430.724299
 30
0.0
 11
-1907.346247
 21
-1427.907021
 31
0.0
  0
LINE
  5
FEC
100
AcDbEntity
  8
0
  6
BYBLOCK
 62
     0
100
AcDbLine
 10
-1905.057662
 20
-1426.900851
 30
0.0
 11
-1886.892707
 21
-1418.914672
 31
0.0
  0
SOLID
  5
FED
100
AcDbEntity
  8
0
  6
BYBLOCK
 62
     0
100
AcDbTrace
 10
-1913.92198
 20
-1430.342869
 30
0.0
 11
-1913.58659
 21
-1431.10573
 31
0.0
 12
-1916.04287
 22
-1431.73047
 32
0.0
 13
-1916.04287
 23
-1431.73047
 33
0.0
  0
SOLID
  5
FEE
100
AcDbEntity
  8
0
  6
BYBLOCK
 62
     0
100
AcDbTrace
 10
-1907.513942
 20
-1427.525591
 30
0.0
 11
-1907.178552
 21
-1428.288452
 31
0.0
 12
-1905.057662
 22
-1426.900851
 32
0.0
 13
-1905.057662
 23
-1426.900851
 33
0.0
  0
MTEXT
  5
FEF
100
AcDbEntity
  8
0
  6
BYBLOCK
 62
     0
100
AcDbMText
 10
-1895.786893
 20
-1420.230205
 30
0.0
 40
3.5
 41
0.0
 71
     5
 72
     1
  1
\A2;\U+220512{\H2.800000;±0.01}
 11
0.915434
 21
0.402468
 31
0.0
  0
POINT
  5
FF0
100
AcDbEntity
  8
DEFPOINTS
  6
BYBLOCK
 62
     0
100
AcDbPoint
 10
-1905.057662
 20
-1426.900851
 30
0.0
  0
POINT
  5
FF1
100
AcDbEntity
  8
DEFPOINTS
  6
BYBLOCK
 62
     0
100
AcDbPoint
 10
-1916.04287
 20
-1431.73047
 30
0.0
  0
ENDBLK
  5
FF2
100
AcDbEntity
  8
0
100
AcDbBlockEnd
  0
BLOCK
  5
100E
100
AcDbEntity
  8
0
100
AcDbBlockBegin
  2
*D35
 70
    65
 10
0.0
 20
0.0
 30
0.0
  3
*D35
  1

  0
LINE
  5
100F
100
AcDbEntity
  8
0
  6
BYBLOCK
 62
     0
100
AcDbLine
 10
-1911.175266
 20
-1423.31566
 30
0.0
 11
-1926.477057
 21
-1423.31566
 31
0.0
  0
LINE
  5
1010
100
AcDbEntity
  8
0
  6
BYBLOCK
 62
     0
100
AcDbLine
 10
-1920.175266
 20
-1431.739818
 30
0.0
 11
-1926.477057
 21
-1431.739818
 31
0.0
  0
LINE
  5
1011
100
AcDbEntity
  8
0
  6
BYBLOCK
 62
     0
100
AcDbLine
 10
-1925.227057
 20
-1425.81566
 30
0.0
 11
-1925.227057
 21
-1429.239818
 31
0.0
  0
LINE
  5
1012
100
AcDbEntity
  8
0
  6
BYBLOCK
 62
     0
100
AcDbLine
 10
-1925.227057
 20
-1431.739818
 30
0.0
 11
-1925.227057
 21
-1453.122818
 31
0.0
  0
SOLID
  5
1013
100
AcDbEntity
  8
0
  6
BYBLOCK
 62
     0
100
AcDbTrace
 10
-1925.643724
 20
-1425.81566
 30
0.0
 11
-1924.810391
 21
-1425.81566
 31
0.0
 12
-1925.227057
 22
-1423.31566
 32
0.0
 13
-1925.227057
 23
-1423.31566
 33
0.0
  0
SOLID
  5
1014
100
AcDbEntity
  8
0
  6
BYBLOCK
 62
     0
100
AcDbTrace
 10
-1925.643724
 20
-1429.239818
 30
0.0
 11
-1924.810391
 21
-1429.239818
 31
0.0
 12
-1925.227057
 22
-1431.739818
 32
0.0
 13
-1925.227057
 23
-1431.739818
 33
0.0
  0
MTEXT
  5
1015
100
AcDbEntity
  8
0
  6
BYBLOCK
 62
     0
100
AcDbMText
 10
-1927.602402
 20
-1443.681318
 30
0.0
 40
3.5
 41
0.0
 71
     5
 72
     1
  1
\A2;8.42{\H2.800000;±0.01}
 11
0.0
 21
1.0
 31
0.0
  0
POINT
  5
1016
100
AcDbEntity
  8
DEFPOINTS
  6
BYBLOCK
 62
     0
100
AcDbPoint
 10
-1910.550266
 20
-1423.31566
 30
0.0
  0
POINT
  5
1017
100
AcDbEntity
  8
DEFPOINTS
  6
BYBLOCK
 62
     0
100
AcDbPoint
 10
-1919.550266
 20
-1431.739818
 30
0.0
  0
POINT
  5
1018
100
AcDbEntity
  8
DEFPOINTS
  6
BYBLOCK
 62
     0
100
AcDbPoint
 10
-1925.227057
 20
-1431.739818
 30
0.0
  0
ENDBLK
  5
1019
100
AcDbEntity
  8
0
100
AcDbBlockEnd
  0
BLOCK
  5
105B
100
AcDbEntity
  8
0
100
AcDbBlockBegin
  2
*D36
 70
    65
 10
0.0
 20
0.0
 30
0.0
  3
*D36
  1

  0
LINE
  5
105C
100
AcDbEntity
  8
0
  6
BYBLOCK
 62
     0
100
AcDbLine
 10
-1575.863362
 20
-1442.416816
 30
0.0
 11
-1580.787627
 21
-1452.812049
 31
0.0
  0
SOLID
  5
105D
100
AcDbEntity
  8
0
  6
BYBLOCK
 62
     0
100
AcDbTrace
 10
-1576.239916
 20
-1442.23844
 30
0.0
 11
-1575.486807
 21
-1442.595191
 31
0.0
 12
-1574.793109
 22
-1440.157489
 32
0.0
 13
-1574.793109
 23
-1440.157489
 33
0.0
  0
MTEXT
  5
105E
100
AcDbEntity
  8
0
  6
BYBLOCK
 62
     0
100
AcDbMText
 10
-1580.853417
 20
-1447.403177
 30
0.0
 40
3.5
 41
0.0
 71
     5
 72
     1
  1
\A1;R0.8
 11
0.428101
 21
0.903731
 31
0.0
  0
POINT
  5
105F
100
AcDbEntity
  8
DEFPOINTS
  6
BYBLOCK
 62
     0
100
AcDbPoint
 10
-1574.793109
 20
-1440.157489
 30
0.0
  0
POINT
  5
1060
100
AcDbEntity
  8
DEFPOINTS
  6
BYBLOCK
 62
     0
100
AcDbPoint
 10
-1574.450628
 20
-1439.434504
 30
0.0
  0
ENDBLK
  5
1061
100
AcDbEntity
  8
0
100
AcDbBlockEnd
  0
BLOCK
  5
1097
100
AcDbEntity
  8
0
100
AcDbBlockBegin
  2
*D37
 70
    65
 10
0.0
 20
0.0
 30
0.0
  3
*D37
  1

  0
LINE
  5
1098
100
AcDbEntity
  8
0
  6
BYBLOCK
 62
     0
100
AcDbLine
 10
-1568.593357
 20
-1433.895768
 30
0.0
 11
-1568.593357
 21
-1412.49104
 31
0.0
  0
LINE
  5
1099
100
AcDbEntity
  8
0
  6
BYBLOCK
 62
     0
100
AcDbLine
 10
-1580.307899
 20
-1433.895768
 30
0.0
 11
-1580.307899
 21
-1412.49104
 31
0.0
  0
LINE
  5
109A
100
AcDbEntity
  8
0
  6
BYBLOCK
 62
     0
100
AcDbLine
 10
-1577.807899
 20
-1413.74104
 30
0.0
 11
-1571.093357
 21
-1413.74104
 31
0.0
  0
LINE
  5
109B
100
AcDbEntity
  8
0
  6
BYBLOCK
 62
     0
100
AcDbLine
 10
-1568.593357
 20
-1413.74104
 30
0.0
 11
-1531.811647
 21
-1413.74104
 31
0.0
  0
SOLID
  5
109C
100
AcDbEntity
  8
0
  6
BYBLOCK
 62
     0
100
AcDbTrace
 10
-1577.807899
 20
-1413.324374
 30
0.0
 11
-1577.807899
 21
-1414.157707
 31
0.0
 12
-1580.307899
 22
-1413.74104
 32
0.0
 13
-1580.307899
 23
-1413.74104
 33
0.0
  0
SOLID
  5
109D
100
AcDbEntity
  8
0
  6
BYBLOCK
 62
     0
100
AcDbTrace
 10
-1571.093357
 20
-1413.324374
 30
0.0
 11
-1571.093357
 21
-1414.157707
 31
0.0
 12
-1568.593357
 22
-1413.74104
 32
0.0
 13
-1568.593357
 23
-1413.74104
 33
0.0
  0
MTEXT
  5
109E
100
AcDbEntity
  8
0
  6
BYBLOCK
 62
     0
100
AcDbMText
 10
-1540.637147
 20
-1409.988271
 30
0.0
 40
3.5
 41
0.0
 71
     5
 72
     1
  1
\A2;11.71{\H2.800000;\S-0.1^  0;}
  0
POINT
  5
109F
100
AcDbEntity
  8
DEFPOINTS
  6
BYBLOCK
 62
     0
100
AcDbPoint
 10
-1568.593357
 20
-1434.520768
 30
0.0
  0
POINT
  5
10A0
100
AcDbEntity
  8
DEFPOINTS
  6
BYBLOCK
 62
     0
100
AcDbPoint
 10
-1580.307899
 20
-1434.520768
 30
0.0
  0
POINT
  5
10A1
100
AcDbEntity
  8
DEFPOINTS
  6
BYBLOCK
 62
     0
100
AcDbPoint
 10
-1580.307899
 20
-1413.74104
 30
0.0
  0
ENDBLK
  5
10A2
100
AcDbEntity
  8
0
100
AcDbBlockEnd
  0
BLOCK
  5
1071
100
AcDbEntity
  8
0
100
AcDbBlockBegin
  2
*D38
 70
    65
 10
0.0
 20
0.0
 30
0.0
  3
*D38
  1

  0
LINE
  5
1072
100
AcDbEntity
  8
0
  6
BYBLOCK
 62
     0
100
AcDbLine
 10
-1568.159196
 20
-1434.07118
 30
0.0
 11
-1549.138201
 21
-1414.374364
 31
0.0
  0
LINE
  5
1073
100
AcDbEntity
  8
0
  6
BYBLOCK
 62
     0
100
AcDbLine
 10
-1580.74206
 20
-1434.07118
 30
0.0
 11
-1599.763055
 21
-1414.374364
 31
0.0
  0
ARC
  5
1074
100
AcDbEntity
  8
0
  6
BYBLOCK
 62
     0
100
AcDbCircle
 10
-1574.450628
 20
-1440.586149
 30
0.0
 40
35.18867
100
AcDbArc
 50
50.071469
 51
129.928531
  0
SOLID
  5
1075
100
AcDbEntity
  8
0
  6
BYBLOCK
 62
     0
100
AcDbTrace
 10
-1551.586818
 20
-1413.292053
 30
0.0
 11
-1552.14404
 21
-1413.911688
 31
0.0
 12
-1550.006524
 22
-1415.273538
 32
0.0
 13
-1550.006524
 23
-1415.273538
 33
0.0
  0
SOLID
  5
1076
100
AcDbEntity
  8
0
  6
BYBLOCK
 62
     0
100
AcDbTrace
 10
-1596.757216
 20
-1413.911689
 30
0.0
 11
-1597.314438
 21
-1413.292054
 31
0.0
 12
-1598.894732
 22
-1415.273538
 32
0.0
 13
-1598.894732
 23
-1415.273538
 33
0.0
  0
MTEXT
  5
1077
100
AcDbEntity
  8
0
  6
BYBLOCK
 62
     0
100
AcDbMText
 10
-1574.450628
 20
-1403.022479
 30
0.0
 40
3.5
 41
0.0
 71
     5
 72
     1
  1
\A1;88°
  0
POINT
  5
1078
100
AcDbEntity
  8
DEFPOINTS
  6
BYBLOCK
 62
     0
100
AcDbPoint
 10
-1583.360229
 20
-1406.544094
 30
0.0
  0
POINT
  5
1079
100
AcDbEntity
  8
DEFPOINTS
  6
BYBLOCK
 62
     0
100
AcDbPoint
 10
-1568.593357
 20
-1434.520768
 30
0.0
  0
POINT
  5
107A
100
AcDbEntity
  8
DEFPOINTS
  6
BYBLOCK
 62
     0
100
AcDbPoint
 10
-1580.307899
 20
-1434.520768
 30
0.0
  0
POINT
  5
107B
100
AcDbEntity
  8
DEFPOINTS
  6
BYBLOCK
 62
     0
100
AcDbPoint
 10
-1575.0261
 20
-1439.990231
 30
0.0
  0
POINT
  5
107C
100
AcDbEntity
  8
DEFPOINTS
  6
BYBLOCK
 62
     0
100
AcDbPoint
 10
-1573.875156
 20
-1439.990231
 30
0.0
  0
ENDBLK
  5
107D
100
AcDbEntity
  8
0
100
AcDbBlockEnd
  0
BLOCK
  5
10C2
100
AcDbEntity
  8
0
100
AcDbBlockBegin
  2
*X39
 70
    65
 10
0.0
 20
0.0
 30
0.0
  3
*X39
  1

  0
LINE
  5
10C4
100
AcDbEntity
  8
0
 62
     0
100
AcDbLine
 10
-1576.515631
 20
-1438.578897
 30
0.0
 11
-1576.451215
 21
-1438.514481
 31
0.0
  0
LINE
  5
10C5
100
AcDbEntity
  8
0
 62
     0
100
AcDbLine
 10
-1576.769634
 20
-1438.563492
 30
0.0
 11
-1576.583567
 21
-1438.377426
 31
0.0
  0
LINE
  5
10C6
100
AcDbEntity
  8
0
 62
     0
100
AcDbLine
 10
-1577.023768
 20
-1438.548218
 30
0.0
 11
-1576.71592
 21
-1438.240371
 31
0.0
  0
LINE
  5
10C7
100
AcDbEntity
  8
0
 62
     0
100
AcDbLine
 10
-1577.278055
 20
-1438.533098
 30
0.0
 11
-1576.848272
 21
-1438.103315
 31
0.0
  0
LINE
  5
10C8
100
AcDbEntity
  8
0
 62
     0
100
AcDbLine
 10
-1577.532519
 20
-1438.518154
 30
0.0
 11
-1576.980625
 21
-1437.96626
 31
0.0
  0
LINE
  5
10C9
100
AcDbEntity
  8
0
 62
     0
100
AcDbLine
 10
-1577.787181
 20
-1438.503409
 30
0.0
 11
-1577.112978
 21
-1437.829205
 31
0.0
  0
LINE
  5
10CA
100
AcDbEntity
  8
0
 62
     0
100
AcDbLine
 10
-1578.042065
 20
-1438.488885
 30
0.0
 11
-1577.24533
 21
-1437.69215
 31
0.0
  0
LINE
  5
10CB
100
AcDbEntity
  8
0
 62
     0
100
AcDbLine
 10
-1578.297192
 20
-1438.474604
 30
0.0
 11
-1577.377683
 21
-1437.555095
 31
0.0
  0
LINE
  5
10CC
100
AcDbEntity
  8
0
 62
     0
100
AcDbLine
 10
-1578.552513
 20
-1438.460518
 30
0.0
 11
-1577.510035
 21
-1437.41804
 31
0.0
  0
LINE
  5
10CD
100
AcDbEntity
  8
0
 62
     0
100
AcDbLine
 10
-1578.806609
 20
-1438.445206
 30
0.0
 11
-1577.642388
 21
-1437.280985
 31
0.0
  0
LINE
  5
10CE
100
AcDbEntity
  8
0
 62
     0
100
AcDbLine
 10
-1579.056935
 20
-1438.426125
 30
0.0
 11
-1577.774741
 21
-1437.14393
 31
0.0
  0
LINE
  5
10CF
100
AcDbEntity
  8
0
 62
     0
100
AcDbLine
 10
-1579.301193
 20
-1438.400975
 30
0.0
 11
-1577.907093
 21
-1437.006875
 31
0.0
  0
LINE
  5
10D0
100
AcDbEntity
  8
0
 62
     0
100
AcDbLine
 10
-1579.537502
 20
-1438.367876
 30
0.0
 11
-1578.039446
 21
-1436.869819
 31
0.0
  0
LINE
  5
10D1
100
AcDbEntity
  8
0
 62
     0
100
AcDbLine
 10
-1579.764453
 20
-1438.325419
 30
0.0
 11
-1578.171798
 21
-1436.732764
 31
0.0
  0
LINE
  5
10D2
100
AcDbEntity
  8
0
 62
     0
100
AcDbLine
 10
-1579.981101
 20
-1438.272659
 30
0.0
 11
-1578.304151
 21
-1436.595709
 31
0.0
  0
LINE
  5
10D3
100
AcDbEntity
  8
0
 62
     0
100
AcDbLine
 10
-1580.187013
 20
-1438.209164
 30
0.0
 11
-1578.436503
 21
-1436.458654
 31
0.0
  0
LINE
  5
10D4
100
AcDbEntity
  8
0
 62
     0
100
AcDbLine
 10
-1580.384733
 20
-1438.137476
 30
0.0
 11
-1578.568856
 21
-1436.321599
 31
0.0
  0
LINE
  5
10D5
100
AcDbEntity
  8
0
 62
     0
100
AcDbLine
 10
-1580.579247
 20
-1438.062582
 30
0.0
 11
-1578.701209
 21
-1436.184544
 31
0.0
  0
LINE
  5
10D6
100
AcDbEntity
  8
0
 62
     0
100
AcDbLine
 10
-1580.775171
 20
-1437.989099
 30
0.0
 11
-1578.833561
 21
-1436.047489
 31
0.0
  0
LINE
  5
10D7
100
AcDbEntity
  8
0
 62
     0
100
AcDbLine
 10
-1580.977384
 20
-1437.921904
 30
0.0
 11
-1578.965914
 21
-1435.910434
 31
0.0
  0
LINE
  5
10D8
100
AcDbEntity
  8
0
 62
     0
100
AcDbLine
 10
-1581.191989
 20
-1437.867101
 30
0.0
 11
-1579.098266
 21
-1435.773379
 31
0.0
  0
LINE
  5
10D9
100
AcDbEntity
  8
0
 62
     0
100
AcDbLine
 10
-1581.426722
 20
-1437.832427
 30
0.0
 11
-1579.230619
 21
-1435.636324
 31
0.0
  0
LINE
  5
10DA
100
AcDbEntity
  8
0
 62
     0
100
AcDbLine
 10
-1581.682063
 20
-1437.81836
 30
0.0
 11
-1579.362971
 21
-1435.499268
 31
0.0
  0
LINE
  5
10DB
100
AcDbEntity
  8
0
 62
     0
100
AcDbLine
 10
-1581.951003
 20
-1437.817893
 30
0.0
 11
-1579.495324
 21
-1435.362213
 31
0.0
  0
LINE
  5
10DC
100
AcDbEntity
  8
0
 62
     0
100
AcDbLine
 10
-1582.222758
 20
-1437.82024
 30
0.0
 11
-1579.627677
 21
-1435.225158
 31
0.0
  0
LINE
  5
10DD
100
AcDbEntity
  8
0
 62
     0
100
AcDbLine
 10
-1582.485391
 20
-1437.813465
 30
0.0
 11
-1579.760029
 21
-1435.088103
 31
0.0
  0
LINE
  5
10DE
100
AcDbEntity
  8
0
 62
     0
100
AcDbLine
 10
-1582.729302
 20
-1437.787968
 30
0.0
 11
-1579.892382
 21
-1434.951048
 31
0.0
  0
LINE
  5
10DF
100
AcDbEntity
  8
0
 62
     0
100
AcDbLine
 10
-1582.949993
 20
-1437.739251
 30
0.0
 11
-1580.024734
 21
-1434.813993
 31
0.0
  0
LINE
  5
10E0
100
AcDbEntity
  8
0
 62
     0
100
AcDbLine
 10
-1583.151143
 20
-1437.670994
 30
0.0
 11
-1580.157087
 21
-1434.676938
 31
0.0
  0
LINE
  5
10E1
100
AcDbEntity
  8
0
 62
     0
100
AcDbLine
 10
-1583.337405
 20
-1437.587848
 30
0.0
 11
-1580.28944
 21
-1434.539883
 31
0.0
  0
LINE
  5
10E2
100
AcDbEntity
  8
0
 62
     0
100
AcDbLine
 10
-1583.51206
 20
-1437.493095
 30
0.0
 11
-1580.539732
 21
-1434.520768
 31
0.0
  0
LINE
  5
10E3
100
AcDbEntity
  8
0
 62
     0
100
AcDbLine
 10
-1583.677541
 20
-1437.389169
 30
0.0
 11
-1580.80914
 21
-1434.520768
 31
0.0
  0
LINE
  5
10E4
100
AcDbEntity
  8
0
 62
     0
100
AcDbLine
 10
-1583.835734
 20
-1437.277954
 30
0.0
 11
-1581.078548
 21
-1434.520768
 31
0.0
  0
LINE
  5
10E5
100
AcDbEntity
  8
0
 62
     0
100
AcDbLine
 10
-1583.988154
 20
-1437.160966
 30
0.0
 11
-1581.347955
 21
-1434.520768
 31
0.0
  0
LINE
  5
10E6
100
AcDbEntity
  8
0
 62
     0
100
AcDbLine
 10
-1584.136059
 20
-1437.039464
 30
0.0
 11
-1581.617363
 21
-1434.520768
 31
0.0
  0
LINE
  5
10E7
100
AcDbEntity
  8
0
 62
     0
100
AcDbLine
 10
-1584.280531
 20
-1436.914528
 30
0.0
 11
-1581.886771
 21
-1434.520768
 31
0.0
  0
LINE
  5
10E8
100
AcDbEntity
  8
0
 62
     0
100
AcDbLine
 10
-1584.422525
 20
-1436.787114
 30
0.0
 11
-1582.156178
 21
-1434.520768
 31
0.0
  0
LINE
  5
10E9
100
AcDbEntity
  8
0
 62
     0
100
AcDbLine
 10
-1584.562914
 20
-1436.658096
 30
0.0
 11
-1582.425586
 21
-1434.520768
 31
0.0
  0
LINE
  5
10EA
100
AcDbEntity
  8
0
 62
     0
100
AcDbLine
 10
-1584.700628
 20
-1436.526402
 30
0.0
 11
-1582.694994
 21
-1434.520768
 31
0.0
  0
LINE
  5
10EB
100
AcDbEntity
  8
0
 62
     0
100
AcDbLine
 10
-1584.700628
 20
-1436.256994
 30
0.0
 11
-1582.964401
 21
-1434.520768
 31
0.0
  0
LINE
  5
10EC
100
AcDbEntity
  8
0
 62
     0
100
AcDbLine
 10
-1584.700628
 20
-1435.987587
 30
0.0
 11
-1583.233809
 21
-1434.520768
 31
0.0
  0
LINE
  5
10ED
100
AcDbEntity
  8
0
 62
     0
100
AcDbLine
 10
-1584.700628
 20
-1435.718179
 30
0.0
 11
-1583.503217
 21
-1434.520768
 31
0.0
  0
LINE
  5
10EE
100
AcDbEntity
  8
0
 62
     0
100
AcDbLine
 10
-1584.700628
 20
-1435.448771
 30
0.0
 11
-1583.772624
 21
-1434.520768
 31
0.0
  0
LINE
  5
10EF
100
AcDbEntity
  8
0
 62
     0
100
AcDbLine
 10
-1572.398679
 20
-1438.50306
 30
0.0
 11
-1568.416386
 21
-1434.520768
 31
0.0
  0
LINE
  5
10F0
100
AcDbEntity
  8
0
 62
     0
100
AcDbLine
 10
-1572.128067
 20
-1438.501856
 30
0.0
 11
-1568.146979
 21
-1434.520768
 31
0.0
  0
LINE
  5
10F1
100
AcDbEntity
  8
0
 62
     0
100
AcDbLine
 10
-1571.856525
 20
-1438.499721
 30
0.0
 11
-1567.877571
 21
-1434.520768
 31
0.0
  0
LINE
  5
10F2
100
AcDbEntity
  8
0
 62
     0
100
AcDbLine
 10
-1571.583849
 20
-1438.496453
 30
0.0
 11
-1567.608163
 21
-1434.520768
 31
0.0
  0
LINE
  5
10F3
100
AcDbEntity
  8
0
 62
     0
100
AcDbLine
 10
-1571.309832
 20
-1438.491844
 30
0.0
 11
-1567.338756
 21
-1434.520768
 31
0.0
  0
LINE
  5
10F4
100
AcDbEntity
  8
0
 62
     0
100
AcDbLine
 10
-1571.034258
 20
-1438.485678
 30
0.0
 11
-1567.069348
 21
-1434.520768
 31
0.0
  0
LINE
  5
10F5
100
AcDbEntity
  8
0
 62
     0
100
AcDbLine
 10
-1570.756901
 20
-1438.477728
 30
0.0
 11
-1566.79994
 21
-1434.520768
 31
0.0
  0
LINE
  5
10F6
100
AcDbEntity
  8
0
 62
     0
100
AcDbLine
 10
-1570.477524
 20
-1438.467759
 30
0.0
 11
-1566.530533
 21
-1434.520768
 31
0.0
  0
LINE
  5
10F7
100
AcDbEntity
  8
0
 62
     0
100
AcDbLine
 10
-1570.19528
 20
-1438.454923
 30
0.0
 11
-1566.261125
 21
-1434.520768
 31
0.0
  0
LINE
  5
10F8
100
AcDbEntity
  8
0
 62
     0
100
AcDbLine
 10
-1569.906898
 20
-1438.435949
 30
0.0
 11
-1565.991717
 21
-1434.520768
 31
0.0
  0
LINE
  5
10F9
100
AcDbEntity
  8
0
 62
     0
100
AcDbLine
 10
-1569.607602
 20
-1438.40606
 30
0.0
 11
-1565.72231
 21
-1434.520768
 31
0.0
  0
LINE
  5
10FA
100
AcDbEntity
  8
0
 62
     0
100
AcDbLine
 10
-1569.290253
 20
-1438.358119
 30
0.0
 11
-1565.452902
 21
-1434.520768
 31
0.0
  0
LINE
  5
10FB
100
AcDbEntity
  8
0
 62
     0
100
AcDbLine
 10
-1568.94202
 20
-1438.279293
 30
0.0
 11
-1565.183494
 21
-1434.520768
 31
0.0
  0
LINE
  5
10FC
100
AcDbEntity
  8
0
 62
     0
100
AcDbLine
 10
-1568.537976
 20
-1438.144657
 30
0.0
 11
-1564.957357
 21
-1434.564038
 31
0.0
  0
LINE
  5
10FD
100
AcDbEntity
  8
0
 62
     0
100
AcDbLine
 10
-1568.103987
 20
-1437.980076
 30
0.0
 11
-1564.822653
 21
-1434.698742
 31
0.0
  0
LINE
  5
10FE
100
AcDbEntity
  8
0
 62
     0
100
AcDbLine
 10
-1567.7246
 20
-1437.870097
 30
0.0
 11
-1564.68795
 21
-1434.833446
 31
0.0
  0
LINE
  5
10FF
100
AcDbEntity
  8
0
 62
     0
100
AcDbLine
 10
-1567.413206
 20
-1437.82811
 30
0.0
 11
-1564.553246
 21
-1434.96815
 31
0.0
  0
LINE
  5
1100
100
AcDbEntity
  8
0
 62
     0
100
AcDbLine
 10
-1567.134622
 20
-1437.818933
 30
0.0
 11
-1564.418542
 21
-1435.102854
 31
0.0
  0
LINE
  5
1101
100
AcDbEntity
  8
0
 62
     0
100
AcDbLine
 10
-1566.867422
 20
-1437.821141
 30
0.0
 11
-1564.283838
 21
-1435.237558
 31
0.0
  0
LINE
  5
1102
100
AcDbEntity
  8
0
 62
     0
100
AcDbLine
 10
-1566.598872
 20
-1437.821999
 30
0.0
 11
-1564.200628
 21
-1435.423755
 31
0.0
  0
LINE
  5
1103
100
AcDbEntity
  8
0
 62
     0
100
AcDbLine
 10
-1566.314726
 20
-1437.807261
 30
0.0
 11
-1564.200628
 21
-1435.693163
 31
0.0
  0
LINE
  5
1104
100
AcDbEntity
  8
0
 62
     0
100
AcDbLine
 10
-1565.984382
 20
-1437.746325
 30
0.0
 11
-1564.200628
 21
-1435.96257
 31
0.0
  0
LINE
  5
1105
100
AcDbEntity
  8
0
 62
     0
100
AcDbLine
 10
-1565.518885
 20
-1437.550236
 30
0.0
 11
-1564.200628
 21
-1436.231978
 31
0.0
  0
ENDBLK
  5
1106
100
AcDbEntity
  8
0
100
AcDbBlockEnd
  0
BLOCK
  5
112D
100
AcDbEntity
  8
0
100
AcDbBlockBegin
  2
*D40
 70
    65
 10
0.0
 20
0.0
 30
0.0
  3
*D40
  1

  0
LINE
  5
112E
100
AcDbEntity
  8
0
  6
BYBLOCK
 62
     0
100
AcDbLine
 10
-1674.918329
 20
-1419.303099
 30
0.0
 11
-1668.265458
 21
-1417.126106
 31
0.0
  0
LINE
  5
112F
100
AcDbEntity
  8
0
  6
BYBLOCK
 62
     0
100
AcDbLine
 10
-1665.889432
 20
-1416.348608
 30
0.0
 11
-1648.812461
 21
-1410.760578
 31
0.0
  0
SOLID
  5
1130
100
AcDbEntity
  8
0
  6
BYBLOCK
 62
     0
100
AcDbTrace
 10
-1675.047912
 20
-1418.907095
 30
0.0
 11
-1674.788746
 21
-1419.699104
 31
0.0
 12
-1677.294355
 22
-1420.080597
 32
0.0
 13
-1677.294355
 23
-1420.080597
 33
0.0
  0
SOLID
  5
1131
100
AcDbEntity
  8
0
  6
BYBLOCK
 62
     0
100
AcDbTrace
 10
-1668.395041
 20
-1416.730102
 30
0.0
 11
-1668.135875
 21
-1417.52211
 31
0.0
 12
-1665.889432
 22
-1416.348608
 32
0.0
 13
-1665.889432
 23
-1416.348608
 33
0.0
  0
MTEXT
  5
1132
100
AcDbEntity
  8
0
  6
BYBLOCK
 62
     0
100
AcDbMText
 10
-1657.792673
 20
-1411.199854
 30
0.0
 40
3.5
 41
0.0
 71
     5
 72
     1
  1
\A2;\U+220512{\H2.800000;±0.01}
 11
0.95041
 21
0.310999
 31
0.0
  0
POINT
  5
1133
100
AcDbEntity
  8
DEFPOINTS
  6
BYBLOCK
 62
     0
100
AcDbPoint
 10
-1665.889432
 20
-1416.348608
 30
0.0
  0
POINT
  5
1134
100
AcDbEntity
  8
DEFPOINTS
  6
BYBLOCK
 62
     0
100
AcDbPoint
 10
-1677.294355
 20
-1420.080597
 30
0.0
  0
ENDBLK
  5
1135
100
AcDbEntity
  8
0
100
AcDbBlockEnd
  0
BLOCK
  5
1150
100
AcDbEntity
  8
0
100
AcDbBlockBegin
  2
*D41
 70
    65
 10
0.0
 20
0.0
 30
0.0
  3
*D41
  1

  0
LINE
  5
1151
100
AcDbEntity
  8
0
  6
BYBLOCK
 62
     0
100
AcDbLine
 10
-1672.216893
 20
-1412.214603
 30
0.0
 11
-1689.675906
 21
-1412.214603
 31
0.0
  0
LINE
  5
1152
100
AcDbEntity
  8
0
  6
BYBLOCK
 62
     0
100
AcDbLine
 10
-1681.666893
 20
-1420.78656
 30
0.0
 11
-1689.675906
 21
-1420.78656
 31
0.0
  0
LINE
  5
1153
100
AcDbEntity
  8
0
  6
BYBLOCK
 62
     0
100
AcDbLine
 10
-1688.425906
 20
-1414.714603
 30
0.0
 11
-1688.425906
 21
-1418.28656
 31
0.0
  0
LINE
  5
1154
100
AcDbEntity
  8
0
  6
BYBLOCK
 62
     0
100
AcDbLine
 10
-1688.425906
 20
-1420.78656
 30
0.0
 11
-1688.425906
 21
-1440.55256
 31
0.0
  0
SOLID
  5
1155
100
AcDbEntity
  8
0
  6
BYBLOCK
 62
     0
100
AcDbTrace
 10
-1688.842572
 20
-1414.714603
 30
0.0
 11
-1688.009239
 21
-1414.714603
 31
0.0
 12
-1688.425906
 22
-1412.214603
 32
0.0
 13
-1688.425906
 23
-1412.214603
 33
0.0
  0
SOLID
  5
1156
100
AcDbEntity
  8
0
  6
BYBLOCK
 62
     0
100
AcDbTrace
 10
-1688.842572
 20
-1418.28656
 30
0.0
 11
-1688.009239
 21
-1418.28656
 31
0.0
 12
-1688.425906
 22
-1420.78656
 32
0.0
 13
-1688.425906
 23
-1420.78656
 33
0.0
  0
MTEXT
  5
1157
100
AcDbEntity
  8
0
  6
BYBLOCK
 62
     0
100
AcDbMText
 10
-1692.178675
 20
-1431.91956
 30
0.0
 40
3.5
 41
0.0
 71
     5
 72
     1
  1
\A2;8.57{\H2.800000;\S+0.1^  0;}
 11
0.0
 21
1.0
 31
0.0
  0
POINT
  5
1158
100
AcDbEntity
  8
DEFPOINTS
  6
BYBLOCK
 62
     0
100
AcDbPoint
 10
-1671.591893
 20
-1412.214603
 30
0.0
  0
POINT
  5
1159
100
AcDbEntity
  8
DEFPOINTS
  6
BYBLOCK
 62
     0
100
AcDbPoint
 10
-1681.041893
 20
-1420.78656
 30
0.0
  0
POINT
  5
115A
100
AcDbEntity
  8
DEFPOINTS
  6
BYBLOCK
 62
     0
100
AcDbPoint
 10
-1688.425906
 20
-1420.78656
 30
0.0
  0
ENDBLK
  5
115B
100
AcDbEntity
  8
0
100
AcDbBlockEnd
  0
BLOCK
  5
11A1
100
AcDbEntity
  8
0
100
AcDbBlockBegin
  2
*D42
 70
    65
 10
0.0
 20
0.0
 30
0.0
  3
*D42
  1

  0
LINE
  5
11A2
100
AcDbEntity
  8
0
  6
BYBLOCK
 62
     0
100
AcDbLine
 10
-1803.096673
 20
-1450.020768
 30
0.0
 11
-1782.705975
 21
-1450.020768
 31
0.0
  0
LINE
  5
11A3
100
AcDbEntity
  8
0
  6
BYBLOCK
 62
     0
100
AcDbLine
 10
-1801.729077
 20
-1505.020768
 30
0.0
 11
-1782.705975
 21
-1505.020768
 31
0.0
  0
LINE
  5
11A4
100
AcDbEntity
  8
0
  6
BYBLOCK
 62
     0
100
AcDbLine
 10
-1783.955975
 20
-1452.520768
 30
0.0
 11
-1783.955975
 21
-1502.520768
 31
0.0
  0
SOLID
  5
11A5
100
AcDbEntity
  8
0
  6
BYBLOCK
 62
     0
100
AcDbTrace
 10
-1784.372642
 20
-1452.520768
 30
0.0
 11
-1783.539308
 21
-1452.520768
 31
0.0
 12
-1783.955975
 22
-1450.020768
 32
0.0
 13
-1783.955975
 23
-1450.020768
 33
0.0
  0
SOLID
  5
11A6
100
AcDbEntity
  8
0
  6
BYBLOCK
 62
     0
100
AcDbTrace
 10
-1784.372642
 20
-1502.520768
 30
0.0
 11
-1783.539308
 21
-1502.520768
 31
0.0
 12
-1783.955975
 22
-1505.020768
 32
0.0
 13
-1783.955975
 23
-1505.020768
 33
0.0
  0
MTEXT
  5
11A7
100
AcDbEntity
  8
0
  6
BYBLOCK
 62
     0
100
AcDbMText
 10
-1786.330975
 20
-1477.520768
 30
0.0
 40
3.5
 41
0.0
 71
     5
 72
     1
  1
\A2;55{\H2.800000;±0.01}
 11
0.0
 21
1.0
 31
0.0
  0
POINT
  5
11A8
100
AcDbEntity
  8
DEFPOINTS
  6
BYBLOCK
 62
     0
100
AcDbPoint
 10
-1803.721673
 20
-1450.020768
 30
0.0
  0
POINT
  5
11A9
100
AcDbEntity
  8
DEFPOINTS
  6
BYBLOCK
 62
     0
100
AcDbPoint
 10
-1802.354077
 20
-1505.020768
 30
0.0
  0
POINT
  5
11AA
100
AcDbEntity
  8
DEFPOINTS
  6
BYBLOCK
 62
     0
100
AcDbPoint
 10
-1783.955975
 20
-1505.020768
 30
0.0
  0
ENDBLK
  5
11AB
100
AcDbEntity
  8
0
100
AcDbBlockEnd
  0
BLOCK
  5
118B
100
AcDbEntity
  8
0
100
AcDbBlockBegin
  2
*D43
 70
    65
 10
0.0
 20
0.0
 30
0.0
  3
*D43
  1

  0
LINE
  5
118C
100
AcDbEntity
  8
0
  6
BYBLOCK
 62
     0
100
AcDbLine
 10
-1803.096673
 20
-1450.020768
 30
0.0
 11
-1772.319802
 21
-1450.020768
 31
0.0
  0
LINE
  5
118D
100
AcDbEntity
  8
0
  6
BYBLOCK
 62
     0
100
AcDbLine
 10
-1806.596673
 20
-1525.020768
 30
0.0
 11
-1772.319802
 21
-1525.020768
 31
0.0
  0
LINE
  5
118E
100
AcDbEntity
  8
0
  6
BYBLOCK
 62
     0
100
AcDbLine
 10
-1773.569802
 20
-1452.520768
 30
0.0
 11
-1773.569802
 21
-1522.520768
 31
0.0
  0
SOLID
  5
118F
100
AcDbEntity
  8
0
  6
BYBLOCK
 62
     0
100
AcDbTrace
 10
-1773.986468
 20
-1452.520768
 30
0.0
 11
-1773.153135
 21
-1452.520768
 31
0.0
 12
-1773.569802
 22
-1450.020768
 32
0.0
 13
-1773.569802
 23
-1450.020768
 33
0.0
  0
SOLID
  5
1190
100
AcDbEntity
  8
0
  6
BYBLOCK
 62
     0
100
AcDbTrace
 10
-1773.986468
 20
-1522.520768
 30
0.0
 11
-1773.153135
 21
-1522.520768
 31
0.0
 12
-1773.569802
 22
-1525.020768
 32
0.0
 13
-1773.569802
 23
-1525.020768
 33
0.0
  0
MTEXT
  5
1191
100
AcDbEntity
  8
0
  6
BYBLOCK
 62
     0
100
AcDbMText
 10
-1775.944802
 20
-1487.520768
 30
0.0
 40
3.5
 41
0.0
 71
     5
 72
     1
  1
\A2;75{\H2.800000;±0.01}
 11
0.0
 21
1.0
 31
0.0
  0
POINT
  5
1192
100
AcDbEntity
  8
DEFPOINTS
  6
BYBLOCK
 62
     0
100
AcDbPoint
 10
-1803.721673
 20
-1450.020768
 30
0.0
  0
POINT
  5
1193
100
AcDbEntity
  8
DEFPOINTS
  6
BYBLOCK
 62
     0
100
AcDbPoint
 10
-1807.221673
 20
-1525.020768
 30
0.0
  0
POINT
  5
1194
100
AcDbEntity
  8
DEFPOINTS
  6
BYBLOCK
 62
     0
100
AcDbPoint
 10
-1773.569802
 20
-1525.020768
 30
0.0
  0
ENDBLK
  5
1195
100
AcDbEntity
  8
0
100
AcDbBlockEnd
  0
BLOCK
  5
11EC
100
AcDbEntity
  8
0
100
AcDbBlockBegin
  2
*D44
 70
    65
 10
0.0
 20
0.0
 30
0.0
  3
*D44
  1

  0
LINE
  5
11ED
100
AcDbEntity
  8
0
  6
BYBLOCK
 62
     0
100
AcDbLine
 10
-1564.375628
 20
-1449.520768
 30
0.0
 11
-1541.029576
 21
-1449.520768
 31
0.0
  0
LINE
  5
11EE
100
AcDbEntity
  8
0
  6
BYBLOCK
 62
     0
100
AcDbLine
 10
-1562.625628
 20
-1505.320768
 30
0.0
 11
-1541.029576
 21
-1505.320768
 31
0.0
  0
LINE
  5
11EF
100
AcDbEntity
  8
0
  6
BYBLOCK
 62
     0
100
AcDbLine
 10
-1542.279576
 20
-1452.020768
 30
0.0
 11
-1542.279576
 21
-1502.820768
 31
0.0
  0
SOLID
  5
11F0
100
AcDbEntity
  8
0
  6
BYBLOCK
 62
     0
100
AcDbTrace
 10
-1542.696242
 20
-1452.020768
 30
0.0
 11
-1541.862909
 21
-1452.020768
 31
0.0
 12
-1542.279576
 22
-1449.520768
 32
0.0
 13
-1542.279576
 23
-1449.520768
 33
0.0
  0
SOLID
  5
11F1
100
AcDbEntity
  8
0
  6
BYBLOCK
 62
     0
100
AcDbTrace
 10
-1542.696242
 20
-1502.820768
 30
0.0
 11
-1541.862909
 21
-1502.820768
 31
0.0
 12
-1542.279576
 22
-1505.320768
 32
0.0
 13
-1542.279576
 23
-1505.320768
 33
0.0
  0
MTEXT
  5
11F2
100
AcDbEntity
  8
0
  6
BYBLOCK
 62
     0
100
AcDbMText
 10
-1546.032345
 20
-1477.420768
 30
0.0
 40
3.5
 41
0.0
 71
     5
 72
     1
  1
\A2;55.8{\H2.800000;\S+0.1^  0;}
 11
0.0
 21
1.0
 31
0.0
  0
POINT
  5
11F3
100
AcDbEntity
  8
DEFPOINTS
  6
BYBLOCK
 62
     0
100
AcDbPoint
 10
-1565.000628
 20
-1449.520768
 30
0.0
  0
POINT
  5
11F4
100
AcDbEntity
  8
DEFPOINTS
  6
BYBLOCK
 62
     0
100
AcDbPoint
 10
-1563.250628
 20
-1505.320768
 30
0.0
  0
POINT
  5
11F5
100
AcDbEntity
  8
DEFPOINTS
  6
BYBLOCK
 62
     0
100
AcDbPoint
 10
-1542.279576
 20
-1505.320768
 30
0.0
  0
ENDBLK
  5
11F6
100
AcDbEntity
  8
0
100
AcDbBlockEnd
  0
BLOCK
  5
11D6
100
AcDbEntity
  8
0
100
AcDbBlockBegin
  2
*D45
 70
    65
 10
0.0
 20
0.0
 30
0.0
  3
*D45
  1

  0
LINE
  5
11D7
100
AcDbEntity
  8
0
  6
BYBLOCK
 62
     0
100
AcDbLine
 10
-1564.375628
 20
-1449.520768
 30
0.0
 11
-1528.810548
 21
-1449.520768
 31
0.0
  0
LINE
  5
11D8
100
AcDbEntity
  8
0
  6
BYBLOCK
 62
     0
100
AcDbLine
 10
-1568.625628
 20
-1525.320768
 30
0.0
 11
-1528.810548
 21
-1525.320768
 31
0.0
  0
LINE
  5
11D9
100
AcDbEntity
  8
0
  6
BYBLOCK
 62
     0
100
AcDbLine
 10
-1530.060548
 20
-1452.020768
 30
0.0
 11
-1530.060548
 21
-1522.820768
 31
0.0
  0
SOLID
  5
11DA
100
AcDbEntity
  8
0
  6
BYBLOCK
 62
     0
100
AcDbTrace
 10
-1530.477215
 20
-1452.020768
 30
0.0
 11
-1529.643881
 21
-1452.020768
 31
0.0
 12
-1530.060548
 22
-1449.520768
 32
0.0
 13
-1530.060548
 23
-1449.520768
 33
0.0
  0
SOLID
  5
11DB
100
AcDbEntity
  8
0
  6
BYBLOCK
 62
     0
100
AcDbTrace
 10
-1530.477215
 20
-1522.820768
 30
0.0
 11
-1529.643881
 21
-1522.820768
 31
0.0
 12
-1530.060548
 22
-1525.320768
 32
0.0
 13
-1530.060548
 23
-1525.320768
 33
0.0
  0
MTEXT
  5
11DC
100
AcDbEntity
  8
0
  6
BYBLOCK
 62
     0
100
AcDbMText
 10
-1533.813317
 20
-1487.420768
 30
0.0
 40
3.5
 41
0.0
 71
     5
 72
     1
  1
\A2;75.8{\H2.800000;\S+0.1^  0;}
 11
0.0
 21
1.0
 31
0.0
  0
POINT
  5
11DD
100
AcDbEntity
  8
DEFPOINTS
  6
BYBLOCK
 62
     0
100
AcDbPoint
 10
-1565.000628
 20
-1449.520768
 30
0.0
  0
POINT
  5
11DE
100
AcDbEntity
  8
DEFPOINTS
  6
BYBLOCK
 62
     0
100
AcDbPoint
 10
-1569.250628
 20
-1525.320768
 30
0.0
  0
POINT
  5
11DF
100
AcDbEntity
  8
DEFPOINTS
  6
BYBLOCK
 62
     0
100
AcDbPoint
 10
-1530.060548
 20
-1525.320768
 30
0.0
  0
ENDBLK
  5
11E0
100
AcDbEntity
  8
0
100
AcDbBlockEnd
  0
BLOCK
  5
1201
100
AcDbEntity
  8
0
100
AcDbBlockBegin
  2
*D46
 70
    65
 10
0.0
 20
0.0
 30
0.0
  3
*D46
  1

  0
LINE
  5
1202
100
AcDbEntity
  8
0
  6
BYBLOCK
 62
     0
100
AcDbLine
 10
-1563.575628
 20
-1490.020768
 30
0.0
 11
-1553.411182
 21
-1490.020768
 31
0.0
  0
LINE
  5
1203
100
AcDbEntity
  8
0
  6
BYBLOCK
 62
     0
100
AcDbLine
 10
-1562.625628
 20
-1505.320768
 30
0.0
 11
-1553.411182
 21
-1505.320768
 31
0.0
  0
LINE
  5
1204
100
AcDbEntity
  8
0
  6
BYBLOCK
 62
     0
100
AcDbLine
 10
-1554.661182
 20
-1492.520768
 30
0.0
 11
-1554.661182
 21
-1502.820768
 31
0.0
  0
SOLID
  5
1205
100
AcDbEntity
  8
0
  6
BYBLOCK
 62
     0
100
AcDbTrace
 10
-1555.077849
 20
-1492.520768
 30
0.0
 11
-1554.244515
 21
-1492.520768
 31
0.0
 12
-1554.661182
 22
-1490.020768
 32
0.0
 13
-1554.661182
 23
-1490.020768
 33
0.0
  0
SOLID
  5
1206
100
AcDbEntity
  8
0
  6
BYBLOCK
 62
     0
100
AcDbTrace
 10
-1555.077849
 20
-1502.820768
 30
0.0
 11
-1554.244515
 21
-1502.820768
 31
0.0
 12
-1554.661182
 22
-1505.320768
 32
0.0
 13
-1554.661182
 23
-1505.320768
 33
0.0
  0
MTEXT
  5
1207
100
AcDbEntity
  8
0
  6
BYBLOCK
 62
     0
100
AcDbMText
 10
-1557.036182
 20
-1497.670768
 30
0.0
 40
3.5
 41
0.0
 71
     5
 72
     1
  1
\A1;15.3
 11
0.0
 21
1.0
 31
0.0
  0
POINT
  5
1208
100
AcDbEntity
  8
DEFPOINTS
  6
BYBLOCK
 62
     0
100
AcDbPoint
 10
-1564.200628
 20
-1490.020768
 30
0.0
  0
POINT
  5
1209
100
AcDbEntity
  8
DEFPOINTS
  6
BYBLOCK
 62
     0
100
AcDbPoint
 10
-1563.250628
 20
-1505.320768
 30
0.0
  0
POINT
  5
120A
100
AcDbEntity
  8
DEFPOINTS
  6
BYBLOCK
 62
     0
100
AcDbPoint
 10
-1554.661182
 20
-1505.320768
 30
0.0
  0
ENDBLK
  5
120B
100
AcDbEntity
  8
0
100
AcDbBlockEnd
  0
BLOCK
  5
120E
100
AcDbEntity
  8
0
100
AcDbBlockBegin
  2
*D47
 70
    65
 10
0.0
 20
0.0
 30
0.0
  3
*D47
  1

  0
LINE
  5
120F
100
AcDbEntity
  8
0
  6
BYBLOCK
 62
     0
100
AcDbLine
 10
-1800.596673
 20
-1490.020768
 30
0.0
 11
-1791.58353
 21
-1490.020768
 31
0.0
  0
LINE
  5
1210
100
AcDbEntity
  8
0
  6
BYBLOCK
 62
     0
100
AcDbLine
 10
-1800.596673
 20
-1505.020768
 30
0.0
 11
-1791.58353
 21
-1505.020768
 31
0.0
  0
LINE
  5
1211
100
AcDbEntity
  8
0
  6
BYBLOCK
 62
     0
100
AcDbLine
 10
-1792.83353
 20
-1492.520768
 30
0.0
 11
-1792.83353
 21
-1502.520768
 31
0.0
  0
SOLID
  5
1212
100
AcDbEntity
  8
0
  6
BYBLOCK
 62
     0
100
AcDbTrace
 10
-1793.250197
 20
-1492.520768
 30
0.0
 11
-1792.416864
 21
-1492.520768
 31
0.0
 12
-1792.83353
 22
-1490.020768
 32
0.0
 13
-1792.83353
 23
-1490.020768
 33
0.0
  0
SOLID
  5
1213
100
AcDbEntity
  8
0
  6
BYBLOCK
 62
     0
100
AcDbTrace
 10
-1793.250197
 20
-1502.520768
 30
0.0
 11
-1792.416864
 21
-1502.520768
 31
0.0
 12
-1792.83353
 22
-1505.020768
 32
0.0
 13
-1792.83353
 23
-1505.020768
 33
0.0
  0
MTEXT
  5
1214
100
AcDbEntity
  8
0
  6
BYBLOCK
 62
     0
100
AcDbMText
 10
-1795.20853
 20
-1497.520768
 30
0.0
 40
3.5
 41
0.0
 71
     5
 72
     1
  1
\A1;15
 11
0.0
 21
1.0
 31
0.0
  0
POINT
  5
1215
100
AcDbEntity
  8
DEFPOINTS
  6
BYBLOCK
 62
     0
100
AcDbPoint
 10
-1801.221673
 20
-1490.020768
 30
0.0
  0
POINT
  5
1216
100
AcDbEntity
  8
DEFPOINTS
  6
BYBLOCK
 62
     0
100
AcDbPoint
 10
-1801.221673
 20
-1505.020768
 30
0.0
  0
POINT
  5
1217
100
AcDbEntity
  8
DEFPOINTS
  6
BYBLOCK
 62
     0
100
AcDbPoint
 10
-1792.83353
 20
-1505.020768
 30
0.0
  0
ENDBLK
  5
1218
100
AcDbEntity
  8
0
100
AcDbBlockEnd
  0
BLOCK
  5
1227
100
AcDbEntity
  8
QUOTE
100
AcDbBlockBegin
  2
A$C170
 70
     0
 10
0.0
 20
0.0
 30
0.0
  3
A$C170
  1

  0
TEXT
  5
1226
100
AcDbEntity
  8
MARCATURA
100
AcDbText
 10
-0.234398
 20
0.048995
 30
0.0
 40
3.0
  1
MAX 100 T/m
 41
1.1
  7
STYLE3
100
AcDbText
  0
ENDBLK
  5
1228
100
AcDbEntity
  8
QUOTE
100
AcDbBlockEnd
  0
ENDSEC
  0
SECTION
  2
ENTITIES
  0
LINE
  5
674
100
AcDbEntity
  8
DISEGNO
100
AcDbLine
 10
-1801.221673
 20
-1490.020768
 30
0.0
 11
-1800.221673
 21
-1491.020768
 31
0.0
1001
ACAD
1000
ASC_BOUNDS
1002
{
1070
    19
1002
}
  0
LINE
  5
675
100
AcDbEntity
  8
DISEGNO
100
AcDbLine
 10
-1825.221673
 20
-1491.020768
 30
0.0
 11
-1824.221673
 21
-1490.020768
 31
0.0
  0
LINE
  5
677
100
AcDbEntity
  8
DISEGNO
100
AcDbLine
 10
-1806.084961
 20
-1450.020768
 30
0.0
 11
-1803.721673
 21
-1450.020768
 31
0.0
1001
ACAD
1000
ASC_BOUNDS
1002
{
1070
    19
1005
0
1002
}
  0
LINE
  5
678
100
AcDbEntity
  8
DISEGNO
100
AcDbLine
 10
-1818.279376
 20
-1450.47878
 30
0.0
 11
-1813.297145
 21
-1455.638031
 31
0.0
1001
ACAD
1000
ASC_BOUNDS
1002
{
1070
    19
1005
0
1002
}
  0
LINE
  5
679
100
AcDbEntity
  8
DISEGNO
100
AcDbLine
 10
-1807.163971
 20
-1450.47878
 30
0.0
 11
-1812.146201
 21
-1455.638031
 31
0.0
1001
ACAD
1000
ASC_BOUNDS
1002
{
1070
    19
1005
0
1002
}
  0
LINE
  5
67A
100
AcDbEntity
  8
DISEGNO
100
AcDbLine
 10
-1821.721673
 20
-1450.020768
 30
0.0
 11
-1819.358386
 21
-1450.020768
 31
0.0
1001
ACAD
1000
ASC_BOUNDS
1002
{
1070
    19
1005
0
1002
}
  0
LINE
  5
67B
100
AcDbEntity
  8
DISEGNO
100
AcDbLine
 10
-1822.721673
 20
-1490.020768
 30
0.0
 11
-1824.221673
 21
-1490.020768
 31
0.0
  0
LINE
  5
67C
100
AcDbEntity
  8
DISEGNO
100
AcDbLine
 10
-1825.221673
 20
-1491.020768
 30
0.0
 11
-1825.221673
 21
-1495.520768
 31
0.0
1001
ACAD
1000
ASC_BOUNDS
1002
{
1070
    19
1002
}
  0
LINE
  5
67E
100
AcDbEntity
  8
DISEGNO
100
AcDbLine
 10
-1801.221673
 20
-1490.020768
 30
0.0
 11
-1802.721673
 21
-1490.020768
 31
0.0
  0
LINE
  5
67F
100
AcDbEntity
  8
DISEGNO
100
AcDbLine
 10
-1803.721673
 20
-1450.020768
 30
0.0
 11
-1802.721673
 21
-1451.020768
 31
0.0
1001
ACAD
1000
ASC_BOUNDS
1002
{
1070
    19
1005
0
1002
}
  0
LINE
  5
680
100
AcDbEntity
  8
DISEGNO
100
AcDbLine
 10
-1822.721673
 20
-1451.020768
 30
0.0
 11
-1821.721673
 21
-1450.020768
 31
0.0
1001
ACAD
1000
ASC_BOUNDS
1002
{
1070
    19
1005
0
1002
}
  0
LINE
  5
681
100
AcDbEntity
  8
DISEGNO
100
AcDbLine
 10
-1825.221673
 20
-1504.020768
 30
0.0
 11
-1824.221673
 21
-1505.020768
 31
0.0
  0
LINE
  5
682
100
AcDbEntity
  8
DISEGNO
100
AcDbLine
 10
-1801.221673
 20
-1505.020768
 30
0.0
 11
-1800.221673
 21
-1504.020768
 31
0.0
  0
LINE
  5
683
100
AcDbEntity
  8
DISEGNO
100
AcDbLine
 10
-1807.221673
 20
-1525.020768
 30
0.0
 11
-1806.221673
 21
-1524.020768
 31
0.0
  0
LINE
  5
684
100
AcDbEntity
  8
DISEGNO
100
AcDbLine
 10
-1819.221673
 20
-1524.020768
 30
0.0
 11
-1818.221673
 21
-1525.020768
 31
0.0
  0
LINE
  5
686
100
AcDbEntity
  8
DISEGNO
100
AcDbLine
 10
-1825.221673
 20
-1498.520768
 30
0.0
 11
-1825.221673
 21
-1504.020768
 31
0.0
  0
LINE
  5
687
100
AcDbEntity
  8
DISEGNO
100
AcDbLine
 10
-1825.221673
 20
-1498.520768
 30
0.0
 11
-1823.721673
 21
-1497.020768
 31
0.0
  0
LINE
  5
688
100
AcDbEntity
  8
DISEGNO
100
AcDbLine
 10
-1825.221673
 20
-1495.520768
 30
0.0
 11
-1823.721673
 21
-1497.020768
 31
0.0
  0
LINE
  5
68A
100
AcDbEntity
  8
DISEGNO
100
AcDbLine
 10
-1807.282333
 20
-1505.374321
 30
0.0
 11
-1805.86812
 21
-1503.960107
 31
0.0
  0
LINE
  5
68B
100
AcDbEntity
  8
DISEGNO
100
AcDbLine
 10
-1804.80746
 20
-1505.020768
 30
0.0
 11
-1805.86812
 21
-1503.960107
 31
0.0
  0
LINE
  5
68C
100
AcDbEntity
  8
DISEGNO
100
AcDbLine
 10
-1806.221673
 20
-1506.434981
 30
0.0
 11
-1807.282333
 21
-1505.374321
 31
0.0
  0
LINE
  5
68D
100
AcDbEntity
  8
DISEGNO
100
AcDbLine
 10
-1818.161013
 20
-1505.374321
 30
0.0
 11
-1819.575227
 21
-1503.960107
 31
0.0
  0
LINE
  5
68E
100
AcDbEntity
  8
DISEGNO
100
AcDbLine
 10
-1819.221673
 20
-1506.434981
 30
0.0
 11
-1818.161013
 21
-1505.374321
 31
0.0
  0
LINE
  5
68F
100
AcDbEntity
  8
DISEGNO
100
AcDbLine
 10
-1820.635887
 20
-1505.020768
 30
0.0
 11
-1819.575227
 21
-1503.960107
 31
0.0
  0
LINE
  5
691
100
AcDbEntity
  8
DISEGNO
100
AcDbLine
 10
-1819.221673
 20
-1506.434981
 30
0.0
 11
-1819.221673
 21
-1524.020768
 31
0.0
  0
LINE
  5
692
100
AcDbEntity
  8
DISEGNO
100
AcDbLine
 10
-1824.221673
 20
-1505.020768
 30
0.0
 11
-1820.635887
 21
-1505.020768
 31
0.0
  0
LINE
  5
694
100
AcDbEntity
  8
DISEGNO
100
AcDbLine
 10
-1800.221673
 20
-1504.020768
 30
0.0
 11
-1800.221673
 21
-1491.020768
 31
0.0
1001
ACAD
1000
ASC_BOUNDS
1002
{
1070
    19
1002
}
  0
LINE
  5
695
100
AcDbEntity
  8
DISEGNO
100
AcDbLine
 10
-1804.80746
 20
-1505.020768
 30
0.0
 11
-1801.221673
 21
-1505.020768
 31
0.0
  0
LINE
  5
696
100
AcDbEntity
  8
DISEGNO
100
AcDbLine
 10
-1806.221673
 20
-1524.020768
 30
0.0
 11
-1806.221673
 21
-1506.434981
 31
0.0
  0
LINE
  5
697
100
AcDbEntity
  8
DISEGNO
100
AcDbLine
 10
-1818.221673
 20
-1525.020768
 30
0.0
 11
-1807.221673
 21
-1525.020768
 31
0.0
  0
ARC
  5
EF0
100
AcDbEntity
  8
DISEGNO
100
AcDbCircle
 10
-1812.721673
 20
-1455.082304
 30
0.0
 40
0.8
100
AcDbArc
 50
224.0
 51
316.0
1001
ACAD
1000
ASC_BOUNDS
1002
{
1070
    19
1005
0
1002
}
  0
ARC
  5
F1D
100
AcDbEntity
  8
DISEGNO
100
AcDbCircle
 10
-1819.358386
 20
-1451.520768
 30
0.0
 40
1.5
100
AcDbArc
 50
44.0
 51
90.0
1001
ACAD
1000
ASC_BOUNDS
1002
{
1070
    19
1005
0
1002
}
  0
ARC
  5
F1E
100
AcDbEntity
  8
DISEGNO
100
AcDbCircle
 10
-1806.084961
 20
-1451.520768
 30
0.0
 40
1.5
100
AcDbArc
 50
90.0
 51
136.0
1001
ACAD
1000
ASC_BOUNDS
1002
{
1070
    19
1005
0
1002
}
  0
LINE
  5
1164
100
AcDbEntity
  8
DISEGNO
100
AcDbLine
 10
-1802.721673
 20
-1451.020768
 30
0.0
 11
-1802.721673
 21
-1490.020768
 31
0.0
  0
LINE
  5
1165
100
AcDbEntity
  8
DISEGNO
100
AcDbLine
 10
-1822.721673
 20
-1451.020768
 30
0.0
 11
-1822.721673
 21
-1490.020768
 31
0.0
  0
ENDSEC
  0
SECTION
  2
OBJECTS
  0
DICTIONARY
  5
C
100
AcDbDictionary
  3
ACAD_GROUP
350
D
  3
ACAD_MLINESTYLE
350
E
  0
DICTIONARY
  5
D
102
{ACAD_REACTORS
330
C
102
}
100
AcDbDictionary
  0
DICTIONARY
  5
E
102
{ACAD_REACTORS
330
C
102
}
100
AcDbDictionary
  3
STANDARD
350
1C
  0
MLINESTYLE
  5
1C
102
{ACAD_REACTORS
330
E
102
}
100
AcDbMlineStyle
  2
STANDARD
 70
     0
  3

 62
     0
 51
90.0
 52
90.0
 71
     2
 49
0.5
 62
   256
  6
BYLAYER
 49
-0.5
 62
   256
  6
BYLAYER
  0
ENDSEC
  0
EOF
