  0
SECTION
  2
HEADER
  9
$ACADVER
  1
AC1012
  9
$DWGCODEPAGE
  3
iso8859-1
  9
$INSBASE
 10
0.0
 20
0.0
 30
0.0
  9
$EXTMIN
 10
30.562296
 20
54.189923
 30
0.0
  9
$EXTMAX
 10
187.952011
 20
268.438344
 30
0.0
  9
$LIMMIN
 10
0.0
 20
0.0
  9
$LIMMAX
 10
210.0
 20
297.0
  9
$ORTHOMODE
 70
     0
  9
$REGENMODE
 70
     1
  9
$FILLMODE
 70
     1
  9
$QTEXTMODE
 70
     0
  9
$MIRRTEXT
 70
     1
  9
$DRAGMODE
 70
     2
  9
$LTSCALE
 40
1.0
  9
$OSMODE
 70
     0
  9
$ATTMODE
 70
     1
  9
$TEXTSIZE
 40
3.0
  9
$TRACEWID
 40
1.0
  9
$TEXTSTYLE
  7
STANDARD
  9
$CLAYER
  8
SEZIONE
  9
$CELTYPE
  6
CONTINUOUS
  9
$CECOLOR
 62
   256
  9
$CELTSCALE
 40
1.0
  9
$DELOBJ
 70
     1
  9
$DISPSILH
 70
     0
  9
$DIMSCALE
 40
0.0
  9
$DIMASZ
 40
2.6
  9
$DIMEXO
 40
0.63
  9
$DIMDLI
 40
3.75
  9
$DIMRND
 40
0.0
  9
$DIMDLE
 40
0.0
  9
$DIMEXE
 40
1.25
  9
$DIMTP
 40
0.02
  9
$DIMTM
 40
0.0
  9
$DIMTXT
 40
2.6
  9
$DIMCEN
 40
2.1
  9
$DIMTSZ
 40
0.0
  9
$DIMTOL
 70
     1
  9
$DIMLIM
 70
     0
  9
$DIMTIH
 70
     0
  9
$DIMTOH
 70
     0
  9
$DIMSE1
 70
     0
  9
$DIMSE2
 70
     0
  9
$DIMTAD
 70
     1
  9
$DIMZIN
 70
     8
  9
$DIMBLK
  1

  9
$DIMASO
 70
     1
  9
$DIMSHO
 70
     1
  9
$DIMPOST
  1

  9
$DIMAPOST
  1

  9
$DIMALT
 70
     0
  9
$DIMALTD
 70
     2
  9
$DIMALTF
 40
0.0394
  9
$DIMLFAC
 40
1.0
  9
$DIMTOFL
 70
     1
  9
$DIMTVP
 40
1.0
  9
$DIMTIX
 70
     0
  9
$DIMSOXD
 70
     0
  9
$DIMSAH
 70
     0
  9
$DIMBLK1
  1

  9
$DIMBLK2
  1

  9
$DIMSTYLE
  2
ISO-25
  9
$DIMCLRD
 70
     0
  9
$DIMCLRE
 70
     0
  9
$DIMCLRT
 70
     0
  9
$DIMTFAC
 40
1.0
  9
$DIMGAP
 40
0.63
  9
$DIMJUST
 70
     0
  9
$DIMSD1
 70
     0
  9
$DIMSD2
 70
     0
  9
$DIMTOLJ
 70
     1
  9
$DIMTZIN
 70
     0
  9
$DIMALTZ
 70
     0
  9
$DIMALTTZ
 70
     0
  9
$DIMFIT
 70
     3
  9
$DIMUPT
 70
     0
  9
$DIMUNIT
 70
     2
  9
$DIMDEC
 70
     2
  9
$DIMTDEC
 70
     2
  9
$DIMALTU
 70
     2
  9
$DIMALTTD
 70
     2
  9
$DIMTXSTY
  7
STANDARD
  9
$DIMAUNIT
 70
     0
  9
$LUNITS
 70
     2
  9
$LUPREC
 70
     2
  9
$SKETCHINC
 40
1.0
  9
$FILLETRAD
 40
0.5
  9
$AUNITS
 70
     0
  9
$AUPREC
 70
     0
  9
$MENU
  1
.
  9
$ELEVATION
 40
0.0
  9
$PELEVATION
 40
0.0
  9
$THICKNESS
 40
0.0
  9
$LIMCHECK
 70
     0
  9
$BLIPMODE
 70
     1
  9
$CHAMFERA
 40
0.5
  9
$CHAMFERB
 40
0.5
  9
$CHAMFERC
 40
20.0
  9
$CHAMFERD
 40
0.0
  9
$SKPOLY
 70
     0
  9
$TDCREATE
 40
2450892.577570139
  9
$TDUPDATE
 40
2451029.576633101
  9
$TDINDWG
 40
0.3451334491
  9
$TDUSRTIMER
 40
0.3451334491
  9
$USRTIMER
 70
     1
  9
$ANGBASE
 50
0.0
  9
$ANGDIR
 70
     0
  9
$PDMODE
 70
     0
  9
$PDSIZE
 40
0.0
  9
$PLINEWID
 40
0.0
  9
$COORDS
 70
     0
  9
$SPLFRAME
 70
     0
  9
$SPLINETYPE
 70
     6
  9
$SPLINESEGS
 70
     8
  9
$ATTDIA
 70
     0
  9
$ATTREQ
 70
     1
  9
$HANDLING
 70
     1
  9
$HANDSEED
  5
7C8
  9
$SURFTAB1
 70
     6
  9
$SURFTAB2
 70
     6
  9
$SURFTYPE
 70
     6
  9
$SURFU
 70
     6
  9
$SURFV
 70
     6
  9
$UCSNAME
  2

  9
$UCSORG
 10
0.0
 20
0.0
 30
0.0
  9
$UCSXDIR
 10
1.0
 20
0.0
 30
0.0
  9
$UCSYDIR
 10
0.0
 20
1.0
 30
0.0
  9
$PUCSNAME
  2

  9
$PUCSORG
 10
0.0
 20
0.0
 30
0.0
  9
$PUCSXDIR
 10
1.0
 20
0.0
 30
0.0
  9
$PUCSYDIR
 10
0.0
 20
1.0
 30
0.0
  9
$USERI1
 70
     0
  9
$USERI2
 70
     0
  9
$USERI3
 70
     0
  9
$USERI4
 70
     0
  9
$USERI5
 70
     0
  9
$USERR1
 40
0.0
  9
$USERR2
 40
0.0
  9
$USERR3
 40
0.0
  9
$USERR4
 40
0.0
  9
$USERR5
 40
0.0
  9
$WORLDVIEW
 70
     1
  9
$SHADEDGE
 70
     3
  9
$SHADEDIF
 70
    70
  9
$TILEMODE
 70
     1
  9
$MAXACTVP
 70
    16
  9
$PINSBASE
 10
0.0
 20
0.0
 30
0.0
  9
$PLIMCHECK
 70
     0
  9
$PEXTMIN
 10
1.000000E+20
 20
1.000000E+20
 30
1.000000E+20
  9
$PEXTMAX
 10
-1.000000E+20
 20
-1.000000E+20
 30
-1.000000E+20
  9
$PLIMMIN
 10
0.0
 20
0.0
  9
$PLIMMAX
 10
210.0
 20
297.0
  9
$UNITMODE
 70
     0
  9
$VISRETAIN
 70
     0
  9
$PLINEGEN
 70
     0
  9
$PSLTSCALE
 70
     1
  9
$TREEDEPTH
 70
  3020
  9
$PICKSTYLE
 70
     1
  9
$CMLSTYLE
  2
STANDARD
  9
$CMLJUST
 70
     0
  9
$CMLSCALE
 40
1.0
  9
$SAVEIMAGES
 70
     0
  0
ENDSEC
  0
SECTION
  2
CLASSES
  0
ENDSEC
  0
SECTION
  2
TABLES
  0
TABLE
  2
VPORT
  5
8
100
AcDbSymbolTable
 70
     2
  0
VPORT
  5
7C7
100
AcDbSymbolTableRecord
100
AcDbViewportTableRecord
  2
*ACTIVE
 70
     0
 10
0.0
 20
0.0
 11
1.0
 21
1.0
 12
118.187716
 22
164.189652
 13
0.0
 23
0.0
 14
5.0
 24
5.0
 15
5.0
 25
5.0
 16
0.0
 26
0.0
 36
1.0
 17
0.0
 27
0.0
 37
0.0
 40
238.132448
 41
1.873134
 42
50.0
 43
0.0
 44
0.0
 50
0.0
 51
0.0
 71
     0
 72
   100
 73
     1
 74
     0
 75
     0
 76
     0
 77
     0
 78
     0
  0
ENDTAB
  0
TABLE
  2
LTYPE
  5
5
100
AcDbSymbolTable
 70
     4
  0
LTYPE
  5
14
100
AcDbSymbolTableRecord
100
AcDbLinetypeTableRecord
  2
BYBLOCK
 70
     0
  3

 72
    65
 73
     0
 40
0.0
  0
LTYPE
  5
15
100
AcDbSymbolTableRecord
100
AcDbLinetypeTableRecord
  2
BYLAYER
 70
     0
  3

 72
    65
 73
     0
 40
0.0
  0
LTYPE
  5
16
100
AcDbSymbolTableRecord
100
AcDbLinetypeTableRecord
  2
CONTINUOUS
 70
    64
  3
Solid line
 72
    65
 73
     0
 40
0.0
  0
LTYPE
  5
F8
100
AcDbSymbolTableRecord
100
AcDbLinetypeTableRecord
  2
LINEA-LINEETTA
 70
    64
  3
____ _ ____ _ ____ _ ____ _ ____ _ ____ _ ____ 
 72
    65
 73
     4
 40
2.0
 49
1.25
 74
     0
 49
-0.25
 74
     0
 49
0.25
 74
     0
 49
-0.25
 74
     0
  0
LTYPE
  5
F9
100
AcDbSymbolTableRecord
100
AcDbLinetypeTableRecord
  2
NASCOSTA
 70
    64
  3
__ __ __ __ __ __ __ __ __ __ __ __ __ __ __ __
 72
    65
 73
     2
 40
0.375
 49
0.25
 74
     0
 49
-0.125
 74
     0
  0
LTYPE
  5
5DD
100
AcDbSymbolTableRecord
100
AcDbLinetypeTableRecord
  2
LINEA-LINEETTAX2
 70
    64
  3
________  __  ________  __  ________  __  _____
 72
    65
 73
     4
 40
4.0
 49
2.5
 74
     0
 49
-0.5
 74
     0
 49
0.5
 74
     0
 49
-0.5
 74
     0
  0
ENDTAB
  0
TABLE
  2
LAYER
  5
2
100
AcDbSymbolTable
 70
    16
  0
LAYER
  5
F
100
AcDbSymbolTableRecord
100
AcDbLayerTableRecord
  2
0
 70
     0
 62
     7
  6
CONTINUOUS
  0
LAYER
  5
61
100
AcDbSymbolTableRecord
100
AcDbLayerTableRecord
  2
RIQUADRO025
 70
    64
 62
     7
  6
CONTINUOUS
  0
LAYER
  5
62
100
AcDbSymbolTableRecord
100
AcDbLayerTableRecord
  2
RIQUADRO035
 70
    64
 62
     2
  6
CONTINUOUS
  0
LAYER
  5
63
100
AcDbSymbolTableRecord
100
AcDbLayerTableRecord
  2
RIQUADRO050
 70
    64
 62
     6
  6
CONTINUOUS
  0
LAYER
  5
64
100
AcDbSymbolTableRecord
100
AcDbLayerTableRecord
  2
RIQUADRO070
 70
    64
 62
     5
  6
CONTINUOUS
  0
LAYER
  5
65
100
AcDbSymbolTableRecord
100
AcDbLayerTableRecord
  2
RIQUADRO100
 70
    64
 62
     1
  6
CONTINUOUS
  0
LAYER
  5
66
100
AcDbSymbolTableRecord
100
AcDbLayerTableRecord
  2
RIQUADRO140
 70
    64
 62
     3
  6
CONTINUOUS
  0
LAYER
  5
67
100
AcDbSymbolTableRecord
100
AcDbLayerTableRecord
  2
RIQUADRO200
 70
    64
 62
     8
  6
CONTINUOUS
  0
LAYER
  5
68
100
AcDbSymbolTableRecord
100
AcDbLayerTableRecord
  2
BT
 70
    64
 62
     7
  6
CONTINUOUS
  0
LAYER
  5
FA
100
AcDbSymbolTableRecord
100
AcDbLayerTableRecord
  2
OGGETTI
 70
    64
 62
   250
  6
CONTINUOUS
  0
LAYER
  5
FB
100
AcDbSymbolTableRecord
100
AcDbLayerTableRecord
  2
QUOTE
 70
    64
 62
     1
  6
CONTINUOUS
  0
LAYER
  5
FC
100
AcDbSymbolTableRecord
100
AcDbLayerTableRecord
  2
NASCOSTA
 70
    64
 62
     2
  6
NASCOSTA
  0
LAYER
  5
FD
100
AcDbSymbolTableRecord
100
AcDbLayerTableRecord
  2
TESTO
 70
    64
 62
     6
  6
CONTINUOUS
  0
LAYER
  5
FE
100
AcDbSymbolTableRecord
100
AcDbLayerTableRecord
  2
CENTRO
 70
    64
 62
     3
  6
LINEA-LINEETTAX2
  0
LAYER
  5
136
100
AcDbSymbolTableRecord
100
AcDbLayerTableRecord
  2
DEFPOINTS
 70
    64
 62
     7
  6
CONTINUOUS
  0
LAYER
  5
7BB
100
AcDbSymbolTableRecord
100
AcDbLayerTableRecord
  2
SEZIONE
 70
    64
 62
     8
  6
CONTINUOUS
  0
ENDTAB
  0
TABLE
  2
STYLE
  5
3
100
AcDbSymbolTable
 70
     2
  0
STYLE
  5
10
100
AcDbSymbolTableRecord
100
AcDbTextStyleTableRecord
  2
STANDARD
 70
    64
 40
3.0
 41
1.0
 50
0.0
 71
     0
 42
3.0
  3
ISOCP
  4

  0
STYLE
  5
69
100
AcDbSymbolTableRecord
100
AcDbTextStyleTableRecord
  2
ISOCP
 70
    64
 40
0.0
 41
1.0
 50
0.0
 71
     0
 42
2.5
  3
isocp
  4

  0
ENDTAB
  0
TABLE
  2
VIEW
  5
6
100
AcDbSymbolTable
 70
     0
  0
ENDTAB
  0
TABLE
  2
UCS
  5
7
100
AcDbSymbolTable
 70
     0
  0
ENDTAB
  0
TABLE
  2
APPID
  5
9
100
AcDbSymbolTable
 70
     1
  0
APPID
  5
11
100
AcDbSymbolTableRecord
100
AcDbRegAppTableRecord
  2
ACAD
 70
     0
  0
ENDTAB
  0
TABLE
  2
DIMSTYLE
  5
A
100
AcDbSymbolTable
 70
     8
  0
DIMSTYLE
105
1D
100
AcDbSymbolTableRecord
100
AcDbDimStyleTableRecord
  2
STANDARD
 70
     0
  3

  4

  5

  6

  7

 40
1.0
 41
0.18
 42
0.0625
 43
0.38
 44
0.18
 45
0.0
 46
0.0
 47
0.0
 48
0.0
140
0.18
141
0.09
142
0.0
143
25.4
144
1.0
145
0.0
146
1.0
147
0.09
 71
     0
 72
     0
 73
     1
 74
     1
 75
     0
 76
     0
 77
     0
 78
     0
170
     0
171
     2
172
     0
173
     0
174
     0
175
     0
176
     0
177
     0
178
     0
270
     2
271
     4
272
     4
273
     2
274
     2
340
10
275
     0
280
     0
281
     0
282
     0
283
     1
284
     0
285
     0
286
     0
287
     3
288
     0
  0
DIMSTYLE
105
24
100
AcDbSymbolTableRecord
100
AcDbDimStyleTableRecord
  2
ISO-25
 70
     0
  3

  4

  5

  6

  7

 40
1.0
 41
2.5
 42
0.625
 43
3.75
 44
1.25
 45
0.0
 46
0.0
 47
0.0
 48
0.0
140
2.5
141
2.5
142
0.0
143
0.0394
144
1.0
145
1.0
146
1.0
147
0.625
 71
     0
 72
     0
 73
     1
 74
     0
 75
     0
 76
     0
 77
     1
 78
     8
170
     0
171
     2
172
     1
173
     0
174
     0
175
     0
176
     0
177
     0
178
     0
270
     2
271
     4
272
     4
273
     2
274
     2
340
10
275
     0
280
     0
281
     0
282
     0
283
     1
284
     0
285
     0
286
     0
287
     3
288
     0
  0
DIMSTYLE
105
25
100
AcDbSymbolTableRecord
100
AcDbDimStyleTableRecord
  2
ISO-35
 70
     0
  3

  4

  5

  6

  7

 40
1.0
 41
3.5
 42
0.875
 43
5.25
 44
1.75
 45
0.0
 46
0.0
 47
0.0
 48
0.0
140
3.5
141
3.5
142
0.0
143
0.0394
144
1.0
145
1.4
146
1.0
147
0.875
 71
     0
 72
     0
 73
     1
 74
     0
 75
     0
 76
     0
 77
     1
 78
     8
170
     0
171
     2
172
     1
173
     0
174
     0
175
     0
176
     0
177
     0
178
     0
270
     2
271
     4
272
     4
273
     2
274
     2
340
10
275
     0
280
     0
281
     0
282
     0
283
     1
284
     0
285
     0
286
     0
287
     3
288
     0
  0
DIMSTYLE
105
26
100
AcDbSymbolTableRecord
100
AcDbDimStyleTableRecord
  2
ISO-5
 70
     0
  3

  4

  5

  6

  7

 40
1.0
 41
5.0
 42
1.25
 43
7.5
 44
2.5
 45
0.0
 46
0.0
 47
0.0
 48
0.0
140
5.0
141
5.0
142
0.0
143
0.0394
144
1.0
145
2.0
146
1.0
147
1.25
 71
     0
 72
     0
 73
     1
 74
     0
 75
     0
 76
     0
 77
     1
 78
     8
170
     0
171
     2
172
     1
173
     0
174
     0
175
     0
176
     0
177
     0
178
     0
270
     2
271
     4
272
     4
273
     2
274
     2
340
10
275
     0
280
     0
281
     0
282
     0
283
     1
284
     0
285
     0
286
     0
287
     3
288
     0
  0
DIMSTYLE
105
27
100
AcDbSymbolTableRecord
100
AcDbDimStyleTableRecord
  2
ISO-7
 70
     0
  3

  4

  5

  6

  7

 40
1.0
 41
7.0
 42
1.75
 43
10.5
 44
3.5
 45
0.0
 46
0.0
 47
0.0
 48
0.0
140
7.0
141
7.0
142
0.0
143
0.0394
144
1.0
145
2.8
146
1.0
147
1.75
 71
     0
 72
     0
 73
     1
 74
     0
 75
     0
 76
     0
 77
     1
 78
     8
170
     0
171
     2
172
     1
173
     0
174
     0
175
     0
176
     0
177
     0
178
     0
270
     2
271
     4
272
     4
273
     2
274
     2
340
10
275
     0
280
     0
281
     0
282
     0
283
     1
284
     0
285
     0
286
     0
287
     3
288
     0
  0
DIMSTYLE
105
28
100
AcDbSymbolTableRecord
100
AcDbDimStyleTableRecord
  2
ISO1
 70
     0
  3

  4

  5

  6

  7

 40
1.0
 41
10.0
 42
2.5
 43
15.0
 44
5.0
 45
0.0
 46
0.0
 47
0.0
 48
0.0
140
10.0
141
10.0
142
0.0
143
0.0394
144
1.0
145
4.0
146
1.0
147
2.5
 71
     0
 72
     0
 73
     1
 74
     0
 75
     0
 76
     0
 77
     1
 78
     8
170
     0
171
     2
172
     1
173
     0
174
     0
175
     0
176
     0
177
     0
178
     0
270
     2
271
     4
272
     4
273
     2
274
     2
340
10
275
     0
280
     0
281
     0
282
     0
283
     1
284
     0
285
     0
286
     0
287
     3
288
     0
  0
DIMSTYLE
105
29
100
AcDbSymbolTableRecord
100
AcDbDimStyleTableRecord
  2
ISO1-4
 70
     0
  3

  4

  5

  6

  7

 40
1.0
 41
14.0
 42
3.5
 43
21.0
 44
7.0
 45
0.0
 46
0.0
 47
0.0
 48
0.0
140
14.0
141
14.0
142
0.0
143
0.0394
144
1.0
145
5.6
146
1.0
147
3.5
 71
     0
 72
     0
 73
     1
 74
     0
 75
     0
 76
     0
 77
     1
 78
     8
170
     0
171
     2
172
     1
173
     0
174
     0
175
     0
176
     0
177
     0
178
     0
270
     2
271
     4
272
     4
273
     2
274
     2
340
10
275
     0
280
     0
281
     0
282
     0
283
     1
284
     0
285
     0
286
     0
287
     3
288
     0
  0
DIMSTYLE
105
2A
100
AcDbSymbolTableRecord
100
AcDbDimStyleTableRecord
  2
ISO2
 70
     0
  3

  4

  5

  6

  7

 40
1.0
 41
20.0
 42
5.0
 43
30.0
 44
10.0
 45
0.0
 46
0.0
 47
0.0
 48
0.0
140
20.0
141
20.0
142
0.0
143
0.0394
144
1.0
145
8.0
146
1.0
147
5.0
 71
     0
 72
     0
 73
     1
 74
     0
 75
     0
 76
     0
 77
     1
 78
     8
170
     0
171
     2
172
     1
173
     0
174
     0
175
     0
176
     0
177
     0
178
     0
270
     2
271
     4
272
     4
273
     2
274
     2
340
10
275
     0
280
     0
281
     0
282
     0
283
     1
284
     0
285
     0
286
     0
287
     3
288
     0
  0
ENDTAB
  0
TABLE
  2
BLOCK_RECORD
  5
1
100
AcDbSymbolTable
 70
    18
  0
BLOCK_RECORD
  5
1A
100
AcDbSymbolTableRecord
100
AcDbBlockTableRecord
  2
*MODEL_SPACE
  0
BLOCK_RECORD
  5
17
100
AcDbSymbolTableRecord
100
AcDbBlockTableRecord
  2
*PAPER_SPACE
  0
BLOCK_RECORD
  5
6A
100
AcDbSymbolTableRecord
100
AcDbBlockTableRecord
  2
ISO_A4
  0
BLOCK_RECORD
  5
18D
100
AcDbSymbolTableRecord
100
AcDbBlockTableRecord
  2
*D1
  0
BLOCK_RECORD
  5
1A8
100
AcDbSymbolTableRecord
100
AcDbBlockTableRecord
  2
*D2
  0
BLOCK_RECORD
  5
1DC
100
AcDbSymbolTableRecord
100
AcDbBlockTableRecord
  2
*D3
  0
BLOCK_RECORD
  5
353
100
AcDbSymbolTableRecord
100
AcDbBlockTableRecord
  2
*D4
  0
BLOCK_RECORD
  5
4E7
100
AcDbSymbolTableRecord
100
AcDbBlockTableRecord
  2
*D5
  0
BLOCK_RECORD
  5
4F4
100
AcDbSymbolTableRecord
100
AcDbBlockTableRecord
  2
*D6
  0
BLOCK_RECORD
  5
63D
100
AcDbSymbolTableRecord
100
AcDbBlockTableRecord
  2
*D7
  0
BLOCK_RECORD
  5
64D
100
AcDbSymbolTableRecord
100
AcDbBlockTableRecord
  2
*D8
  0
BLOCK_RECORD
  5
65C
100
AcDbSymbolTableRecord
100
AcDbBlockTableRecord
  2
*D9
  0
BLOCK_RECORD
  5
6A8
100
AcDbSymbolTableRecord
100
AcDbBlockTableRecord
  2
*D10
  0
BLOCK_RECORD
  5
6B9
100
AcDbSymbolTableRecord
100
AcDbBlockTableRecord
  2
*D11
  0
BLOCK_RECORD
  5
6CC
100
AcDbSymbolTableRecord
100
AcDbBlockTableRecord
  2
*D12
  0
BLOCK_RECORD
  5
6D8
100
AcDbSymbolTableRecord
100
AcDbBlockTableRecord
  2
*D13
  0
BLOCK_RECORD
  5
6EE
100
AcDbSymbolTableRecord
100
AcDbBlockTableRecord
  2
*D14
  0
BLOCK_RECORD
  5
722
100
AcDbSymbolTableRecord
100
AcDbBlockTableRecord
  2
*D15
  0
BLOCK_RECORD
  5
73B
100
AcDbSymbolTableRecord
100
AcDbBlockTableRecord
  2
*D16
  0
BLOCK_RECORD
  5
765
100
AcDbSymbolTableRecord
100
AcDbBlockTableRecord
  2
*X17
  0
ENDTAB
  0
ENDSEC
  0
SECTION
  2
BLOCKS
  0
BLOCK
  5
1B
100
AcDbEntity
  8
0
100
AcDbBlockBegin
  2
*MODEL_SPACE
 70
     0
 10
0.0
 20
0.0
 30
0.0
  3
*MODEL_SPACE
  1

  0
ENDBLK
  5
1C
100
AcDbEntity
  8
0
100
AcDbBlockEnd
  0
BLOCK
  5
18
100
AcDbEntity
 67
     1
  8
0
100
AcDbBlockBegin
  2
*PAPER_SPACE
 70
     0
 10
0.0
 20
0.0
 30
0.0
  3
*PAPER_SPACE
  1

  0
ENDBLK
  5
19
100
AcDbEntity
 67
     1
  8
0
100
AcDbBlockEnd
  0
BLOCK
  5
E0
100
AcDbEntity
  8
0
100
AcDbBlockBegin
  2
ISO_A4
 70
     2
 10
0.0
 20
0.0
 30
0.0
  3
ISO_A4
  1

  0
LINE
  5
6B
100
AcDbEntity
  8
RIQUADRO200
100
AcDbLine
 10
0.0
 20
0.0
 30
0.0
 11
10.0
 21
0.0
 31
0.0
  0
LINE
  5
6C
100
AcDbEntity
  8
RIQUADRO200
100
AcDbLine
 10
0.0
 20
0.0
 30
0.0
 11
0.0
 21
10.0
 31
0.0
  0
LINE
  5
6D
100
AcDbEntity
  8
RIQUADRO200
100
AcDbLine
 10
210.0
 20
0.0
 30
0.0
 11
200.0
 21
0.0
 31
0.0
  0
LINE
  5
6E
100
AcDbEntity
  8
RIQUADRO200
100
AcDbLine
 10
210.0
 20
0.0
 30
0.0
 11
210.0
 21
10.0
 31
0.0
  0
LINE
  5
6F
100
AcDbEntity
  8
RIQUADRO200
100
AcDbLine
 10
210.0
 20
287.0
 30
0.0
 11
210.0
 21
297.0
 31
0.0
  0
LINE
  5
70
100
AcDbEntity
  8
RIQUADRO200
100
AcDbLine
 10
210.0
 20
297.0
 30
0.0
 11
200.0
 21
297.0
 31
0.0
  0
LINE
  5
71
100
AcDbEntity
  8
RIQUADRO200
100
AcDbLine
 10
10.0
 20
297.0
 30
0.0
 11
0.0
 21
297.0
 31
0.0
  0
LINE
  5
72
100
AcDbEntity
  8
RIQUADRO200
100
AcDbLine
 10
0.0
 20
297.0
 30
0.0
 11
0.0
 21
287.0
 31
0.0
  0
LINE
  5
73
100
AcDbEntity
  8
RIQUADRO070
100
AcDbLine
 10
10.0
 20
10.0
 30
0.0
 11
200.0
 21
10.0
 31
0.0
  0
LINE
  5
74
100
AcDbEntity
  8
RIQUADRO070
100
AcDbLine
 10
200.0
 20
10.0
 30
0.0
 11
200.0
 21
287.0
 31
0.0
  0
LINE
  5
75
100
AcDbEntity
  8
RIQUADRO070
100
AcDbLine
 10
200.0
 20
287.0
 30
0.0
 11
10.0
 21
287.0
 31
0.0
  0
LINE
  5
76
100
AcDbEntity
  8
RIQUADRO070
100
AcDbLine
 10
10.0
 20
287.0
 30
0.0
 11
10.0
 21
10.0
 31
0.0
  0
LINE
  5
77
100
AcDbEntity
  8
RIQUADRO050
100
AcDbLine
 10
105.0
 20
10.0
 30
0.0
 11
105.0
 21
5.0
 31
0.0
  0
LINE
  5
78
100
AcDbEntity
  8
RIQUADRO050
100
AcDbLine
 10
55.0
 20
5.0
 30
0.0
 11
155.0
 21
5.0
 31
0.0
  0
LINE
  5
79
100
AcDbEntity
  8
RIQUADRO050
100
AcDbLine
 10
55.0
 20
5.0
 30
0.0
 11
55.0
 21
10.0
 31
0.0
  0
LINE
  5
7A
100
AcDbEntity
  8
RIQUADRO050
100
AcDbLine
 10
155.0
 20
5.0
 30
0.0
 11
155.0
 21
10.0
 31
0.0
  0
LINE
  5
7B
100
AcDbEntity
  8
RIQUADRO050
100
AcDbLine
 10
65.0
 20
5.0
 30
0.0
 11
65.0
 21
10.0
 31
0.0
  0
LINE
  5
7C
100
AcDbEntity
  8
RIQUADRO050
100
AcDbLine
 10
75.0
 20
5.0
 30
0.0
 11
75.0
 21
10.0
 31
0.0
  0
LINE
  5
7D
100
AcDbEntity
  8
RIQUADRO050
100
AcDbLine
 10
85.0
 20
5.0
 30
0.0
 11
85.0
 21
10.0
 31
0.0
  0
LINE
  5
7E
100
AcDbEntity
  8
RIQUADRO050
100
AcDbLine
 10
95.0
 20
5.0
 30
0.0
 11
95.0
 21
10.0
 31
0.0
  0
LINE
  5
7F
100
AcDbEntity
  8
RIQUADRO050
100
AcDbLine
 10
115.0
 20
5.0
 30
0.0
 11
115.0
 21
10.0
 31
0.0
  0
LINE
  5
80
100
AcDbEntity
  8
RIQUADRO050
100
AcDbLine
 10
125.0
 20
5.0
 30
0.0
 11
125.0
 21
10.0
 31
0.0
  0
LINE
  5
81
100
AcDbEntity
  8
RIQUADRO050
100
AcDbLine
 10
135.0
 20
5.0
 30
0.0
 11
135.0
 21
10.0
 31
0.0
  0
LINE
  5
82
100
AcDbEntity
  8
RIQUADRO050
100
AcDbLine
 10
145.0
 20
5.0
 30
0.0
 11
145.0
 21
10.0
 31
0.0
  0
LINE
  5
83
100
AcDbEntity
  8
RIQUADRO050
100
AcDbLine
 10
5.0
 20
148.5
 30
0.0
 11
15.0
 21
148.5
 31
0.0
  0
LINE
  5
84
100
AcDbEntity
  8
RIQUADRO050
100
AcDbLine
 10
195.0
 20
148.5
 30
0.0
 11
205.0
 21
148.5
 31
0.0
  0
LINE
  5
85
100
AcDbEntity
  8
RIQUADRO050
100
AcDbLine
 10
105.0
 20
282.0
 30
0.0
 11
105.0
 21
292.0
 31
0.0
  0
LINE
  5
86
100
AcDbEntity
  8
RIQUADRO050
100
AcDbLine
 10
105.0
 20
10.0
 30
0.0
 11
105.0
 21
15.0
 31
0.0
  0
LINE
  5
87
100
AcDbEntity
  8
RIQUADRO050
100
AcDbLine
 10
12.5
 20
151.0
 30
0.0
 11
12.5
 21
146.0
 31
0.0
  0
LINE
  5
88
100
AcDbEntity
  8
RIQUADRO050
100
AcDbLine
 10
12.5
 20
146.0
 30
0.0
 11
7.5
 21
148.5
 31
0.0
  0
LINE
  5
89
100
AcDbEntity
  8
RIQUADRO050
100
AcDbLine
 10
7.5
 20
148.5
 30
0.0
 11
12.5
 21
151.0
 31
0.0
  0
LINE
  5
8A
100
AcDbEntity
  8
RIQUADRO050
100
AcDbLine
 10
105.0
 20
7.5
 30
0.0
 11
102.5
 21
12.5
 31
0.0
  0
LINE
  5
8B
100
AcDbEntity
  8
RIQUADRO050
100
AcDbLine
 10
102.5
 20
12.5
 30
0.0
 11
107.5
 21
12.5
 31
0.0
  0
LINE
  5
8C
100
AcDbEntity
  8
RIQUADRO050
100
AcDbLine
 10
107.5
 20
12.5
 30
0.0
 11
105.0
 21
7.5
 31
0.0
  0
LINE
  5
8D
100
AcDbEntity
  8
RIQUADRO050
100
AcDbLine
 10
57.5
 20
287.0
 30
0.0
 11
57.5
 21
292.0
 31
0.0
  0
LINE
  5
8E
100
AcDbEntity
  8
RIQUADRO050
100
AcDbLine
 10
152.5
 20
287.0
 30
0.0
 11
152.5
 21
292.0
 31
0.0
  0
TEXT
  5
8F
100
AcDbEntity
  8
RIQUADRO050
100
AcDbText
 10
32.75
 20
287.5
 30
0.0
 40
4.0
  1
1
  7
ISOCP
 72
     4
 11
33.75
 21
289.5
 31
0.0
100
AcDbText
  0
TEXT
  5
90
100
AcDbEntity
  8
RIQUADRO050
100
AcDbText
 10
79.780669
 20
287.399606
 30
0.0
 40
4.0
  1
2
  7
ISOCP
 72
     4
 11
81.25
 21
289.5
 31
0.0
100
AcDbText
  0
TEXT
  5
91
100
AcDbEntity
  8
RIQUADRO050
100
AcDbText
 10
127.267157
 20
287.582843
 30
0.0
 40
4.0
  1
3
  7
ISOCP
 72
     4
 11
128.75
 21
289.5
 31
0.0
100
AcDbText
  0
TEXT
  5
92
100
AcDbEntity
  8
RIQUADRO050
100
AcDbText
 10
174.65
 20
287.5
 30
0.0
 40
4.0
  1
4
  7
ISOCP
 72
     4
 11
176.25
 21
289.5
 31
0.0
100
AcDbText
  0
LINE
  5
93
100
AcDbEntity
  8
RIQUADRO050
100
AcDbLine
 10
10.0
 20
194.5
 30
0.0
 11
5.0
 21
194.5
 31
0.0
  0
LINE
  5
94
100
AcDbEntity
  8
RIQUADRO050
100
AcDbLine
 10
10.0
 20
240.5
 30
0.0
 11
5.0
 21
240.5
 31
0.0
  0
LINE
  5
95
100
AcDbEntity
  8
RIQUADRO050
100
AcDbLine
 10
10.0
 20
102.5
 30
0.0
 11
5.0
 21
102.5
 31
0.0
  0
LINE
  5
96
100
AcDbEntity
  8
RIQUADRO050
100
AcDbLine
 10
10.0
 20
56.5
 30
0.0
 11
5.0
 21
56.5
 31
0.0
  0
TEXT
  5
97
100
AcDbEntity
  8
RIQUADRO050
100
AcDbText
 10
5.7
 20
261.5
 30
0.0
 40
4.0
  1
A
  7
ISOCP
 72
     4
 11
7.5
 21
263.5
 31
0.0
100
AcDbText
  0
TEXT
  5
98
100
AcDbEntity
  8
RIQUADRO050
100
AcDbText
 10
5.9
 20
215.5
 30
0.0
 40
4.0
  1
B
  7
ISOCP
 72
     4
 11
7.5
 21
217.5
 31
0.0
100
AcDbText
  0
TEXT
  5
99
100
AcDbEntity
  8
RIQUADRO050
100
AcDbText
 10
6.193198
 20
169.5
 30
0.0
 40
4.0
  1
C
  7
ISOCP
 72
     4
 11
7.5
 21
171.5
 31
0.0
100
AcDbText
  0
TEXT
  5
9A
100
AcDbEntity
  8
RIQUADRO050
100
AcDbText
 10
5.786091
 20
123.5
 30
0.0
 40
4.0
  1
D
  7
ISOCP
 72
     4
 11
7.5
 21
125.5
 31
0.0
100
AcDbText
  0
TEXT
  5
9B
100
AcDbEntity
  8
RIQUADRO050
100
AcDbText
 10
6.1
 20
77.5
 30
0.0
 40
4.0
  1
E
  7
ISOCP
 72
     4
 11
7.5
 21
79.5
 31
0.0
100
AcDbText
  0
TEXT
  5
9C
100
AcDbEntity
  8
RIQUADRO050
100
AcDbText
 10
6.1
 20
31.5
 30
0.0
 40
4.0
  1
F
  7
ISOCP
 72
     4
 11
7.5
 21
33.5
 31
0.0
100
AcDbText
  0
TEXT
  5
9D
100
AcDbEntity
  8
RIQUADRO050
100
AcDbText
 10
200.7
 20
261.5
 30
0.0
 40
4.0
  1
A
  7
ISOCP
 72
     4
 11
202.5
 21
263.5
 31
0.0
100
AcDbText
  0
LINE
  5
9E
100
AcDbEntity
  8
RIQUADRO050
100
AcDbLine
 10
205.0
 20
240.5
 30
0.0
 11
200.0
 21
240.5
 31
0.0
  0
TEXT
  5
9F
100
AcDbEntity
  8
RIQUADRO050
100
AcDbText
 10
200.9
 20
215.5
 30
0.0
 40
4.0
  1
B
  7
ISOCP
 72
     4
 11
202.5
 21
217.5
 31
0.0
100
AcDbText
  0
LINE
  5
A0
100
AcDbEntity
  8
RIQUADRO050
100
AcDbLine
 10
205.0
 20
194.5
 30
0.0
 11
200.0
 21
194.5
 31
0.0
  0
TEXT
  5
A1
100
AcDbEntity
  8
RIQUADRO050
100
AcDbText
 10
201.193198
 20
169.5
 30
0.0
 40
4.0
  1
C
  7
ISOCP
 72
     4
 11
202.5
 21
171.5
 31
0.0
100
AcDbText
  0
TEXT
  5
A2
100
AcDbEntity
  8
RIQUADRO050
100
AcDbText
 10
200.786091
 20
123.5
 30
0.0
 40
4.0
  1
D
  7
ISOCP
 72
     4
 11
202.5
 21
125.5
 31
0.0
100
AcDbText
  0
LINE
  5
A3
100
AcDbEntity
  8
RIQUADRO050
100
AcDbLine
 10
205.0
 20
102.5
 30
0.0
 11
200.0
 21
102.5
 31
0.0
  0
TEXT
  5
A4
100
AcDbEntity
  8
RIQUADRO050
100
AcDbText
 10
201.1
 20
77.5
 30
0.0
 40
4.0
  1
E
  7
ISOCP
 72
     4
 11
202.5
 21
79.5
 31
0.0
100
AcDbText
  0
LINE
  5
A5
100
AcDbEntity
  8
RIQUADRO050
100
AcDbLine
 10
205.0
 20
56.5
 30
0.0
 11
200.0
 21
56.5
 31
0.0
  0
TEXT
  5
A6
100
AcDbEntity
  8
RIQUADRO050
100
AcDbText
 10
201.1
 20
31.5
 30
0.0
 40
4.0
  1
F
  7
ISOCP
 72
     4
 11
202.5
 21
33.5
 31
0.0
100
AcDbText
  0
ATTDEF
  5
A7
100
AcDbEntity
  8
BT
100
AcDbText
 10
0.0
 20
0.0
 30
0.0
 40
2.5
  1
10.0
  7
ISOCP
100
AcDbAttributeDefinition
  3
MinX
  2
MINX
 70
     9
  0
ATTDEF
  5
A8
100
AcDbEntity
  8
BT
100
AcDbText
 10
0.0
 20
0.0
 30
0.0
 40
2.5
  1
46.0
  7
ISOCP
100
AcDbAttributeDefinition
  3
MinY
  2
MINY
 70
     9
  0
ATTDEF
  5
A9
100
AcDbEntity
  8
BT
100
AcDbText
 10
0.0
 20
0.0
 30
0.0
 40
2.5
  1
200.0
  7
ISOCP
100
AcDbAttributeDefinition
  3
MaxX
  2
MAXX
 70
     9
  0
ATTDEF
  5
AA
100
AcDbEntity
  8
BT
100
AcDbText
 10
0.0
 20
0.0
 30
0.0
 40
2.5
  1
281.0
  7
ISOCP
100
AcDbAttributeDefinition
  3
MaxY
  2
MAXY
 70
     9
  0
LINE
  5
AB
100
AcDbEntity
  8
RIQUADRO070
100
AcDbLine
 10
105.0
 20
20.0
 30
0.0
 11
200.0
 21
20.0
 31
0.0
  0
LINE
  5
AC
100
AcDbEntity
  8
RIQUADRO070
100
AcDbLine
 10
30.0
 20
30.0
 30
0.0
 11
200.0
 21
30.0
 31
0.0
  0
LINE
  5
AD
100
AcDbEntity
  8
RIQUADRO070
100
AcDbLine
 10
30.0
 20
40.0
 30
0.0
 11
200.0
 21
40.0
 31
0.0
  0
LINE
  5
AE
100
AcDbEntity
  8
RIQUADRO070
100
AcDbLine
 10
30.0
 20
10.0
 30
0.0
 11
30.0
 21
40.0
 31
0.0
  0
LINE
  5
AF
100
AcDbEntity
  8
RIQUADRO070
100
AcDbLine
 10
105.0
 20
10.0
 30
0.0
 11
105.0
 21
30.0
 31
0.0
  0
LINE
  5
B0
100
AcDbEntity
  8
RIQUADRO070
100
AcDbLine
 10
180.0
 20
10.0
 30
0.0
 11
180.0
 21
20.0
 31
0.0
  0
LINE
  5
B1
100
AcDbEntity
  8
RIQUADRO070
100
AcDbLine
 10
165.0
 20
10.0
 30
0.0
 11
165.0
 21
20.0
 31
0.0
  0
LINE
  5
B2
100
AcDbEntity
  8
RIQUADRO070
100
AcDbLine
 10
180.0
 20
30.0
 30
0.0
 11
180.0
 21
40.0
 31
0.0
  0
LINE
  5
B3
100
AcDbEntity
  8
RIQUADRO070
100
AcDbLine
 10
150.0
 20
30.0
 30
0.0
 11
150.0
 21
40.0
 31
0.0
  0
LINE
  5
B4
100
AcDbEntity
  8
RIQUADRO070
100
AcDbLine
 10
125.0
 20
30.0
 30
0.0
 11
125.0
 21
40.0
 31
0.0
  0
LINE
  5
B5
100
AcDbEntity
  8
RIQUADRO070
100
AcDbLine
 10
87.0
 20
30.0
 30
0.0
 11
87.0
 21
40.0
 31
0.0
  0
LINE
  5
B6
100
AcDbEntity
  8
RIQUADRO070
100
AcDbLine
 10
62.0
 20
30.0
 30
0.0
 11
62.0
 21
40.0
 31
0.0
  0
LINE
  5
B7
100
AcDbEntity
  8
RIQUADRO070
100
AcDbLine
 10
30.0
 20
46.0
 30
0.0
 11
200.0
 21
46.0
 31
0.0
  0
LINE
  5
B8
100
AcDbEntity
  8
RIQUADRO070
100
AcDbLine
 10
45.0
 20
40.0
 30
0.0
 11
45.0
 21
46.0
 31
0.0
  0
LINE
  5
B9
100
AcDbEntity
  8
RIQUADRO070
100
AcDbLine
 10
30.0
 20
40.0
 30
0.0
 11
30.0
 21
46.0
 31
0.0
  0
LINE
  5
BA
100
AcDbEntity
  8
RIQUADRO070
100
AcDbLine
 10
62.0
 20
40.0
 30
0.0
 11
62.0
 21
46.0
 31
0.0
  0
LINE
  5
BB
100
AcDbEntity
  8
RIQUADRO070
100
AcDbLine
 10
150.0
 20
40.0
 30
0.0
 11
150.0
 21
46.0
 31
0.0
  0
LINE
  5
BC
100
AcDbEntity
  8
RIQUADRO070
100
AcDbLine
 10
30.0
 20
281.0
 30
0.0
 11
30.0
 21
287.0
 31
0.0
  0
LINE
  5
BD
100
AcDbEntity
  8
RIQUADRO070
100
AcDbLine
 10
30.0
 20
281.0
 30
0.0
 11
200.0
 21
281.0
 31
0.0
  0
LINE
  5
BE
100
AcDbEntity
  8
RIQUADRO070
100
AcDbLine
 10
42.0
 20
281.0
 30
0.0
 11
42.0
 21
287.0
 31
0.0
  0
LINE
  5
BF
100
AcDbEntity
  8
RIQUADRO070
100
AcDbLine
 10
151.0
 20
281.0
 30
0.0
 11
151.0
 21
287.0
 31
0.0
  0
LINE
  5
C0
100
AcDbEntity
  8
RIQUADRO070
100
AcDbLine
 10
171.0
 20
281.0
 30
0.0
 11
171.0
 21
287.0
 31
0.0
  0
LINE
  5
C1
100
AcDbEntity
  8
RIQUADRO070
100
AcDbLine
 10
186.0
 20
281.0
 30
0.0
 11
186.0
 21
287.0
 31
0.0
  0
TEXT
  5
C2
100
AcDbEntity
  8
RIQUADRO025
100
AcDbText
 10
32.0
 20
41.75
 30
0.0
 40
2.5
  1
Rif.
  7
ISOCP
 11
32.0
 21
43.0
 31
0.0
100
AcDbText
 73
     2
  0
TEXT
  5
C3
100
AcDbEntity
  8
RIQUADRO025
100
AcDbText
 10
32.0
 20
35.75
 30
0.0
 40
2.5
  1
Progettato da
  7
ISOCP
 11
32.0
 21
37.0
 31
0.0
100
AcDbText
 73
     2
  0
TEXT
  5
C4
100
AcDbEntity
  8
RIQUADRO025
100
AcDbText
 10
167.0
 20
15.75
 30
0.0
 40
2.5
  1
Modifica
  7
ISOCP
 11
167.0
 21
17.0
 31
0.0
100
AcDbText
 73
     2
  0
TEXT
  5
C5
100
AcDbEntity
  8
RIQUADRO025
100
AcDbText
 10
182.0
 20
15.75
 30
0.0
 40
2.5
  1
Foglio
  7
ISOCP
 11
182.0
 21
17.0
 31
0.0
100
AcDbText
 73
     2
  0
TEXT
  5
C6
100
AcDbEntity
  8
RIQUADRO025
100
AcDbText
 10
182.0
 20
35.75
 30
0.0
 40
2.5
  1
Scala
  7
ISOCP
 11
182.0
 21
37.0
 31
0.0
100
AcDbText
 73
     2
  0
TEXT
  5
C7
100
AcDbEntity
  8
RIQUADRO025
100
AcDbText
 10
152.0
 20
35.75
 30
0.0
 40
2.5
  1
Data
  7
ISOCP
 11
152.0
 21
37.0
 31
0.0
100
AcDbText
 73
     2
  0
TEXT
  5
C8
100
AcDbEntity
  8
RIQUADRO025
100
AcDbText
 10
127.0
 20
35.75
 30
0.0
 40
2.5
  1
Nome file
  7
ISOCP
 11
127.0
 21
37.0
 31
0.0
100
AcDbText
 73
     2
  0
TEXT
  5
C9
100
AcDbEntity
  8
RIQUADRO025
100
AcDbText
 10
89.0
 20
35.75
 30
0.0
 40
2.5
  1
Approvato da - data
  7
ISOCP
 11
89.0
 21
37.0
 31
0.0
100
AcDbText
 73
     2
  0
TEXT
  5
CA
100
AcDbEntity
  8
RIQUADRO025
100
AcDbText
 10
64.0
 20
35.75
 30
0.0
 40
2.5
  1
Controllato da
  7
ISOCP
 11
64.0
 21
37.0
 31
0.0
100
AcDbText
 73
     2
  0
TEXT
  5
CB
100
AcDbEntity
  8
RIQUADRO025
100
AcDbText
 10
64.0
 20
41.75
 30
0.0
 40
2.5
  1
Titolo/Nome, designazione, materiale, dimensione, ecc.
  7
ISOCP
 11
64.0
 21
43.0
 31
0.0
100
AcDbText
 73
     2
  0
TEXT
  5
CC
100
AcDbEntity
  8
RIQUADRO025
100
AcDbText
 10
47.0
 20
41.75
 30
0.0
 40
2.5
  1
Quantità
  7
ISOCP
 11
47.0
 21
43.0
 31
0.0
100
AcDbText
 73
     2
  0
TEXT
  5
CD
100
AcDbEntity
  8
RIQUADRO025
100
AcDbText
 10
152.0
 20
41.75
 30
0.0
 40
2.5
  1
N. articolo/Riferimento
  7
ISOCP
 11
152.0
 21
43.0
 31
0.0
100
AcDbText
 73
     2
  0
TEXT
  5
CE
100
AcDbEntity
  8
RIQUADRO025
100
AcDbText
 10
32.0
 20
282.75
 30
0.0
 40
2.5
  1
N. rev
  7
ISOCP
 11
32.0
 21
284.0
 31
0.0
100
AcDbText
 73
     2
  0
TEXT
  5
CF
100
AcDbEntity
  8
RIQUADRO025
100
AcDbText
 10
44.0
 20
282.75
 30
0.0
 40
2.5
  1
Nota di revisione
  7
ISOCP
 11
44.0
 21
284.0
 31
0.0
100
AcDbText
 73
     2
  0
TEXT
  5
D0
100
AcDbEntity
  8
RIQUADRO025
100
AcDbText
 10
153.0
 20
282.75
 30
0.0
 40
2.5
  1
Data
  7
ISOCP
 11
153.0
 21
284.0
 31
0.0
100
AcDbText
 73
     2
  0
TEXT
  5
D1
100
AcDbEntity
  8
RIQUADRO025
100
AcDbText
 10
171.360998
 20
282.75
 30
0.0
 40
2.5
  1
Firma
  7
ISOCP
 11
171.360998
 21
284.0
 31
0.0
100
AcDbText
 73
     2
  0
TEXT
  5
D2
100
AcDbEntity
  8
RIQUADRO025
100
AcDbText
 10
187.082994
 20
282.75
 30
0.0
 40
2.5
  1
Controllo
 41
0.9
  7
ISOCP
 11
187.082994
 21
284.0
 31
0.0
100
AcDbText
 73
     2
  0
ATTDEF
  5
D3
100
AcDbEntity
  8
RIQUADRO050
100
AcDbText
 10
46.0
 20
17.5
 30
0.0
 40
5.0
  1
XXX
  7
ISOCP
 72
     4
 11
67.5
 21
20.0
 31
0.0
100
AcDbAttributeDefinition
  3
Proprietario
  2
PROPRIETARIO
 70
     8
  0
ATTDEF
  5
D4
100
AcDbEntity
  8
RIQUADRO050
100
AcDbText
 10
142.0
 20
22.5
 30
0.0
 40
5.0
  1
XXX
  7
ISOCP
 72
     4
 11
152.5
 21
25.0
 31
0.0
100
AcDbAttributeDefinition
  3
Titolo / Nome
  2
TITOLO
 70
     8
  0
ATTDEF
  5
D5
100
AcDbEntity
  8
RIQUADRO050
100
AcDbText
 10
118.65
 20
13.864568
 30
0.0
 40
3.0
  1
X
  7
ISOCP
 72
     4
 11
135.0
 21
15.0
 31
0.0
100
AcDbAttributeDefinition
  3
Numero disegno
  2
NUMERO_DISEGNO
 70
     8
  0
ATTDEF
  5
D6
100
AcDbEntity
  8
RIQUADRO025
100
AcDbText
 10
32.0
 20
31.75
 30
0.0
 40
2.5
  1
XXX
 41
0.8
  7
ISOCP
 11
32.0
 21
33.0
 31
0.0
100
AcDbAttributeDefinition
  3
Progettato da
  2
PROGETTATO_DA
 70
     8
 74
     2
  0
ATTDEF
  5
D7
100
AcDbEntity
  8
RIQUADRO025
100
AcDbText
 10
64.0
 20
31.75
 30
0.0
 40
2.5
  1
XXX
 41
0.75
  7
ISOCP
 11
64.0
 21
33.0
 31
0.0
100
AcDbAttributeDefinition
  3
Controllato da
  2
CONTROLLATO_DA
 70
     8
 74
     2
  0
ATTDEF
  5
D8
100
AcDbEntity
  8
RIQUADRO025
100
AcDbText
 10
89.0
 20
31.75
 30
0.0
 40
2.5
  1
XXX - 00/00/00
 41
0.85
  7
ISOCP
 11
89.0
 21
33.0
 31
0.0
100
AcDbAttributeDefinition
  3
Approvato da - Data
  2
APPROVATO_DA_DATA
 70
     8
 74
     2
  0
ATTDEF
  5
D9
100
AcDbEntity
  8
RIQUADRO025
100
AcDbText
 10
127.0
 20
31.75
 30
0.0
 40
2.5
  1
XXX
  7
ISOCP
 11
127.0
 21
33.0
 31
0.0
100
AcDbAttributeDefinition
  3
Nome file
  2
NOMEFILE
 70
     8
 74
     2
  0
ATTDEF
  5
DA
100
AcDbEntity
  8
RIQUADRO025
100
AcDbText
 10
152.0
 20
31.75
 30
0.0
 40
2.5
  1
00/00/00
 41
0.9
  7
ISOCP
 11
152.0
 21
33.0
 31
0.0
100
AcDbAttributeDefinition
  3
Data
  2
DATA
 70
     8
 74
     2
  0
ATTDEF
  5
DB
100
AcDbEntity
  8
RIQUADRO025
100
AcDbText
 10
182.0
 20
31.75
 30
0.0
 40
2.5
  1
1:1
 41
0.9
  7
ISOCP
 11
182.0
 21
33.0
 31
0.0
100
AcDbAttributeDefinition
  3
Scala
  2
SCALA
 70
     8
 74
     2
  0
ATTDEF
  5
DC
100
AcDbEntity
  8
RIQUADRO025
100
AcDbText
 10
167.0
 20
11.75
 30
0.0
 40
2.5
  1
0
 41
0.85
  7
ISOCP
 11
167.0
 21
13.0
 31
0.0
100
AcDbAttributeDefinition
  3
Modifica
  2
MODIFICA
 70
     8
 74
     2
  0
ATTDEF
  5
DD
100
AcDbEntity
  8
RIQUADRO025
100
AcDbText
 10
182.0
 20
11.75
 30
0.0
 40
2.5
  1
1/1
 41
0.9
  7
ISOCP
 11
182.0
 21
13.0
 31
0.0
100
AcDbAttributeDefinition
  3
Foglio
  2
FOGLIO
 70
     8
 74
     2
  0
TEXT
  5
DE
100
AcDbEntity
  8
RIQUADRO050
100
AcDbText
 10
32.75
 20
5.5
 30
0.0
 40
4.0
  1
1
  7
ISOCP
 72
     4
 11
33.75
 21
7.5
 31
0.0
100
AcDbText
  0
TEXT
  5
DF
100
AcDbEntity
  8
RIQUADRO050
100
AcDbText
 10
174.65
 20
5.5
 30
0.0
 40
4.0
  1
4
  7
ISOCP
 72
     4
 11
176.25
 21
7.5
 31
0.0
100
AcDbText
  0
ENDBLK
  5
E1
100
AcDbEntity
  8
0
100
AcDbBlockEnd
  0
BLOCK
  5
529
100
AcDbEntity
  8
0
100
AcDbBlockBegin
  2
*D1
 70
    65
 10
0.0
 20
0.0
 30
0.0
  3
*D1
  1

  0
LINE
  5
52A
100
AcDbEntity
  8
0
  6
BYBLOCK
 62
     0
100
AcDbLine
 10
98.021227
 20
175.147336
 30
0.0
 11
98.021227
 21
174.430968
 31
0.0
  0
LINE
  5
52B
100
AcDbEntity
  8
0
  6
BYBLOCK
 62
     0
100
AcDbLine
 10
112.021227
 20
175.147336
 30
0.0
 11
112.021227
 21
174.430968
 31
0.0
  0
LINE
  5
52C
100
AcDbEntity
  8
0
  6
BYBLOCK
 62
     0
100
AcDbLine
 10
100.521227
 20
175.680968
 30
0.0
 11
109.521227
 21
175.680968
 31
0.0
  0
LINE
  5
52D
100
AcDbEntity
  8
0
  6
BYBLOCK
 62
     0
100
AcDbLine
 10
112.021227
 20
175.680968
 30
0.0
 11
131.13461
 21
175.680968
 31
0.0
  0
SOLID
  5
52E
100
AcDbEntity
  8
0
  6
BYBLOCK
 62
     0
100
AcDbTrace
 10
100.521227
 20
176.097634
 30
0.0
 11
100.521227
 21
175.264301
 31
0.0
 12
98.021227
 22
175.680968
 32
0.0
 13
98.021227
 23
175.680968
 33
0.0
  0
SOLID
  5
52F
100
AcDbEntity
  8
0
  6
BYBLOCK
 62
     0
100
AcDbTrace
 10
109.521227
 20
176.097634
 30
0.0
 11
109.521227
 21
175.264301
 31
0.0
 12
112.021227
 22
175.680968
 32
0.0
 13
112.021227
 23
175.680968
 33
0.0
  0
MTEXT
  5
530
100
AcDbEntity
  8
0
  6
BYBLOCK
 62
     0
100
AcDbMText
 10
124.292478
 20
177.810968
 30
0.0
 40
3.0
 41
0.0
 71
     5
 72
     1
  1
\A1;14±0.05
  0
POINT
  5
531
100
AcDbEntity
  8
DEFPOINTS
  6
BYBLOCK
 62
     0
100
AcDbPoint
 10
98.021227
 20
175.777336
 30
0.0
  0
POINT
  5
532
100
AcDbEntity
  8
DEFPOINTS
  6
BYBLOCK
 62
     0
100
AcDbPoint
 10
112.021227
 20
175.777336
 30
0.0
  0
POINT
  5
533
100
AcDbEntity
  8
DEFPOINTS
  6
BYBLOCK
 62
     0
100
AcDbPoint
 10
112.021227
 20
175.680968
 30
0.0
  0
ENDBLK
  5
534
100
AcDbEntity
  8
0
100
AcDbBlockEnd
  0
BLOCK
  5
556
100
AcDbEntity
  8
0
100
AcDbBlockBegin
  2
*D2
 70
    65
 10
0.0
 20
0.0
 30
0.0
  3
*D2
  1

  0
LINE
  5
557
100
AcDbEntity
  8
0
  6
BYBLOCK
 62
     0
100
AcDbLine
 10
112.151227
 20
201.11837
 30
0.0
 11
187.952011
 21
201.11837
 31
0.0
  0
LINE
  5
558
100
AcDbEntity
  8
0
  6
BYBLOCK
 62
     0
100
AcDbLine
 10
134.651227
 20
121.11837
 30
0.0
 11
187.952011
 21
121.11837
 31
0.0
  0
LINE
  5
559
100
AcDbEntity
  8
0
  6
BYBLOCK
 62
     0
100
AcDbLine
 10
186.702011
 20
198.61837
 30
0.0
 11
186.702011
 21
123.61837
 31
0.0
  0
SOLID
  5
55A
100
AcDbEntity
  8
0
  6
BYBLOCK
 62
     0
100
AcDbTrace
 10
186.285344
 20
198.61837
 30
0.0
 11
187.118678
 21
198.61837
 31
0.0
 12
186.702011
 22
201.11837
 32
0.0
 13
186.702011
 23
201.11837
 33
0.0
  0
SOLID
  5
55B
100
AcDbEntity
  8
0
  6
BYBLOCK
 62
     0
100
AcDbTrace
 10
186.285344
 20
123.61837
 30
0.0
 11
187.118678
 21
123.61837
 31
0.0
 12
186.702011
 22
121.11837
 32
0.0
 13
186.702011
 23
121.11837
 33
0.0
  0
MTEXT
  5
55C
100
AcDbEntity
  8
0
  6
BYBLOCK
 62
     0
100
AcDbMText
 10
184.571716
 20
161.11837
 30
0.0
 40
3.0
 41
0.0
 71
     5
 72
     1
  1
\A1;80±0.02
 11
0.0
 21
1.0
 31
0.0
  0
POINT
  5
55D
100
AcDbEntity
  8
DEFPOINTS
  6
BYBLOCK
 62
     0
100
AcDbPoint
 10
111.521227
 20
201.11837
 30
0.0
  0
POINT
  5
55E
100
AcDbEntity
  8
DEFPOINTS
  6
BYBLOCK
 62
     0
100
AcDbPoint
 10
134.021227
 20
121.11837
 30
0.0
  0
POINT
  5
55F
100
AcDbEntity
  8
DEFPOINTS
  6
BYBLOCK
 62
     0
100
AcDbPoint
 10
186.702011
 20
121.11837
 30
0.0
  0
ENDBLK
  5
560
100
AcDbEntity
  8
0
100
AcDbBlockEnd
  0
BLOCK
  5
54B
100
AcDbEntity
  8
0
100
AcDbBlockBegin
  2
*D3
 70
    65
 10
0.0
 20
0.0
 30
0.0
  3
*D3
  1

  0
LINE
  5
54C
100
AcDbEntity
  8
0
  6
BYBLOCK
 62
     0
100
AcDbLine
 10
134.651227
 20
121.11837
 30
0.0
 11
171.47843
 21
121.11837
 31
0.0
  0
LINE
  5
54D
100
AcDbEntity
  8
0
  6
BYBLOCK
 62
     0
100
AcDbLine
 10
134.651227
 20
139.11837
 30
0.0
 11
171.47843
 21
139.11837
 31
0.0
  0
LINE
  5
54E
100
AcDbEntity
  8
0
  6
BYBLOCK
 62
     0
100
AcDbLine
 10
170.22843
 20
123.61837
 30
0.0
 11
170.22843
 21
136.61837
 31
0.0
  0
SOLID
  5
54F
100
AcDbEntity
  8
0
  6
BYBLOCK
 62
     0
100
AcDbTrace
 10
169.811763
 20
123.61837
 30
0.0
 11
170.645096
 21
123.61837
 31
0.0
 12
170.22843
 22
121.11837
 32
0.0
 13
170.22843
 23
121.11837
 33
0.0
  0
SOLID
  5
550
100
AcDbEntity
  8
0
  6
BYBLOCK
 62
     0
100
AcDbTrace
 10
169.811763
 20
136.61837
 30
0.0
 11
170.645096
 21
136.61837
 31
0.0
 12
170.22843
 22
139.11837
 32
0.0
 13
170.22843
 23
139.11837
 33
0.0
  0
MTEXT
  5
551
100
AcDbEntity
  8
0
  6
BYBLOCK
 62
     0
100
AcDbMText
 10
168.09843
 20
130.11837
 30
0.0
 40
3.0
 41
0.0
 71
     5
 72
     1
  1
\A1;18
 11
0.0
 21
1.0
 31
0.0
  0
POINT
  5
552
100
AcDbEntity
  8
DEFPOINTS
  6
BYBLOCK
 62
     0
100
AcDbPoint
 10
134.021227
 20
121.11837
 30
0.0
  0
POINT
  5
553
100
AcDbEntity
  8
DEFPOINTS
  6
BYBLOCK
 62
     0
100
AcDbPoint
 10
134.021227
 20
139.11837
 30
0.0
  0
POINT
  5
554
100
AcDbEntity
  8
DEFPOINTS
  6
BYBLOCK
 62
     0
100
AcDbPoint
 10
170.22843
 20
139.11837
 30
0.0
  0
ENDBLK
  5
555
100
AcDbEntity
  8
0
100
AcDbBlockEnd
  0
BLOCK
  5
59D
100
AcDbEntity
  8
0
100
AcDbBlockBegin
  2
*D4
 70
    65
 10
0.0
 20
0.0
 30
0.0
  3
*D4
  1

  0
LINE
  5
59E
100
AcDbEntity
  8
0
  6
BYBLOCK
 62
     0
100
AcDbLine
 10
134.651227
 20
139.11837
 30
0.0
 11
171.588684
 21
139.11837
 31
0.0
  0
LINE
  5
59F
100
AcDbEntity
  8
0
  6
BYBLOCK
 62
     0
100
AcDbLine
 10
112.151227
 20
201.11837
 30
0.0
 11
171.588684
 21
201.11837
 31
0.0
  0
LINE
  5
5A0
100
AcDbEntity
  8
0
  6
BYBLOCK
 62
     0
100
AcDbLine
 10
170.338684
 20
141.61837
 30
0.0
 11
170.338684
 21
198.61837
 31
0.0
  0
SOLID
  5
5A1
100
AcDbEntity
  8
0
  6
BYBLOCK
 62
     0
100
AcDbTrace
 10
169.922017
 20
141.61837
 30
0.0
 11
170.755351
 21
141.61837
 31
0.0
 12
170.338684
 22
139.11837
 32
0.0
 13
170.338684
 23
139.11837
 33
0.0
  0
SOLID
  5
5A2
100
AcDbEntity
  8
0
  6
BYBLOCK
 62
     0
100
AcDbTrace
 10
169.922017
 20
198.61837
 30
0.0
 11
170.755351
 21
198.61837
 31
0.0
 12
170.338684
 22
201.11837
 32
0.0
 13
170.338684
 23
201.11837
 33
0.0
  0
MTEXT
  5
5A3
100
AcDbEntity
  8
0
  6
BYBLOCK
 62
     0
100
AcDbMText
 10
168.208389
 20
170.11837
 30
0.0
 40
3.0
 41
0.0
 71
     5
 72
     1
  1
\A1;62
 11
0.0
 21
1.0
 31
0.0
  0
POINT
  5
5A4
100
AcDbEntity
  8
DEFPOINTS
  6
BYBLOCK
 62
     0
100
AcDbPoint
 10
134.021227
 20
139.11837
 30
0.0
  0
POINT
  5
5A5
100
AcDbEntity
  8
DEFPOINTS
  6
BYBLOCK
 62
     0
100
AcDbPoint
 10
111.521227
 20
201.11837
 30
0.0
  0
POINT
  5
5A6
100
AcDbEntity
  8
DEFPOINTS
  6
BYBLOCK
 62
     0
100
AcDbPoint
 10
170.338684
 20
201.11837
 30
0.0
  0
ENDBLK
  5
5A7
100
AcDbEntity
  8
0
100
AcDbBlockEnd
  0
BLOCK
  5
66F
100
AcDbEntity
  8
0
100
AcDbBlockBegin
  2
*D5
 70
    65
 10
0.0
 20
0.0
 30
0.0
  3
*D5
  1

  0
LINE
  5
670
100
AcDbEntity
  8
0
  6
BYBLOCK
 62
     0
100
AcDbLine
 10
135.021227
 20
121.48837
 30
0.0
 11
135.021227
 21
108.816316
 31
0.0
  0
LINE
  5
671
100
AcDbEntity
  8
0
  6
BYBLOCK
 62
     0
100
AcDbLine
 10
105.021227
 20
120.48837
 30
0.0
 11
105.021227
 21
108.816316
 31
0.0
  0
LINE
  5
672
100
AcDbEntity
  8
0
  6
BYBLOCK
 62
     0
100
AcDbLine
 10
132.521227
 20
110.066316
 30
0.0
 11
107.521227
 21
110.066316
 31
0.0
  0
SOLID
  5
673
100
AcDbEntity
  8
0
  6
BYBLOCK
 62
     0
100
AcDbTrace
 10
132.521227
 20
110.482983
 30
0.0
 11
132.521227
 21
109.649649
 31
0.0
 12
135.021227
 22
110.066316
 32
0.0
 13
135.021227
 23
110.066316
 33
0.0
  0
SOLID
  5
674
100
AcDbEntity
  8
0
  6
BYBLOCK
 62
     0
100
AcDbTrace
 10
107.521227
 20
110.482983
 30
0.0
 11
107.521227
 21
109.649649
 31
0.0
 12
105.021227
 22
110.066316
 32
0.0
 13
105.021227
 23
110.066316
 33
0.0
  0
MTEXT
  5
675
100
AcDbEntity
  8
0
  6
BYBLOCK
 62
     0
100
AcDbMText
 10
120.021227
 20
114.047497
 30
0.0
 40
3.0
 41
0.0
 71
     5
 72
     1
  1
\A1;30\S+0.01^  0.00;
  0
POINT
  5
676
100
AcDbEntity
  8
DEFPOINTS
  6
BYBLOCK
 62
     0
100
AcDbPoint
 10
135.021227
 20
122.11837
 30
0.0
  0
POINT
  5
677
100
AcDbEntity
  8
DEFPOINTS
  6
BYBLOCK
 62
     0
100
AcDbPoint
 10
105.021227
 20
121.11837
 30
0.0
  0
POINT
  5
678
100
AcDbEntity
  8
DEFPOINTS
  6
BYBLOCK
 62
     0
100
AcDbPoint
 10
105.021227
 20
110.066316
 30
0.0
  0
ENDBLK
  5
679
100
AcDbEntity
  8
0
100
AcDbBlockEnd
  0
BLOCK
  5
67A
100
AcDbEntity
  8
0
100
AcDbBlockBegin
  2
*D6
 70
    65
 10
0.0
 20
0.0
 30
0.0
  3
*D6
  1

  0
LINE
  5
67B
100
AcDbEntity
  8
0
  6
BYBLOCK
 62
     0
100
AcDbLine
 10
75.021227
 20
121.48837
 30
0.0
 11
75.021227
 21
98.068547
 31
0.0
  0
LINE
  5
67C
100
AcDbEntity
  8
0
  6
BYBLOCK
 62
     0
100
AcDbLine
 10
135.021227
 20
121.48837
 30
0.0
 11
135.021227
 21
98.068547
 31
0.0
  0
LINE
  5
67D
100
AcDbEntity
  8
0
  6
BYBLOCK
 62
     0
100
AcDbLine
 10
77.521227
 20
99.318547
 30
0.0
 11
132.521227
 21
99.318547
 31
0.0
  0
SOLID
  5
67E
100
AcDbEntity
  8
0
  6
BYBLOCK
 62
     0
100
AcDbTrace
 10
77.521227
 20
99.735214
 30
0.0
 11
77.521227
 21
98.901881
 31
0.0
 12
75.021227
 22
99.318547
 32
0.0
 13
75.021227
 23
99.318547
 33
0.0
  0
SOLID
  5
67F
100
AcDbEntity
  8
0
  6
BYBLOCK
 62
     0
100
AcDbTrace
 10
132.521227
 20
99.735214
 30
0.0
 11
132.521227
 21
98.901881
 31
0.0
 12
135.021227
 22
99.318547
 32
0.0
 13
135.021227
 23
99.318547
 33
0.0
  0
MTEXT
  5
680
100
AcDbEntity
  8
0
  6
BYBLOCK
 62
     0
100
AcDbMText
 10
105.021227
 20
103.374433
 30
0.0
 40
3.0
 41
0.0
 71
     5
 72
     1
  1
\A1;60\S+0.02^  0.00;
  0
POINT
  5
681
100
AcDbEntity
  8
DEFPOINTS
  6
BYBLOCK
 62
     0
100
AcDbPoint
 10
75.021227
 20
122.11837
 30
0.0
  0
POINT
  5
682
100
AcDbEntity
  8
DEFPOINTS
  6
BYBLOCK
 62
     0
100
AcDbPoint
 10
135.021227
 20
122.11837
 30
0.0
  0
POINT
  5
683
100
AcDbEntity
  8
DEFPOINTS
  6
BYBLOCK
 62
     0
100
AcDbPoint
 10
135.021227
 20
99.318547
 30
0.0
  0
ENDBLK
  5
684
100
AcDbEntity
  8
0
100
AcDbBlockEnd
  0
BLOCK
  5
63E
100
AcDbEntity
  8
0
100
AcDbBlockBegin
  2
*D7
 70
    65
 10
0.0
 20
0.0
 30
0.0
  3
*D7
  1

  0
LINE
  5
63F
100
AcDbEntity
  8
0
  6
BYBLOCK
 62
     0
100
AcDbLine
 10
84.261884
 20
64.825938
 30
0.0
 11
98.214262
 21
64.825938
 31
0.0
  0
ARC
  5
640
100
AcDbEntity
  8
0
  6
BYBLOCK
 62
     0
100
AcDbCircle
 10
83.631884
 20
64.825938
 30
0.0
 40
13.332377
100
AcDbArc
 50
281.19126
 51
348.80874
  0
SOLID
  5
641
100
AcDbEntity
  8
0
  6
BYBLOCK
 62
     0
100
AcDbTrace
 10
86.261748
 20
51.315811
 30
0.0
 11
86.177242
 21
52.178348
 31
0.0
 12
83.631884
 22
51.493561
 32
0.0
 13
83.631884
 23
51.493561
 33
0.0
  0
SOLID
  5
642
100
AcDbEntity
  8
0
  6
BYBLOCK
 62
     0
100
AcDbTrace
 10
96.279475
 20
62.280581
 30
0.0
 11
97.142012
 21
62.196075
 31
0.0
 12
96.964262
 22
64.825938
 32
0.0
 13
96.964262
 23
64.825938
 33
0.0
  0
MTEXT
  5
643
100
AcDbEntity
  8
0
  6
BYBLOCK
 62
     0
100
AcDbMText
 10
91.553161
 20
56.904662
 30
0.0
 40
3.0
 41
0.0
 71
     5
 72
     1
  1
\A1;90°
 11
0.707107
 21
0.707107
 31
0.0
  0
POINT
  5
644
100
AcDbEntity
  8
DEFPOINTS
  6
BYBLOCK
 62
     0
100
AcDbPoint
 10
90.298073
 20
53.279761
 30
0.0
  0
POINT
  5
645
100
AcDbEntity
  8
DEFPOINTS
  6
BYBLOCK
 62
     0
100
AcDbPoint
 10
83.631884
 20
64.825938
 30
0.0
  0
POINT
  5
646
100
AcDbEntity
  8
DEFPOINTS
  6
BYBLOCK
 62
     0
100
AcDbPoint
 10
83.631884
 20
48.825938
 30
0.0
  0
POINT
  5
647
100
AcDbEntity
  8
DEFPOINTS
  6
BYBLOCK
 62
     0
100
AcDbPoint
 10
83.631884
 20
64.825938
 30
0.0
  0
POINT
  5
648
100
AcDbEntity
  8
DEFPOINTS
  6
BYBLOCK
 62
     0
100
AcDbPoint
 10
62.62614
 20
64.825938
 30
0.0
  0
ENDBLK
  5
649
100
AcDbEntity
  8
0
100
AcDbBlockEnd
  0
BLOCK
  5
64E
100
AcDbEntity
  8
0
100
AcDbBlockBegin
  2
*D8
 70
    65
 10
0.0
 20
0.0
 30
0.0
  3
*D8
  1

  0
LINE
  5
64F
100
AcDbEntity
  8
0
  6
BYBLOCK
 62
     0
100
AcDbLine
 10
43.014203
 20
64.82656
 30
0.0
 11
28.302942
 21
64.841174
 31
0.0
  0
LINE
  5
650
100
AcDbEntity
  8
0
  6
BYBLOCK
 62
     0
100
AcDbLine
 10
43.631259
 20
51.795939
 30
0.0
 11
43.628963
 21
49.484674
 31
0.0
  0
ARC
  5
651
100
AcDbEntity
  8
0
  6
BYBLOCK
 62
     0
100
AcDbCircle
 10
43.644202
 20
64.825934
 30
0.0
 40
14.091268
100
AcDbArc
 50
190.529864
 51
259.356303
  0
SOLID
  5
652
100
AcDbEntity
  8
0
  6
BYBLOCK
 62
     0
100
AcDbTrace
 10
29.35871
 20
62.211234
 30
0.0
 11
30.221759
 21
62.290332
 31
0.0
 12
29.552942
 22
64.839932
 32
0.0
 13
29.552942
 23
64.839932
 33
0.0
  0
SOLID
  5
653
100
AcDbEntity
  8
0
  6
BYBLOCK
 62
     0
100
AcDbTrace
 10
41.081938
 20
51.408555
 30
0.0
 11
41.001126
 21
50.545664
 31
0.0
 12
43.630204
 22
50.734673
 32
0.0
 13
43.630204
 23
50.734673
 33
0.0
  0
MTEXT
  5
654
100
AcDbEntity
  8
0
  6
BYBLOCK
 62
     0
100
AcDbMText
 10
35.177911
 20
56.376446
 30
0.0
 40
3.0
 41
0.0
 71
     5
 72
     1
  1
\A1;90°
 11
0.706404
 21
-0.707809
 31
0.0
  0
POINT
  5
655
100
AcDbEntity
  8
DEFPOINTS
  6
BYBLOCK
 62
     0
100
AcDbPoint
 10
31.433814
 20
57.792426
 30
0.0
  0
POINT
  5
656
100
AcDbEntity
  8
DEFPOINTS
  6
BYBLOCK
 62
     0
100
AcDbPoint
 10
43.651002
 20
64.825927
 30
0.0
  0
POINT
  5
657
100
AcDbEntity
  8
DEFPOINTS
  6
BYBLOCK
 62
     0
100
AcDbPoint
 10
43.631884
 20
52.425938
 30
0.0
  0
POINT
  5
658
100
AcDbEntity
  8
DEFPOINTS
  6
BYBLOCK
 62
     0
100
AcDbPoint
 10
43.644202
 20
64.825934
 30
0.0
  0
POINT
  5
659
100
AcDbEntity
  8
DEFPOINTS
  6
BYBLOCK
 62
     0
100
AcDbPoint
 10
60.509163
 20
64.80918
 30
0.0
  0
ENDBLK
  5
65A
100
AcDbEntity
  8
0
100
AcDbBlockEnd
  0
BLOCK
  5
65D
100
AcDbEntity
  8
0
100
AcDbBlockBegin
  2
*D9
 70
    65
 10
0.0
 20
0.0
 30
0.0
  3
*D9
  1

  0
LINE
  5
65E
100
AcDbEntity
  8
0
  6
BYBLOCK
 62
     0
100
AcDbLine
 10
43.651002
 20
65.455927
 30
0.0
 11
43.651002
 21
76.165747
 31
0.0
  0
LINE
  5
65F
100
AcDbEntity
  8
0
  6
BYBLOCK
 62
     0
100
AcDbLine
 10
83.631884
 20
65.455938
 30
0.0
 11
83.631884
 21
76.165747
 31
0.0
  0
LINE
  5
660
100
AcDbEntity
  8
0
  6
BYBLOCK
 62
     0
100
AcDbLine
 10
46.251002
 20
74.915747
 30
0.0
 11
81.031884
 21
74.915747
 31
0.0
  0
SOLID
  5
661
100
AcDbEntity
  8
0
  6
BYBLOCK
 62
     0
100
AcDbTrace
 10
46.251002
 20
75.34908
 30
0.0
 11
46.251002
 21
74.482414
 31
0.0
 12
43.651002
 22
74.915747
 32
0.0
 13
43.651002
 23
74.915747
 33
0.0
  0
SOLID
  5
662
100
AcDbEntity
  8
0
  6
BYBLOCK
 62
     0
100
AcDbTrace
 10
81.031884
 20
75.34908
 30
0.0
 11
81.031884
 21
74.482414
 31
0.0
 12
83.631884
 22
74.915747
 32
0.0
 13
83.631884
 23
74.915747
 33
0.0
  0
MTEXT
  5
663
100
AcDbEntity
  8
0
  6
BYBLOCK
 62
     0
100
AcDbMText
 10
63.641443
 20
77.045747
 30
0.0
 40
3.0
 41
0.0
 71
     5
 72
     1
  1
\A1;{835}
  0
POINT
  5
664
100
AcDbEntity
  8
DEFPOINTS
  6
BYBLOCK
 62
     0
100
AcDbPoint
 10
43.651002
 20
64.825927
 30
0.0
  0
POINT
  5
665
100
AcDbEntity
  8
DEFPOINTS
  6
BYBLOCK
 62
     0
100
AcDbPoint
 10
83.631884
 20
64.825938
 30
0.0
  0
POINT
  5
666
100
AcDbEntity
  8
DEFPOINTS
  6
BYBLOCK
 62
     0
100
AcDbPoint
 10
83.631884
 20
74.915747
 30
0.0
  0
ENDBLK
  5
667
100
AcDbEntity
  8
0
100
AcDbBlockEnd
  0
BLOCK
  5
6A9
100
AcDbEntity
  8
0
100
AcDbBlockBegin
  2
*D10
 70
    65
 10
0.0
 20
0.0
 30
0.0
  3
*D10
  1

  0
LINE
  5
6AA
100
AcDbEntity
  8
0
  6
BYBLOCK
 62
     0
100
AcDbLine
 10
159.366998
 20
253.110842
 30
0.0
 11
159.366998
 21
261.197405
 31
0.0
  0
LINE
  5
6AB
100
AcDbEntity
  8
0
  6
BYBLOCK
 62
     0
100
AcDbLine
 10
165.366998
 20
253.110842
 30
0.0
 11
165.366998
 21
261.197405
 31
0.0
  0
LINE
  5
6AC
100
AcDbEntity
  8
0
  6
BYBLOCK
 62
     0
100
AcDbLine
 10
156.766998
 20
259.947405
 30
0.0
 11
154.166998
 21
259.947405
 31
0.0
  0
LINE
  5
6AD
100
AcDbEntity
  8
0
  6
BYBLOCK
 62
     0
100
AcDbLine
 10
167.966998
 20
259.947405
 30
0.0
 11
170.566998
 21
259.947405
 31
0.0
  0
LINE
  5
6AE
100
AcDbEntity
  8
0
  6
BYBLOCK
 62
     0
100
AcDbLine
 10
159.366998
 20
259.947405
 30
0.0
 11
165.366998
 21
259.947405
 31
0.0
  0
SOLID
  5
6AF
100
AcDbEntity
  8
0
  6
BYBLOCK
 62
     0
100
AcDbTrace
 10
156.766998
 20
260.380738
 30
0.0
 11
156.766998
 21
259.514072
 31
0.0
 12
159.366998
 22
259.947405
 32
0.0
 13
159.366998
 23
259.947405
 33
0.0
  0
SOLID
  5
6B0
100
AcDbEntity
  8
0
  6
BYBLOCK
 62
     0
100
AcDbTrace
 10
167.966998
 20
260.380738
 30
0.0
 11
167.966998
 21
259.514072
 31
0.0
 12
165.366998
 22
259.947405
 32
0.0
 13
165.366998
 23
259.947405
 33
0.0
  0
MTEXT
  5
6B1
100
AcDbEntity
  8
0
  6
BYBLOCK
 62
     0
100
AcDbMText
 10
162.366998
 20
262.077405
 30
0.0
 40
3.0
 41
0.0
 71
     5
 72
     1
  1
\A1;6
  0
POINT
  5
6B2
100
AcDbEntity
  8
DEFPOINTS
  6
BYBLOCK
 62
     0
100
AcDbPoint
 10
159.366998
 20
252.480842
 30
0.0
  0
POINT
  5
6B3
100
AcDbEntity
  8
DEFPOINTS
  6
BYBLOCK
 62
     0
100
AcDbPoint
 10
165.366998
 20
252.480842
 30
0.0
  0
POINT
  5
6B4
100
AcDbEntity
  8
DEFPOINTS
  6
BYBLOCK
 62
     0
100
AcDbPoint
 10
165.366998
 20
259.947405
 30
0.0
  0
ENDBLK
  5
6B5
100
AcDbEntity
  8
0
100
AcDbBlockEnd
  0
BLOCK
  5
6BA
100
AcDbEntity
  8
0
100
AcDbBlockBegin
  2
*D11
 70
    65
 10
0.0
 20
0.0
 30
0.0
  3
*D11
  1

  0
LINE
  5
6BB
100
AcDbEntity
  8
0
  6
BYBLOCK
 62
     0
100
AcDbLine
 10
162.051998
 20
246.739093
 30
0.0
 11
144.085397
 21
215.620028
 31
0.0
  0
LINE
  5
6BC
100
AcDbEntity
  8
0
  6
BYBLOCK
 62
     0
100
AcDbLine
 10
162.681998
 20
246.739093
 30
0.0
 11
180.648598
 21
215.620028
 31
0.0
  0
ARC
  5
6BD
100
AcDbEntity
  8
0
  6
BYBLOCK
 62
     0
100
AcDbCircle
 10
162.366998
 20
247.284689
 30
0.0
 40
35.313201
100
AcDbArc
 50
244.219461
 51
295.780538
  0
SOLID
  5
6BE
100
AcDbEntity
  8
0
  6
BYBLOCK
 62
     0
100
AcDbTrace
 10
146.80569
 20
215.103333
 30
0.0
 11
147.211099
 21
215.869332
 31
0.0
 12
144.710397
 22
216.70256
 32
0.0
 13
144.710397
 23
216.70256
 33
0.0
  0
SOLID
  5
6BF
100
AcDbEntity
  8
0
  6
BYBLOCK
 62
     0
100
AcDbTrace
 10
177.522896
 20
215.869332
 30
0.0
 11
177.928306
 21
215.103333
 31
0.0
 12
180.023598
 22
216.70256
 32
0.0
 13
180.023598
 23
216.70256
 33
0.0
  0
MTEXT
  5
6C0
100
AcDbEntity
  8
0
  6
BYBLOCK
 62
     0
100
AcDbMText
 10
162.366998
 20
214.101488
 30
0.0
 40
3.0
 41
0.0
 71
     5
 72
     1
  1
\A1;60°
 11
1.0
 21
0.0
 31
0.0
  0
POINT
  5
6C1
100
AcDbEntity
  8
DEFPOINTS
  6
BYBLOCK
 62
     0
100
AcDbPoint
 10
156.234924
 20
212.507975
 30
0.0
  0
POINT
  5
6C2
100
AcDbEntity
  8
DEFPOINTS
  6
BYBLOCK
 62
     0
100
AcDbPoint
 10
159.511335
 20
252.230842
 30
0.0
  0
POINT
  5
6C3
100
AcDbEntity
  8
DEFPOINTS
  6
BYBLOCK
 62
     0
100
AcDbPoint
 10
165.22266
 20
252.230842
 30
0.0
  0
POINT
  5
6C4
100
AcDbEntity
  8
DEFPOINTS
  6
BYBLOCK
 62
     0
100
AcDbPoint
 10
162.713408
 20
247.884689
 30
0.0
  0
POINT
  5
6C5
100
AcDbEntity
  8
DEFPOINTS
  6
BYBLOCK
 62
     0
100
AcDbPoint
 10
162.020587
 20
247.884689
 30
0.0
  0
ENDBLK
  5
6C6
100
AcDbEntity
  8
0
100
AcDbBlockEnd
  0
BLOCK
  5
6CD
100
AcDbEntity
  8
0
100
AcDbBlockBegin
  2
*D12
 70
    65
 10
0.0
 20
0.0
 30
0.0
  3
*D12
  1

  0
LINE
  5
6CE
100
AcDbEntity
  8
0
  6
BYBLOCK
 62
     0
100
AcDbLine
 10
165.051676
 20
246.734689
 30
0.0
 11
174.217918
 21
241.442557
 31
0.0
  0
LINE
  5
6CF
100
AcDbEntity
  8
0
  6
BYBLOCK
 62
     0
100
AcDbLine
 10
162.366998
 20
248.284689
 30
0.0
 11
162.80001
 21
248.034689
 31
0.0
  0
SOLID
  5
6D0
100
AcDbEntity
  8
0
  6
BYBLOCK
 62
     0
100
AcDbTrace
 10
165.268343
 20
247.109967
 30
0.0
 11
164.83501
 21
246.359411
 31
0.0
 12
162.80001
 22
248.034689
 32
0.0
 13
162.80001
 23
248.034689
 33
0.0
  0
MTEXT
  5
6D1
100
AcDbEntity
  8
0
  6
BYBLOCK
 62
     0
100
AcDbMText
 10
171.82563
 20
245.283257
 30
0.0
 40
3.0
 41
0.0
 71
     5
 72
     1
  1
\A1;R0.5
 11
0.866025
 21
-0.5
 31
0.0
  0
LINE
  5
6D2
100
AcDbEntity
  8
0
  6
BYBLOCK
 62
     0
100
AcDbLine
 10
160.266998
 20
248.284689
 30
0.0
 11
164.466998
 21
248.284689
 31
0.0
  0
LINE
  5
6D3
100
AcDbEntity
  8
0
  6
BYBLOCK
 62
     0
100
AcDbLine
 10
162.366998
 20
246.184689
 30
0.0
 11
162.366998
 21
250.384689
 31
0.0
  0
POINT
  5
6D4
100
AcDbEntity
  8
DEFPOINTS
  6
BYBLOCK
 62
     0
100
AcDbPoint
 10
162.80001
 20
248.034689
 30
0.0
  0
POINT
  5
6D5
100
AcDbEntity
  8
DEFPOINTS
  6
BYBLOCK
 62
     0
100
AcDbPoint
 10
162.366998
 20
248.284689
 30
0.0
  0
ENDBLK
  5
6D6
100
AcDbEntity
  8
0
100
AcDbBlockEnd
  0
BLOCK
  5
704
100
AcDbEntity
  8
0
100
AcDbBlockBegin
  2
*D13
 70
    65
 10
0.0
 20
0.0
 30
0.0
  3
*D13
  1

  0
LINE
  5
705
100
AcDbEntity
  8
0
  6
BYBLOCK
 62
     0
100
AcDbLine
 10
168.362654
 20
250.470129
 30
0.0
 11
177.692277
 21
245.263454
 31
0.0
  0
LINE
  5
706
100
AcDbEntity
  8
0
  6
BYBLOCK
 62
     0
100
AcDbLine
 10
165.655673
 20
251.980842
 30
0.0
 11
166.092283
 21
251.737178
 31
0.0
  0
SOLID
  5
707
100
AcDbEntity
  8
0
  6
BYBLOCK
 62
     0
100
AcDbTrace
 10
168.573829
 20
250.848525
 30
0.0
 11
168.151479
 21
250.091734
 31
0.0
 12
166.092283
 22
251.737178
 32
0.0
 13
166.092283
 23
251.737178
 33
0.0
  0
MTEXT
  5
708
100
AcDbEntity
  8
0
  6
BYBLOCK
 62
     0
100
AcDbMText
 10
175.244273
 20
249.068884
 30
0.0
 40
3.0
 41
0.0
 71
     5
 72
     1
  1
\A1;R0.5
 11
0.87322
 21
-0.487326
 31
0.0
  0
LINE
  5
709
100
AcDbEntity
  8
0
  6
BYBLOCK
 62
     0
100
AcDbLine
 10
163.555673
 20
251.980842
 30
0.0
 11
167.755673
 21
251.980842
 31
0.0
  0
LINE
  5
70A
100
AcDbEntity
  8
0
  6
BYBLOCK
 62
     0
100
AcDbLine
 10
165.655673
 20
249.880842
 30
0.0
 11
165.655673
 21
254.080842
 31
0.0
  0
POINT
  5
70B
100
AcDbEntity
  8
DEFPOINTS
  6
BYBLOCK
 62
     0
100
AcDbPoint
 10
166.092283
 20
251.737178
 30
0.0
  0
POINT
  5
70C
100
AcDbEntity
  8
DEFPOINTS
  6
BYBLOCK
 62
     0
100
AcDbPoint
 10
165.655673
 20
251.980842
 30
0.0
  0
ENDBLK
  5
70D
100
AcDbEntity
  8
0
100
AcDbBlockEnd
  0
BLOCK
  5
70E
100
AcDbEntity
  8
0
100
AcDbBlockBegin
  2
*D14
 70
    65
 10
0.0
 20
0.0
 30
0.0
  3
*D14
  1

  0
LINE
  5
70F
100
AcDbEntity
  8
0
  6
BYBLOCK
 62
     0
100
AcDbLine
 10
156.543464
 20
250.196327
 30
0.0
 11
139.668097
 21
238.316246
 31
0.0
  0
LINE
  5
710
100
AcDbEntity
  8
0
  6
BYBLOCK
 62
     0
100
AcDbLine
 10
159.078322
 20
251.980842
 30
0.0
 11
158.669474
 21
251.693017
 31
0.0
  0
SOLID
  5
711
100
AcDbEntity
  8
0
  6
BYBLOCK
 62
     0
100
AcDbTrace
 10
156.294015
 20
250.550662
 30
0.0
 11
156.792912
 21
249.841992
 31
0.0
 12
158.669474
 22
251.693017
 32
0.0
 13
158.669474
 23
251.693017
 33
0.0
  0
MTEXT
  5
712
100
AcDbEntity
  8
0
  6
BYBLOCK
 62
     0
100
AcDbMText
 10
141.706316
 20
242.356009
 30
0.0
 40
3.0
 41
0.0
 71
     5
 72
     1
  1
\A1;R0.5
 11
0.817696
 21
0.57565
 31
0.0
  0
LINE
  5
713
100
AcDbEntity
  8
0
  6
BYBLOCK
 62
     0
100
AcDbLine
 10
156.978322
 20
251.980842
 30
0.0
 11
161.178322
 21
251.980842
 31
0.0
  0
LINE
  5
714
100
AcDbEntity
  8
0
  6
BYBLOCK
 62
     0
100
AcDbLine
 10
159.078322
 20
249.880842
 30
0.0
 11
159.078322
 21
254.080842
 31
0.0
  0
POINT
  5
715
100
AcDbEntity
  8
DEFPOINTS
  6
BYBLOCK
 62
     0
100
AcDbPoint
 10
158.669474
 20
251.693017
 30
0.0
  0
POINT
  5
716
100
AcDbEntity
  8
DEFPOINTS
  6
BYBLOCK
 62
     0
100
AcDbPoint
 10
159.078322
 20
251.980842
 30
0.0
  0
ENDBLK
  5
717
100
AcDbEntity
  8
0
100
AcDbBlockEnd
  0
BLOCK
  5
72E
100
AcDbEntity
  8
0
100
AcDbBlockBegin
  2
*D15
 70
    65
 10
0.0
 20
0.0
 30
0.0
  3
*D15
  1

  0
LINE
  5
72F
100
AcDbEntity
  8
0
  6
BYBLOCK
 62
     0
100
AcDbLine
 10
109.882645
 20
204.701897
 30
0.0
 11
112.139731
 21
205.992462
 31
0.0
  0
LINE
  5
730
100
AcDbEntity
  8
0
  6
BYBLOCK
 62
     0
100
AcDbLine
 10
100.159809
 20
199.142538
 30
0.0
 11
85.642456
 21
190.841753
 31
0.0
  0
LINE
  5
731
100
AcDbEntity
  8
0
  6
BYBLOCK
 62
     0
100
AcDbLine
 10
107.625558
 20
203.411332
 30
0.0
 11
102.416896
 21
200.433104
 31
0.0
  0
SOLID
  5
732
100
AcDbEntity
  8
0
  6
BYBLOCK
 62
     0
100
AcDbTrace
 10
109.66755
 20
205.078078
 30
0.0
 11
110.097739
 21
204.325716
 31
0.0
 12
107.625558
 22
203.411332
 32
0.0
 13
107.625558
 23
203.411332
 33
0.0
  0
SOLID
  5
733
100
AcDbEntity
  8
0
  6
BYBLOCK
 62
     0
100
AcDbTrace
 10
99.944715
 20
199.518719
 30
0.0
 11
100.374903
 21
198.766357
 31
0.0
 12
102.416896
 22
200.433104
 32
0.0
 13
102.416896
 23
200.433104
 33
0.0
  0
MTEXT
  5
734
100
AcDbEntity
  8
0
  6
BYBLOCK
 62
     0
100
AcDbMText
 10
86.96743
 20
194.052957
 30
0.0
 40
3.0
 41
0.0
 71
     5
 72
     1
  1
\A1;\U+22056
 11
0.86811
 21
0.496371
 31
0.0
  0
LINE
  5
735
100
AcDbEntity
  8
0
  6
BYBLOCK
 62
     0
100
AcDbLine
 10
102.921227
 20
201.922218
 30
0.0
 11
107.121227
 21
201.922218
 31
0.0
  0
LINE
  5
736
100
AcDbEntity
  8
0
  6
BYBLOCK
 62
     0
100
AcDbLine
 10
105.021227
 20
199.822218
 30
0.0
 11
105.021227
 21
204.022218
 31
0.0
  0
POINT
  5
737
100
AcDbEntity
  8
DEFPOINTS
  6
BYBLOCK
 62
     0
100
AcDbPoint
 10
102.416896
 20
200.433104
 30
0.0
  0
POINT
  5
738
100
AcDbEntity
  8
DEFPOINTS
  6
BYBLOCK
 62
     0
100
AcDbPoint
 10
107.625558
 20
203.411332
 30
0.0
  0
ENDBLK
  5
739
100
AcDbEntity
  8
0
100
AcDbBlockEnd
  0
BLOCK
  5
749
100
AcDbEntity
  8
0
100
AcDbBlockBegin
  2
*D16
 70
    65
 10
0.0
 20
0.0
 30
0.0
  3
*D16
  1

  0
LINE
  5
74A
100
AcDbEntity
  8
0
  6
BYBLOCK
 62
     0
100
AcDbLine
 10
104.391227
 20
204.922218
 30
0.0
 11
42.142492
 21
204.922218
 31
0.0
  0
LINE
  5
74B
100
AcDbEntity
  8
0
  6
BYBLOCK
 62
     0
100
AcDbLine
 10
75.391227
 20
121.11837
 30
0.0
 11
42.142492
 21
121.11837
 31
0.0
  0
LINE
  5
74C
100
AcDbEntity
  8
0
  6
BYBLOCK
 62
     0
100
AcDbLine
 10
43.392492
 20
202.322218
 30
0.0
 11
43.392492
 21
123.71837
 31
0.0
  0
SOLID
  5
74D
100
AcDbEntity
  8
0
  6
BYBLOCK
 62
     0
100
AcDbTrace
 10
42.959159
 20
202.322218
 30
0.0
 11
43.825825
 21
202.322218
 31
0.0
 12
43.392492
 22
204.922218
 32
0.0
 13
43.392492
 23
204.922218
 33
0.0
  0
SOLID
  5
74E
100
AcDbEntity
  8
0
  6
BYBLOCK
 62
     0
100
AcDbTrace
 10
42.959159
 20
123.71837
 30
0.0
 11
43.825825
 21
123.71837
 31
0.0
 12
43.392492
 22
121.11837
 32
0.0
 13
43.392492
 23
121.11837
 33
0.0
  0
MTEXT
  5
74F
100
AcDbEntity
  8
0
  6
BYBLOCK
 62
     0
100
AcDbMText
 10
39.336606
 20
163.020294
 30
0.0
 40
3.0
 41
0.0
 71
     5
 72
     1
  1
\A1;83.8\S+0.02^  0.00;
 11
0.0
 21
1.0
 31
0.0
  0
POINT
  5
750
100
AcDbEntity
  8
DEFPOINTS
  6
BYBLOCK
 62
     0
100
AcDbPoint
 10
105.021227
 20
204.922218
 30
0.0
  0
POINT
  5
751
100
AcDbEntity
  8
DEFPOINTS
  6
BYBLOCK
 62
     0
100
AcDbPoint
 10
76.021227
 20
121.11837
 30
0.0
  0
POINT
  5
752
100
AcDbEntity
  8
DEFPOINTS
  6
BYBLOCK
 62
     0
100
AcDbPoint
 10
43.392492
 20
121.11837
 30
0.0
  0
ENDBLK
  5
753
100
AcDbEntity
  8
0
100
AcDbBlockEnd
  0
BLOCK
  5
766
100
AcDbEntity
  8
0
100
AcDbBlockBegin
  2
*X17
 70
    65
 10
0.0
 20
0.0
 30
0.0
  3
*X17
  1

  0
LINE
  5
768
100
AcDbEntity
  8
0
  6
CONTINUOUS
 62
     0
100
AcDbLine
 10
103.24822
 20
196.86739
 30
0.0
 11
104.026304
 21
197.645474
 31
0.0
  0
LINE
  5
769
100
AcDbEntity
  8
0
  6
CONTINUOUS
 62
     0
100
AcDbLine
 10
103.165521
 20
197.009197
 30
0.0
 11
103.944129
 21
197.787806
 31
0.0
  0
LINE
  5
76A
100
AcDbEntity
  8
0
  6
CONTINUOUS
 62
     0
100
AcDbLine
 10
103.082822
 20
197.151004
 30
0.0
 11
103.861954
 21
197.930137
 31
0.0
  0
LINE
  5
76B
100
AcDbEntity
  8
0
  6
CONTINUOUS
 62
     0
100
AcDbLine
 10
103.000122
 20
197.292812
 30
0.0
 11
103.779779
 21
198.072468
 31
0.0
  0
LINE
  5
76C
100
AcDbEntity
  8
0
  6
CONTINUOUS
 62
     0
100
AcDbLine
 10
102.917423
 20
197.434619
 30
0.0
 11
103.697604
 21
198.2148
 31
0.0
  0
LINE
  5
76D
100
AcDbEntity
  8
0
  6
CONTINUOUS
 62
     0
100
AcDbLine
 10
102.834724
 20
197.576426
 30
0.0
 11
103.615429
 21
198.357131
 31
0.0
  0
LINE
  5
76E
100
AcDbEntity
  8
0
  6
CONTINUOUS
 62
     0
100
AcDbLine
 10
102.752025
 20
197.718234
 30
0.0
 11
103.533254
 21
198.499462
 31
0.0
  0
LINE
  5
76F
100
AcDbEntity
  8
0
  6
CONTINUOUS
 62
     0
100
AcDbLine
 10
102.669326
 20
197.860041
 30
0.0
 11
103.451079
 21
198.641794
 31
0.0
  0
LINE
  5
770
100
AcDbEntity
  8
0
  6
CONTINUOUS
 62
     0
100
AcDbLine
 10
102.586627
 20
198.001848
 30
0.0
 11
103.368904
 21
198.784125
 31
0.0
  0
LINE
  5
771
100
AcDbEntity
  8
0
  6
CONTINUOUS
 62
     0
100
AcDbLine
 10
102.503928
 20
198.143656
 30
0.0
 11
103.286729
 21
198.926456
 31
0.0
  0
LINE
  5
772
100
AcDbEntity
  8
0
  6
CONTINUOUS
 62
     0
100
AcDbLine
 10
102.421229
 20
198.285463
 30
0.0
 11
103.204554
 21
199.068788
 31
0.0
  0
LINE
  5
773
100
AcDbEntity
  8
0
  6
CONTINUOUS
 62
     0
100
AcDbLine
 10
102.33853
 20
198.42727
 30
0.0
 11
103.122379
 21
199.211119
 31
0.0
  0
LINE
  5
774
100
AcDbEntity
  8
0
  6
CONTINUOUS
 62
     0
100
AcDbLine
 10
102.255831
 20
198.569078
 30
0.0
 11
103.040204
 21
199.353451
 31
0.0
  0
LINE
  5
775
100
AcDbEntity
  8
0
  6
CONTINUOUS
 62
     0
100
AcDbLine
 10
102.173132
 20
198.710885
 30
0.0
 11
102.958029
 21
199.495782
 31
0.0
  0
LINE
  5
776
100
AcDbEntity
  8
0
  6
CONTINUOUS
 62
     0
100
AcDbLine
 10
102.090432
 20
198.852692
 30
0.0
 11
102.875854
 21
199.638113
 31
0.0
  0
LINE
  5
777
100
AcDbEntity
  8
0
  6
CONTINUOUS
 62
     0
100
AcDbLine
 10
102.007733
 20
198.994499
 30
0.0
 11
102.793679
 21
199.780445
 31
0.0
  0
LINE
  5
778
100
AcDbEntity
  8
0
  6
CONTINUOUS
 62
     0
100
AcDbLine
 10
101.925034
 20
199.136307
 30
0.0
 11
102.711503
 21
199.922776
 31
0.0
  0
LINE
  5
779
100
AcDbEntity
  8
0
  6
CONTINUOUS
 62
     0
100
AcDbLine
 10
101.842335
 20
199.278114
 30
0.0
 11
102.629328
 21
200.065107
 31
0.0
  0
LINE
  5
77A
100
AcDbEntity
  8
0
  6
CONTINUOUS
 62
     0
100
AcDbLine
 10
101.759636
 20
199.419921
 30
0.0
 11
102.547153
 21
200.207439
 31
0.0
  0
LINE
  5
77B
100
AcDbEntity
  8
0
  6
CONTINUOUS
 62
     0
100
AcDbLine
 10
101.676937
 20
199.561729
 30
0.0
 11
102.464978
 21
200.34977
 31
0.0
  0
LINE
  5
77C
100
AcDbEntity
  8
0
  6
CONTINUOUS
 62
     0
100
AcDbLine
 10
101.5927
 20
199.701998
 30
0.0
 11
102.382803
 21
200.492101
 31
0.0
  0
LINE
  5
77D
100
AcDbEntity
  8
0
  6
CONTINUOUS
 62
     0
100
AcDbLine
 10
101.481136
 20
199.81494
 30
0.0
 11
102.300628
 21
200.634433
 31
0.0
  0
LINE
  5
77E
100
AcDbEntity
  8
0
  6
CONTINUOUS
 62
     0
100
AcDbLine
 10
101.331509
 20
199.88982
 30
0.0
 11
102.218453
 21
200.776764
 31
0.0
  0
LINE
  5
77F
100
AcDbEntity
  8
0
  6
CONTINUOUS
 62
     0
100
AcDbLine
 10
101.129082
 20
199.911899
 30
0.0
 11
102.133835
 21
200.916652
 31
0.0
  0
LINE
  5
780
100
AcDbEntity
  8
0
  6
CONTINUOUS
 62
     0
100
AcDbLine
 10
100.905952
 20
199.913276
 30
0.0
 11
102.020094
 21
201.027417
 31
0.0
  0
LINE
  5
781
100
AcDbEntity
  8
0
  6
CONTINUOUS
 62
     0
100
AcDbLine
 10
100.682823
 20
199.914653
 30
0.0
 11
101.867878
 21
201.099709
 31
0.0
  0
LINE
  5
782
100
AcDbEntity
  8
0
  6
CONTINUOUS
 62
     0
100
AcDbLine
 10
100.459693
 20
199.91603
 30
0.0
 11
101.662034
 21
201.11837
 31
0.0
  0
LINE
  5
783
100
AcDbEntity
  8
0
  6
CONTINUOUS
 62
     0
100
AcDbLine
 10
100.236563
 20
199.917406
 30
0.0
 11
101.437527
 21
201.11837
 31
0.0
  0
LINE
  5
784
100
AcDbEntity
  8
0
  6
CONTINUOUS
 62
     0
100
AcDbLine
 10
100.013434
 20
199.918783
 30
0.0
 11
101.213021
 21
201.11837
 31
0.0
  0
LINE
  5
785
100
AcDbEntity
  8
0
  6
CONTINUOUS
 62
     0
100
AcDbLine
 10
99.790304
 20
199.92016
 30
0.0
 11
100.988514
 21
201.11837
 31
0.0
  0
LINE
  5
786
100
AcDbEntity
  8
0
  6
CONTINUOUS
 62
     0
100
AcDbLine
 10
99.567175
 20
199.921537
 30
0.0
 11
100.764008
 21
201.11837
 31
0.0
  0
LINE
  5
787
100
AcDbEntity
  8
0
  6
CONTINUOUS
 62
     0
100
AcDbLine
 10
99.344045
 20
199.922914
 30
0.0
 11
100.539502
 21
201.11837
 31
0.0
  0
LINE
  5
788
100
AcDbEntity
  8
0
  6
CONTINUOUS
 62
     0
100
AcDbLine
 10
99.120915
 20
199.92429
 30
0.0
 11
100.314995
 21
201.11837
 31
0.0
  0
LINE
  5
789
100
AcDbEntity
  8
0
  6
CONTINUOUS
 62
     0
100
AcDbLine
 10
98.897786
 20
199.925667
 30
0.0
 11
100.090489
 21
201.11837
 31
0.0
  0
LINE
  5
78A
100
AcDbEntity
  8
0
  6
CONTINUOUS
 62
     0
100
AcDbLine
 10
98.674656
 20
199.927044
 30
0.0
 11
99.865982
 21
201.11837
 31
0.0
  0
LINE
  5
78B
100
AcDbEntity
  8
0
  6
CONTINUOUS
 62
     0
100
AcDbLine
 10
98.451527
 20
199.928421
 30
0.0
 11
99.641476
 21
201.11837
 31
0.0
  0
LINE
  5
78C
100
AcDbEntity
  8
0
  6
CONTINUOUS
 62
     0
100
AcDbLine
 10
98.228397
 20
199.929798
 30
0.0
 11
99.416969
 21
201.11837
 31
0.0
  0
LINE
  5
78D
100
AcDbEntity
  8
0
  6
CONTINUOUS
 62
     0
100
AcDbLine
 10
103.330919
 20
196.725583
 30
0.0
 11
104.108479
 21
197.503143
 31
0.0
  0
LINE
  5
78E
100
AcDbEntity
  8
0
  6
CONTINUOUS
 62
     0
100
AcDbLine
 10
103.413618
 20
196.583775
 30
0.0
 11
104.190654
 21
197.360812
 31
0.0
  0
LINE
  5
78F
100
AcDbEntity
  8
0
  6
CONTINUOUS
 62
     0
100
AcDbLine
 10
103.496317
 20
196.441968
 30
0.0
 11
104.272829
 21
197.21848
 31
0.0
  0
LINE
  5
790
100
AcDbEntity
  8
0
  6
CONTINUOUS
 62
     0
100
AcDbLine
 10
107.814285
 20
200.759935
 30
0.0
 11
108.144606
 21
201.090257
 31
0.0
  0
LINE
  5
791
100
AcDbEntity
  8
0
  6
CONTINUOUS
 62
     0
100
AcDbLine
 10
103.684354
 20
196.405498
 30
0.0
 11
104.355004
 21
197.076149
 31
0.0
  0
LINE
  5
792
100
AcDbEntity
  8
0
  6
CONTINUOUS
 62
     0
100
AcDbLine
 10
107.507603
 20
200.228748
 30
0.0
 11
108.397226
 21
201.11837
 31
0.0
  0
LINE
  5
793
100
AcDbEntity
  8
0
  6
CONTINUOUS
 62
     0
100
AcDbLine
 10
103.90886
 20
196.405498
 30
0.0
 11
104.437179
 21
196.933817
 31
0.0
  0
LINE
  5
794
100
AcDbEntity
  8
0
  6
CONTINUOUS
 62
     0
100
AcDbLine
 10
107.200922
 20
199.69756
 30
0.0
 11
108.621732
 21
201.11837
 31
0.0
  0
LINE
  5
795
100
AcDbEntity
  8
0
  6
CONTINUOUS
 62
     0
100
AcDbLine
 10
104.133367
 20
196.405498
 30
0.0
 11
104.519354
 21
196.791486
 31
0.0
  0
LINE
  5
796
100
AcDbEntity
  8
0
  6
CONTINUOUS
 62
     0
100
AcDbLine
 10
106.89424
 20
199.166372
 30
0.0
 11
108.846238
 21
201.11837
 31
0.0
  0
LINE
  5
797
100
AcDbEntity
  8
0
  6
CONTINUOUS
 62
     0
100
AcDbLine
 10
104.357873
 20
196.405498
 30
0.0
 11
104.602042
 21
196.649667
 31
0.0
  0
LINE
  5
798
100
AcDbEntity
  8
0
  6
CONTINUOUS
 62
     0
100
AcDbLine
 10
106.587559
 20
198.635184
 30
0.0
 11
109.070745
 21
201.11837
 31
0.0
  0
LINE
  5
799
100
AcDbEntity
  8
0
  6
CONTINUOUS
 62
     0
100
AcDbLine
 10
104.582379
 20
196.405498
 30
0.0
 11
104.70876
 21
196.531879
 31
0.0
  0
LINE
  5
79A
100
AcDbEntity
  8
0
  6
CONTINUOUS
 62
     0
100
AcDbLine
 10
106.280877
 20
198.103996
 30
0.0
 11
109.295251
 21
201.11837
 31
0.0
  0
LINE
  5
79B
100
AcDbEntity
  8
0
  6
CONTINUOUS
 62
     0
100
AcDbLine
 10
104.806886
 20
196.405498
 30
0.0
 11
104.85282
 21
196.451432
 31
0.0
  0
LINE
  5
79C
100
AcDbEntity
  8
0
  6
CONTINUOUS
 62
     0
100
AcDbLine
 10
105.974196
 20
197.572808
 30
0.0
 11
109.519758
 21
201.11837
 31
0.0
  0
LINE
  5
79D
100
AcDbEntity
  8
0
  6
CONTINUOUS
 62
     0
100
AcDbLine
 10
105.031392
 20
196.405498
 30
0.0
 11
105.048877
 21
196.422983
 31
0.0
  0
LINE
  5
79E
100
AcDbEntity
  8
0
  6
CONTINUOUS
 62
     0
100
AcDbLine
 10
105.667514
 20
197.04162
 30
0.0
 11
109.744264
 21
201.11837
 31
0.0
  0
LINE
  5
79F
100
AcDbEntity
  8
0
  6
CONTINUOUS
 62
     0
100
AcDbLine
 10
105.255899
 20
196.405498
 30
0.0
 11
108.422768
 21
199.572368
 31
0.0
  0
LINE
  5
7A0
100
AcDbEntity
  8
0
  6
CONTINUOUS
 62
     0
100
AcDbLine
 10
108.754226
 20
199.903825
 30
0.0
 11
109.96877
 21
201.11837
 31
0.0
  0
LINE
  5
7A1
100
AcDbEntity
  8
0
  6
CONTINUOUS
 62
     0
100
AcDbLine
 10
105.480405
 20
196.405498
 30
0.0
 11
108.118424
 21
199.043518
 31
0.0
  0
LINE
  5
7A2
100
AcDbEntity
  8
0
  6
CONTINUOUS
 62
     0
100
AcDbLine
 10
109.005983
 20
199.931076
 30
0.0
 11
110.193277
 21
201.11837
 31
0.0
  0
LINE
  5
7A3
100
AcDbEntity
  8
0
  6
CONTINUOUS
 62
     0
100
AcDbLine
 10
105.704911
 20
196.405498
 30
0.0
 11
107.814081
 21
198.514667
 31
0.0
  0
LINE
  5
7A4
100
AcDbEntity
  8
0
  6
CONTINUOUS
 62
     0
100
AcDbLine
 10
109.230489
 20
199.931076
 30
0.0
 11
110.417783
 21
201.11837
 31
0.0
  0
LINE
  5
7A5
100
AcDbEntity
  8
0
  6
CONTINUOUS
 62
     0
100
AcDbLine
 10
105.929418
 20
196.405498
 30
0.0
 11
107.509737
 21
197.985817
 31
0.0
  0
LINE
  5
7A6
100
AcDbEntity
  8
0
  6
CONTINUOUS
 62
     0
100
AcDbLine
 10
109.454996
 20
199.931076
 30
0.0
 11
110.64229
 21
201.11837
 31
0.0
  0
LINE
  5
7A7
100
AcDbEntity
  8
0
  6
CONTINUOUS
 62
     0
100
AcDbLine
 10
106.153924
 20
196.405498
 30
0.0
 11
107.205393
 21
197.456967
 31
0.0
  0
LINE
  5
7A8
100
AcDbEntity
  8
0
  6
CONTINUOUS
 62
     0
100
AcDbLine
 10
109.679502
 20
199.931076
 30
0.0
 11
110.866796
 21
201.11837
 31
0.0
  0
LINE
  5
7A9
100
AcDbEntity
  8
0
  6
CONTINUOUS
 62
     0
100
AcDbLine
 10
106.378431
 20
196.405498
 30
0.0
 11
106.901049
 21
196.928117
 31
0.0
  0
LINE
  5
7AA
100
AcDbEntity
  8
0
  6
CONTINUOUS
 62
     0
100
AcDbLine
 10
109.904008
 20
199.931076
 30
0.0
 11
111.091302
 21
201.11837
 31
0.0
  0
LINE
  5
7AB
100
AcDbEntity
  8
0
  6
CONTINUOUS
 62
     0
100
AcDbLine
 10
110.128515
 20
199.931076
 30
0.0
 11
111.315809
 21
201.11837
 31
0.0
  0
LINE
  5
7AC
100
AcDbEntity
  8
0
  6
CONTINUOUS
 62
     0
100
AcDbLine
 10
110.353021
 20
199.931076
 30
0.0
 11
111.530771
 21
201.108826
 31
0.0
  0
LINE
  5
7AD
100
AcDbEntity
  8
0
  6
CONTINUOUS
 62
     0
100
AcDbLine
 10
110.577528
 20
199.931076
 30
0.0
 11
111.643024
 21
200.996573
 31
0.0
  0
LINE
  5
7AE
100
AcDbEntity
  8
0
  6
CONTINUOUS
 62
     0
100
AcDbLine
 10
110.802034
 20
199.931076
 30
0.0
 11
111.755277
 21
200.884319
 31
0.0
  0
LINE
  5
7AF
100
AcDbEntity
  8
0
  6
CONTINUOUS
 62
     0
100
AcDbLine
 10
111.02654
 20
199.931076
 30
0.0
 11
111.867531
 21
200.772066
 31
0.0
  0
LINE
  5
7B0
100
AcDbEntity
  8
0
  6
CONTINUOUS
 62
     0
100
AcDbLine
 10
111.251047
 20
199.931076
 30
0.0
 11
111.979784
 21
200.659813
 31
0.0
  0
LINE
  5
7B1
100
AcDbEntity
  8
0
  6
CONTINUOUS
 62
     0
100
AcDbLine
 10
111.475553
 20
199.931076
 30
0.0
 11
112.021227
 21
200.47675
 31
0.0
  0
LINE
  5
7B2
100
AcDbEntity
  8
0
  6
CONTINUOUS
 62
     0
100
AcDbLine
 10
111.70006
 20
199.931076
 30
0.0
 11
112.021227
 21
200.252243
 31
0.0
  0
LINE
  5
7B3
100
AcDbEntity
  8
0
  6
CONTINUOUS
 62
     0
100
AcDbLine
 10
111.924566
 20
199.931076
 30
0.0
 11
112.021227
 21
200.027737
 31
0.0
  0
ENDBLK
  5
7B4
100
AcDbEntity
  8
0
100
AcDbBlockEnd
  0
ENDSEC
  0
SECTION
  2
ENTITIES
  0
LINE
  5
105
100
AcDbEntity
  8
OGGETTI
100
AcDbLine
 10
105.021227
 20
121.11837
 30
0.0
 11
134.021227
 21
121.11837
 31
0.0
  0
LINE
  5
106
100
AcDbEntity
  8
OGGETTI
100
AcDbLine
 10
135.021227
 20
122.11837
 30
0.0
 11
135.021227
 21
138.11837
 31
0.0
  0
LINE
  5
107
100
AcDbEntity
  8
OGGETTI
100
AcDbLine
 10
134.021227
 20
139.11837
 30
0.0
 11
112.021227
 21
139.11837
 31
0.0
  0
LINE
  5
108
100
AcDbEntity
  8
OGGETTI
100
AcDbLine
 10
112.021227
 20
139.11837
 30
0.0
 11
112.021227
 21
200.61837
 31
0.0
  0
LINE
  5
10C
100
AcDbEntity
  8
OGGETTI
100
AcDbLine
 10
105.021227
 20
121.11837
 30
0.0
 11
76.021227
 21
121.11837
 31
0.0
  0
LINE
  5
10D
100
AcDbEntity
  8
OGGETTI
100
AcDbLine
 10
75.021227
 20
122.11837
 30
0.0
 11
75.021227
 21
138.11837
 31
0.0
  0
LINE
  5
10E
100
AcDbEntity
  8
OGGETTI
100
AcDbLine
 10
76.021227
 20
139.11837
 30
0.0
 11
98.021227
 21
139.11837
 31
0.0
  0
LINE
  5
10F
100
AcDbEntity
  8
OGGETTI
100
AcDbLine
 10
98.021227
 20
139.11837
 30
0.0
 11
98.021227
 21
200.61837
 31
0.0
  0
LINE
  5
115
100
AcDbEntity
  8
OGGETTI
100
AcDbLine
 10
75.021227
 20
138.11837
 30
0.0
 11
76.021227
 21
139.11837
 31
0.0
  0
LINE
  5
116
100
AcDbEntity
  8
OGGETTI
100
AcDbLine
 10
135.021227
 20
138.11837
 30
0.0
 11
134.021227
 21
139.11837
 31
0.0
  0
LINE
  5
117
100
AcDbEntity
  8
OGGETTI
100
AcDbLine
 10
135.021227
 20
122.11837
 30
0.0
 11
134.021227
 21
121.11837
 31
0.0
  0
LINE
  5
118
100
AcDbEntity
  8
OGGETTI
100
AcDbLine
 10
75.021227
 20
122.11837
 30
0.0
 11
76.021227
 21
121.11837
 31
0.0
  0
MTEXT
  5
121
100
AcDbEntity
  8
OGGETTI
100
AcDbMText
 10
32.315819
 20
28.71264
 30
0.0
 40
16.0
 41
71.279818
 71
     1
 72
     1
  1

  0
LINE
  5
13E
100
AcDbEntity
  8
OGGETTI
100
AcDbLine
 10
112.021227
 20
139.11837
 30
0.0
 11
112.021227
 21
200.61837
 31
0.0
  0
LINE
  5
13F
100
AcDbEntity
  8
OGGETTI
100
AcDbLine
 10
111.521227
 20
201.11837
 30
0.0
 11
108.309902
 21
201.11837
 31
0.0
1001
ACAD
1000
ASC_BOUNDS
1002
{
1070
    19
1002
}
  0
LINE
  5
141
100
AcDbEntity
  8
OGGETTI
100
AcDbLine
 10
98.021227
 20
139.11837
 30
0.0
 11
98.021227
 21
200.61837
 31
0.0
  0
LINE
  5
154
100
AcDbEntity
  8
OGGETTI
100
AcDbLine
 10
98.021227
 20
200.61837
 30
0.0
 11
98.521227
 21
201.11837
 31
0.0
1001
ACAD
1000
ASC_BOUNDS
1002
{
1070
    19
1002
}
  0
LINE
  5
155
100
AcDbEntity
  8
OGGETTI
100
AcDbLine
 10
112.021227
 20
200.61837
 30
0.0
 11
111.521227
 21
201.11837
 31
0.0
1001
ACAD
1000
ASC_BOUNDS
1002
{
1070
    19
1002
}
  0
TEXT
  5
3A4
100
AcDbEntity
  8
QUOTE
100
AcDbText
 10
173.110681
 20
257.29952
 30
0.0
 40
3.0
  1

100
AcDbText
  0
LINE
  5
69A
100
AcDbEntity
  8
OGGETTI
  6
CONTINUOUS
100
AcDbLine
 10
107.876889
 20
200.86837
 30
0.0
 11
105.45424
 21
196.672218
 31
0.0
1001
ACAD
1000
ASC_BOUNDS
1002
{
1070
    19
1002
}
  0
LINE
  5
69B
100
AcDbEntity
  8
OGGETTI
  6
CONTINUOUS
100
AcDbLine
 10
102.165564
 20
200.86837
 30
0.0
 11
104.588214
 21
196.672218
 31
0.0
1001
ACAD
1000
ASC_BOUNDS
1002
{
1070
    19
1002
}
  0
LINE
  5
69C
100
AcDbEntity
  8
OGGETTI
100
AcDbLine
 10
101.732552
 20
201.11837
 30
0.0
 11
98.521227
 21
201.11837
 31
0.0
1001
ACAD
1000
ASC_BOUNDS
1002
{
1070
    19
1002
}
  0
ARC
  5
6C8
100
AcDbEntity
  8
OGGETTI
  6
CONTINUOUS
100
AcDbCircle
 10
108.309902
 20
200.61837
 30
0.0
 40
0.5
100
AcDbArc
 50
90.0
 51
150.0
1001
ACAD
1000
ASC_BOUNDS
1002
{
1070
    19
1002
}
  0
ARC
  5
6C9
100
AcDbEntity
  8
OGGETTI
  6
CONTINUOUS
100
AcDbCircle
 10
101.732552
 20
200.61837
 30
0.0
 40
0.5
100
AcDbArc
 50
30.0
 51
90.0
1001
ACAD
1000
ASC_BOUNDS
1002
{
1070
    19
1002
}
  0
ARC
  5
6CB
100
AcDbEntity
  8
OGGETTI
  6
CONTINUOUS
100
AcDbCircle
 10
105.021227
 20
196.922218
 30
0.0
 40
0.5
100
AcDbArc
 50
210.0
 51
330.0
1001
ACAD
1000
ASC_BOUNDS
1002
{
1070
    19
1002
}
  0
MTEXT
  5
71F
100
AcDbEntity
  8
TESTO
  6
CONTINUOUS
100
AcDbMText
 10
44.049302
 20
81.269339
 30
0.0
 40
2.6
 41
0.0
 71
     9
 72
     1
  1

  0
LINE
  5
761
100
AcDbEntity
  8
OGGETTI
  6
CONTINUOUS
100
AcDbLine
 10
98.021227
 20
200.61837
 30
0.0
 11
98.021227
 21
199.931076
 31
0.0
  0
LINE
  5
762
100
AcDbEntity
  8
OGGETTI
  6
CONTINUOUS
100
AcDbLine
 10
112.021227
 20
200.61837
 30
0.0
 11
112.021227
 21
199.931076
 31
0.0
  0
LINE
  5
763
100
AcDbEntity
  8
OGGETTI
  6
CONTINUOUS
100
AcDbLine
 10
98.021227
 20
200.61837
 30
0.0
 11
98.021227
 21
199.931076
 31
0.0
  0
LINE
  5
764
100
AcDbEntity
  8
OGGETTI
  6
CONTINUOUS
100
AcDbLine
 10
112.021227
 20
200.61837
 30
0.0
 11
112.021227
 21
199.931076
 31
0.0
1001
ACAD
1000
ASC_BOUNDS
1002
{
1070
    19
1002
}
  0
VIEWPORT
  5
22
100
AcDbEntity
 67
     1
  8
0
100
AcDbViewport
 10
272.205225
 20
154.724298
 30
0.0
 40
544.41045
 41
309.448596
 68
    -1
 69
     1
1001
ACAD
1000
MVIEW
1002
{
1070
    16
1010
0.0
1020
0.0
1030
0.0
1010
0.0
1020
0.0
1030
1.0
1040
0.0
1040
309.448596
1040
272.205225
1040
154.724298
1040
50.0
1040
0.0
1040
0.0
1070
     0
1070
   100
1070
     1
1070
     0
1070
     0
1070
     0
1070
     0
1070
     0
1040
0.0
1040
0.0
1040
0.0
1040
1.0
1040
1.0
1040
10.0
1040
10.0
1070
     0
1002
{
1002
}
1002
}
  0
ENDSEC
  0
SECTION
  2
OBJECTS
  0
DICTIONARY
  5
C
100
AcDbDictionary
  3
ACAD_GROUP
350
D
  3
ACAD_MLINESTYLE
350
E
  0
DICTIONARY
  5
D
102
{ACAD_REACTORS
330
C
102
}
100
AcDbDictionary
  0
DICTIONARY
  5
E
102
{ACAD_REACTORS
330
C
102
}
100
AcDbDictionary
  3
STANDARD
350
13
  0
MLINESTYLE
  5
13
102
{ACAD_REACTORS
330
E
102
}
100
AcDbMlineStyle
  2
STANDARD
 70
     0
  3

 62
     0
 51
90.0
 52
90.0
 71
     2
 49
0.5
 62
   256
  6
BYLAYER
 49
-0.5
 62
   256
  6
BYLAYER
  0
ENDSEC
  0
EOF
