  0
SECTION
  2
HEADER
  9
$ACADVER
  1
AC1009
  9
$DWGCODEPAGE
  3
ansi_1252
  9
$INSBASE
 10
0.0
 20
0.0
 30
0.0
  9
$EXTMIN
 10
1.000E+20
 20
1.000E+20
 30
1.000E+20
  9
$EXTMAX
 10
-1.000E+20
 20
-1.000E+20
 30
-1.000E+20
  9
$LIMMIN
 10
0.0
 20
0.0
  9
$LIMMAX
 10
420.0
 20
297.0
  9
$ORTHOMODE
 70
     0
  9
$REGENMODE
 70
     1
  9
$FILLMODE
 70
     1
  9
$QTEXTMODE
 70
     0
  9
$MIRRTEXT
 70
     1
  9
$DRAGMODE
 70
     2
  9
$LTSCALE
 40
1.0
  9
$OSMODE
 70
    37
  9
$ATTMODE
 70
     1
  9
$TEXTSIZE
 40
2.5
  9
$TRACEWID
 40
1.0
  9
$TEXTSTYLE
  7
STANDARD
  9
$CLAYER
  8
0
  9
$CELTYPE
  6
BYLAYER
  9
$CECOLOR
 62
   256
  9
$DIMSCALE
 40
1.0
  9
$DIMASZ
 40
2.5
  9
$DIMEXO
 40
0.625
  9
$DIMDLI
 40
3.75
  9
$DIMRND
 40
0.0
  9
$DIMDLE
 40
0.0
  9
$DIMEXE
 40
1.25
  9
$DIMTP
 40
0.0
  9
$DIMTM
 40
0.0
  9
$DIMTXT
 40
2.5
  9
$DIMCEN
 40
2.5
  9
$DIMTSZ
 40
0.0
  9
$DIMTOL
 70
     0
  9
$DIMLIM
 70
     0
  9
$DIMTIH
 70
     0
  9
$DIMTOH
 70
     0
  9
$DIMSE1
 70
     0
  9
$DIMSE2
 70
     0
  9
$DIMTAD
 70
     1
  9
$DIMZIN
 70
     8
  9
$DIMBLK
  1

  9
$DIMASO
 70
     1
  9
$DIMSHO
 70
     1
  9
$DIMPOST
  1

  9
$DIMAPOST
  1

  9
$DIMALT
 70
     0
  9
$DIMALTD
 70
     3
  9
$DIMALTF
 40
0.039
  9
$DIMLFAC
 40
1.0
  9
$DIMTOFL
 70
     1
  9
$DIMTVP
 40
0.0
  9
$DIMTIX
 70
     0
  9
$DIMSOXD
 70
     0
  9
$DIMSAH
 70
     0
  9
$DIMBLK1
  1

  9
$DIMBLK2
  1

  9
$DIMSTYLE
  2
ISO-25
  9
$DIMCLRD
 70
     0
  9
$DIMCLRE
 70
     0
  9
$DIMCLRT
 70
     0
  9
$DIMTFAC
 40
1.0
  9
$DIMGAP
 40
0.625
  9
$LUNITS
 70
     2
  9
$LUPREC
 70
     4
  9
$SKETCHINC
 40
1.0
  9
$FILLETRAD
 40
10.0
  9
$AUNITS
 70
     0
  9
$AUPREC
 70
     0
  9
$MENU
  1
.
  9
$ELEVATION
 40
0.0
  9
$PELEVATION
 40
0.0
  9
$THICKNESS
 40
0.0
  9
$LIMCHECK
 70
     0
  9
$CHAMFERA
 40
0.0
  9
$CHAMFERB
 40
0.0
  9
$SKPOLY
 70
     0
  9
$TDCREATE
 40
2457613.393848599
  9
$TDUPDATE
 40
2457613.393848715
  9
$TDINDWG
 40
0.0000000116
  9
$TDUSRTIMER
 40
0.0000000116
  9
$USRTIMER
 70
     1
  9
$ANGBASE
 50
0.0
  9
$ANGDIR
 70
     0
  9
$PDMODE
 70
     0
  9
$PDSIZE
 40
0.0
  9
$PLINEWID
 40
0.0
  9
$COORDS
 70
     1
  9
$SPLFRAME
 70
     0
  9
$SPLINETYPE
 70
     6
  9
$SPLINESEGS
 70
     8
  9
$ATTDIA
 70
     0
  9
$ATTREQ
 70
     1
  9
$HANDLING
 70
     1
  9
$HANDSEED
  5
1A6
  9
$SURFTAB1
 70
     6
  9
$SURFTAB2
 70
     6
  9
$SURFTYPE
 70
     6
  9
$SURFU
 70
     6
  9
$SURFV
 70
     6
  9
$UCSNAME
  2

  9
$UCSORG
 10
0.0
 20
0.0
 30
0.0
  9
$UCSXDIR
 10
1.0
 20
0.0
 30
0.0
  9
$UCSYDIR
 10
0.0
 20
1.0
 30
0.0
  9
$PUCSNAME
  2

  9
$PUCSORG
 10
0.0
 20
0.0
 30
0.0
  9
$PUCSXDIR
 10
1.0
 20
0.0
 30
0.0
  9
$PUCSYDIR
 10
0.0
 20
1.0
 30
0.0
  9
$USERI1
 70
     0
  9
$USERI2
 70
     0
  9
$USERI3
 70
     0
  9
$USERI4
 70
     0
  9
$USERI5
 70
     0
  9
$USERR1
 40
0.0
  9
$USERR2
 40
0.0
  9
$USERR3
 40
0.0
  9
$USERR4
 40
0.0
  9
$USERR5
 40
0.0
  9
$WORLDVIEW
 70
     1
  9
$SHADEDGE
 70
     3
  9
$SHADEDIF
 70
    70
  9
$TILEMODE
 70
     1
  9
$MAXACTVP
 70
    64
  9
$PLIMCHECK
 70
     0
  9
$PEXTMIN
 10
1.000E+20
 20
1.000E+20
 30
1.000E+20
  9
$PEXTMAX
 10
-1.000E+20
 20
-1.000E+20
 30
-1.000E+20
  9
$PLIMMIN
 10
0.0
 20
0.0
  9
$PLIMMAX
 10
420.0
 20
297.0
  9
$UNITMODE
 70
     0
  9
$VISRETAIN
 70
     1
  9
$PLINEGEN
 70
     0
  9
$PSLTSCALE
 70
     1
  0
ENDSEC
  0
SECTION
  2
TABLES
  0
TABLE
  2
VPORT
 70
     1
  0
VPORT
  2
*ACTIVE
 70
     0
 10
0.0
 20
0.0
 11
1.0
 21
1.0
 12
344.187
 22
148.5
 13
0.0
 23
0.0
 14
10.0
 24
10.0
 15
10.0
 25
10.0
 16
0.0
 26
0.0
 36
1.0
 17
0.0
 27
0.0
 37
0.0
 40
297.0
 41
1.973
 42
50.0
 43
0.0
 44
0.0
 50
0.0
 51
0.0
 71
     0
 72
   100
 73
     1
 74
     3
 75
     0
 76
     0
 77
     0
 78
     0
  0
ENDTAB
  0
TABLE
  2
LTYPE
 70
     3
  0
LTYPE
  2
CONTINUOUS
 70
     0
  3
Solid line
 72
    65
 73
     0
 40
0.0
  0
LTYPE
  2
CENTER2
 70
     0
  3
Center (.5x) ___ _ ___ _ ___ _ ___ _ ___ _ ___
 72
    65
 73
     4
 40
28.575
 49
19.05
 49
-3.175
 49
3.175
 49
-3.175
  0
LTYPE
  2
HIDDEN
 70
     0
  3
Hidden __ __ __ __ __ __ __ __ __ __ __ __ __ __
 72
    65
 73
     2
 40
9.525
 49
6.35
 49
-3.175
  0
ENDTAB
  0
TABLE
  2
LAYER
 70
    11
  0
LAYER
  2
0
 70
     0
 62
     7
  6
CONTINUOUS
  0
LAYER
  2
1
 70
     0
 62
     7
  6
CONTINUOUS
  0
LAYER
  2
2
 70
     0
 62
     1
  6
CENTER2
  0
LAYER
  2
3
 70
     0
 62
    11
  6
CONTINUOUS
  0
LAYER
  2
4
 70
     0
 62
     2
  6
CONTINUOUS
  0
LAYER
  2
5
 70
     0
 62
     5
  6
CONTINUOUS
  0
LAYER
  2
6
 70
     0
 62
     4
  6
CONTINUOUS
  0
LAYER
  2
7
 70
     0
 62
    92
  6
CONTINUOUS
  0
LAYER
  2
8
 70
     0
 62
     6
  6
HIDDEN
  0
LAYER
  2
9
 70
     0
 62
     8
  6
CONTINUOUS
  0
LAYER
  2
D
 70
     0
 62
     5
  6
CONTINUOUS
  0
ENDTAB
  0
TABLE
  2
STYLE
 70
     4
  0
STYLE
  2
STANDARD
 70
     0
 40
0.0
 41
1.0
 50
0.0
 71
     0
 42
2.5
  3
txt
  4

  0
STYLE
  2
DEFAULT
 70
     0
 40
0.0
 41
1.0
 50
0.0
 71
     0
 42
2.5
  3

  4

  0
STYLE
  2
ISO
 70
     0
 40
0.0
 41
1.0
 50
0.0
 71
     0
 42
2.5
  3

  4

  0
STYLE
  2
ROLLERI
 70
     0
 40
0.0
 41
1.0
 50
0.0
 71
     0
 42
2.5
  3

  4

  0
ENDTAB
  0
TABLE
  2
VIEW
 70
     0
  0
ENDTAB
  0
TABLE
  2
UCS
 70
     0
  0
ENDTAB
  0
TABLE
  2
APPID
 70
     1
  0
APPID
  2
ACAD
 70
     0
  0
ENDTAB
  0
TABLE
  2
DIMSTYLE
 70
     4
  0
DIMSTYLE
  2
ISO-25
 70
     0
  3

  4

  5

  6

  7

 40
1.0
 41
2.5
 42
0.625
 43
3.75
 44
1.25
 45
0.0
 46
0.0
 47
0.0
 48
0.0
140
2.5
141
2.5
142
0.0
143
0.039
144
1.0
145
0.0
146
1.0
147
0.625
 71
     0
 72
     0
 73
     0
 74
     0
 75
     0
 76
     0
 77
     1
 78
     8
170
     0
171
     3
172
     1
173
     0
174
     0
175
     0
176
     0
177
     0
178
     0
  0
DIMSTYLE
  2
DEFAULT
 70
     0
  3
<>
  4

  5
CLOSED
  6

  7

 40
1.0
 41
4.375
 42
1.05
 43
0.38
 44
2.1
 45
0.0
 46
0.0
 47
0.0
 48
0.0
140
3.5
141
0.09
142
0.0
143
25.4
144
1.0
145
0.0
146
0.4
147
1.75
 71
     0
 72
     0
 73
     0
 74
     0
 75
     0
 76
     0
 77
     1
 78
     8
170
     0
171
     2
172
     1
173
     0
174
     0
175
     0
176
     0
177
     0
178
     1
  0
DIMSTYLE
  2
ISO
 70
     0
  3
<>
  4

  5
CLOSED
  6

  7

 40
1.0
 41
4.375
 42
1.05
 43
0.38
 44
2.1
 45
0.0
 46
0.0
 47
0.0
 48
0.0
140
3.5
141
0.09
142
0.0
143
25.4
144
1.0
145
0.0
146
0.4
147
1.75
 71
     0
 72
     0
 73
     0
 74
     0
 75
     0
 76
     0
 77
     1
 78
     8
170
     0
171
     2
172
     1
173
     0
174
     0
175
     0
176
     0
177
     0
178
    21
  0
DIMSTYLE
  2
ROLLERI
 70
     0
  3
<>
  4

  5

  6

  7

 40
1.0
 41
2.975
 42
1.05
 43
0.38
 44
0.7
 45
0.0
 46
0.0
 47
0.0
 48
0.0
140
3.5
141
0.09
142
0.0
143
25.4
144
1.0
145
0.0
146
0.65
147
0.525
 71
     0
 72
     0
 73
     0
 74
     0
 75
     0
 76
     0
 77
     1
 78
     8
170
     0
171
     2
172
     1
173
     0
174
     0
175
     0
176
     0
177
     0
178
    21
  0
ENDTAB
  0
ENDSEC
  0
SECTION
  2
BLOCKS
  0
BLOCK
  8
0
  2
$MODEL_SPACE
 70
     0
 10
0.0
 20
0.0
 30
0.0
  3
$MODEL_SPACE
  1

  0
ENDBLK
  5
21
  8
0
  0
BLOCK
 67
     1
  8
0
  2
$PAPER_SPACE
 70
     0
 10
0.0
 20
0.0
 30
0.0
  3
$PAPER_SPACE
  1

  0
ENDBLK
  5
1D
 67
     1
  8
0
  0
BLOCK
  8
0
  2
_CLOSED
 70
     0
 10
0.0
 20
0.0
 30
0.0
  3
_CLOSED
  1

  0
LINE
  5
81
  8
0
  6
BYBLOCK
 62
     0
 10
-1.0
 20
0.167
 30
0.0
 11
0.0
 21
0.0
 31
0.0
  0
LINE
  5
82
  8
0
  6
BYBLOCK
 62
     0
 10
0.0
 20
0.0
 30
0.0
 11
-1.0
 21
-0.167
 31
0.0
  0
LINE
  5
83
  8
0
  6
BYBLOCK
 62
     0
 10
-1.0
 20
0.167
 30
0.0
 11
-1.0
 21
-0.167
 31
0.0
  0
LINE
  5
84
  8
0
  6
BYBLOCK
 62
     0
 10
0.0
 20
0.0
 30
0.0
 11
-1.0
 21
0.0
 31
0.0
  0
ENDBLK
  5
80
  8
0
  0
BLOCK
  8
0
  2
GRUPPO
 70
     0
 10
7733.061
 20
6363.612
 30
0.0
  3
GRUPPO
  1

  0
LINE
  5
88
  8
1
  6
CONTINUOUS
 62
     0
 10
7663.197
 20
6404.737
 30
0.0
 11
7662.517
 21
6403.769
 31
0.0
  0
INSERT
  5
AA
  8
1
  2
GRUPPO1
 10
7691.999
 20
6396.368
 30
0.0
  0
INSERT
  5
EC
  8
1
  2
GRUPPO4
 10
7733.061
 20
6363.487
 30
0.0
  0
INSERT
  5
10E
  8
1
  2
GRUPPO8
 10
7786.124
 20
6396.368
 30
0.0
  0
ENDBLK
  5
110
  8
0
  0
BLOCK
  8
0
  2
GRUPPO1
 70
     0
 10
7691.999
 20
6396.368
 30
0.0
  3
GRUPPO1
  1

  0
INSERT
  5
99
  8
1
  2
GRUPPO2
 10
7691.936
 20
6408.737
 30
0.0
  0
INSERT
  5
A7
  8
1
  2
GRUPPO3
 10
7696.039
 20
6390.362
 30
0.0
  0
ENDBLK
  5
A9
  8
0
  0
BLOCK
  8
0
  2
GRUPPO2
 70
     0
 10
7691.936
 20
6408.737
 30
0.0
  3
GRUPPO2
  1

  0
LINE
  5
8B
  8
1
  6
CONTINUOUS
 62
     0
 10
7689.186
 20
6404.737
 30
0.0
 11
7656.436
 21
6404.737
 31
0.0
  0
LINE
  5
8C
  8
1
  6
CONTINUOUS
 62
     0
 10
7654.436
 20
6406.737
 30
0.0
 11
7656.436
 21
6404.737
 31
0.0
  0
LINE
  5
8D
  8
1
  6
CONTINUOUS
 62
     0
 10
7654.436
 20
6406.737
 30
0.0
 11
7654.436
 21
6414.737
 31
0.0
  0
LINE
  5
8E
  8
1
  6
CONTINUOUS
 62
     0
 10
7656.436
 20
6416.737
 30
0.0
 11
7654.436
 21
6414.737
 31
0.0
  0
LINE
  5
8F
  8
1
  6
CONTINUOUS
 62
     0
 10
7656.436
 20
6416.737
 30
0.0
 11
7727.436
 21
6416.737
 31
0.0
  0
LINE
  5
90
  8
1
  6
CONTINUOUS
 62
     0
 10
7729.436
 20
6414.737
 30
0.0
 11
7727.436
 21
6416.737
 31
0.0
  0
LINE
  5
91
  8
1
  6
CONTINUOUS
 62
     0
 10
7729.436
 20
6414.737
 30
0.0
 11
7729.436
 21
6406.737
 31
0.0
  0
LINE
  5
92
  8
1
  6
CONTINUOUS
 62
     0
 10
7727.436
 20
6404.737
 30
0.0
 11
7729.436
 21
6406.737
 31
0.0
  0
LINE
  5
93
  8
1
  6
CONTINUOUS
 62
     0
 10
7727.436
 20
6404.737
 30
0.0
 11
7703.686
 21
6404.737
 31
0.0
  0
LINE
  5
94
  8
1
  6
CONTINUOUS
 62
     0
 10
7703.686
 20
6404.737
 30
0.0
 11
7703.686
 21
6400.737
 31
0.0
  0
LINE
  5
95
  8
1
  6
CONTINUOUS
 62
     0
 10
7689.186
 20
6400.737
 30
0.0
 11
7689.186
 21
6404.737
 31
0.0
  0
LINE
  5
96
  8
1
  6
CONTINUOUS
 62
     0
 10
7703.686
 20
6400.737
 30
0.0
 11
7689.186
 21
6400.737
 31
0.0
  0
ENDBLK
  5
98
  8
0
  0
BLOCK
  8
0
  2
GRUPPO3
 70
     0
 10
7696.039
 20
6390.362
 30
0.0
  3
GRUPPO3
  1

  0
LINE
  5
9B
  8
1
  6
CONTINUOUS
 62
     0
 10
7703.811
 20
6400.237
 30
0.0
 11
7689.061
 21
6400.237
 31
0.0
  0
LINE
  5
9C
  8
1
  6
CONTINUOUS
 62
     0
 10
7703.811
 20
6403.737
 30
0.0
 11
7703.811
 21
6400.237
 31
0.0
  0
LINE
  5
9D
  8
1
  6
CONTINUOUS
 62
     0
 10
7704.811
 20
6404.737
 30
0.0
 11
7703.811
 21
6403.737
 31
0.0
  0
LINE
  5
9E
  8
1
  6
CONTINUOUS
 62
     0
 10
7704.811
 20
6404.737
 30
0.0
 11
7728.561
 21
6404.737
 31
0.0
  0
LINE
  5
9F
  8
1
  6
CONTINUOUS
 62
     0
 10
7729.561
 20
6403.737
 30
0.0
 11
7728.561
 21
6404.737
 31
0.0
  0
LINE
  5
A0
  8
1
  6
CONTINUOUS
 62
     0
 10
7729.561
 20
6403.737
 30
0.0
 11
7729.561
 21
6399.849
 31
0.0
  0
ARC
  5
A1
  8
1
  6
CONTINUOUS
 62
     0
 10
7696.561
 20
6410.737
 30
0.0
 40
34.74999999986103
 50
191.569
 51
341.739
  0
LINE
  5
A2
  8
1
  6
CONTINUOUS
 62
     0
 10
7689.061
 20
6403.737
 30
0.0
 11
7688.061
 21
6404.737
 31
0.0
  0
LINE
  5
A3
  8
1
  6
CONTINUOUS
 62
     0
 10
7689.061
 20
6400.237
 30
0.0
 11
7689.061
 21
6403.737
 31
0.0
  0
LINE
  5
A4
  8
1
 10
7663.197
 20
6404.737
 30
0.0
 11
7688.061
 21
6404.737
 31
0.0
  0
ENDBLK
  5
A6
  8
0
  0
BLOCK
  8
0
  2
GRUPPO4
 70
     0
 10
7733.061
 20
6363.487
 30
0.0
  3
GRUPPO4
  1

  0
INSERT
  5
B9
  8
1
  2
GRUPPO5
 10
7649.561
 20
6386.487
 30
0.0
  0
INSERT
  5
DD
  8
1
  2
GRUPPO6
 10
7739.061
 20
6365.487
 30
0.0
  0
INSERT
  5
E9
  8
1
  2
GRUPPO7
 10
7739.061
 20
6318.487
 30
0.0
  0
ENDBLK
  5
EB
  8
0
  0
BLOCK
  8
0
  2
GRUPPO5
 70
     0
 10
7649.561
 20
6386.487
 30
0.0
  3
GRUPPO5
  1

  0
LINE
  5
AD
  8
1
  6
CONTINUOUS
 62
     0
 10
7656.561
 20
6356.487
 30
0.0
 11
7657.061
 21
6356.987
 31
0.0
  0
LINE
  5
AE
  8
1
  6
CONTINUOUS
 62
     0
 10
7643.061
 20
6356.487
 30
0.0
 11
7656.561
 21
6356.487
 31
0.0
  0
LINE
  5
AF
  8
1
  6
CONTINUOUS
 62
     0
 10
7647.061
 20
6416.487
 30
0.0
 11
7642.061
 21
6411.487
 31
0.0
  0
LINE
  5
B0
  8
1
  6
CONTINUOUS
 62
     0
 10
7654.061
 20
6416.487
 30
0.0
 11
7647.061
 21
6416.487
 31
0.0
  0
LINE
  5
B1
  8
1
  6
CONTINUOUS
 62
     0
 10
7654.061
 20
6366.487
 30
0.0
 11
7654.061
 21
6416.487
 31
0.0
  0
LINE
  5
B2
  8
1
  6
CONTINUOUS
 62
     0
 10
7656.561
 20
6366.487
 30
0.0
 11
7654.061
 21
6366.487
 31
0.0
  0
LINE
  5
B3
  8
1
  6
CONTINUOUS
 62
     0
 10
7657.061
 20
6365.987
 30
0.0
 11
7656.561
 21
6366.487
 31
0.0
  0
LINE
  5
B4
  8
1
  6
CONTINUOUS
 62
     0
 10
7657.061
 20
6356.987
 30
0.0
 11
7657.061
 21
6365.987
 31
0.0
  0
LINE
  5
B5
  8
1
  6
CONTINUOUS
 62
     0
 10
7642.061
 20
6411.487
 30
0.0
 11
7642.061
 21
6357.487
 31
0.0
  0
LINE
  5
B6
  8
1
  6
CONTINUOUS
 62
     0
 10
7642.061
 20
6357.487
 30
0.0
 11
7643.061
 21
6356.487
 31
0.0
  0
ENDBLK
  5
B8
  8
0
  0
BLOCK
  8
0
  2
GRUPPO6
 70
     0
 10
7739.061
 20
6365.487
 30
0.0
  3
GRUPPO6
  1

  0
LINE
  5
BB
  8
1
  6
CONTINUOUS
 62
     0
 10
7655.061
 20
6404.487
 30
0.0
 11
7654.061
 21
6403.487
 31
0.0
  0
LINE
  5
BC
  8
1
  6
CONTINUOUS
 62
     0
 10
7661.299
 20
6404.487
 30
0.0
 11
7655.061
 21
6404.487
 31
0.0
  0
ARC
  5
BD
  8
1
  6
CONTINUOUS
 62
     0
 10
7696.561
 20
6410.737
 30
0.0
 40
34.99999999986001
 50
191.618
 51
302.089
  0
LINE
  5
BE
  8
1
  6
CONTINUOUS
 62
     0
 10
7720.875
 20
6381.237
 30
0.0
 11
7715.686
 21
6381.237
 31
0.0
  0
ARC
  5
BF
  8
1
  6
CONTINUOUS
 62
     0
 10
7720.875
 20
6380.237
 30
0.0
 40
0.9999999999960002
 50
30.0
 51
90.0
  0
ARC
  5
C0
  8
1
  6
CONTINUOUS
 62
     0
 10
7739.061
 20
6390.737
 30
0.0
 40
19.99999999992002
 50
210.0
 51
330.0
  0
ARC
  5
C1
  8
1
  6
CONTINUOUS
 62
     0
 10
7757.248
 20
6380.237
 30
0.0
 40
0.9999999999960002
 50
90.0
 51
150.0
  0
LINE
  5
C2
  8
1
  6
CONTINUOUS
 62
     0
 10
7762.437
 20
6381.237
 30
0.0
 11
7757.248
 21
6381.237
 31
0.0
  0
ARC
  5
C3
  8
1
  6
CONTINUOUS
 62
     0
 10
7762.437
 20
6380.237
 30
0.0
 40
0.9999999999960171
 50
57.911
 51
90.0
  0
ARC
  5
C4
  8
1
  6
CONTINUOUS
 62
     0
 10
7781.561
 20
6410.737
 30
0.0
 40
34.99999999986002
 50
237.911
 51
348.382
  0
ARC
  5
C5
  8
1
  6
CONTINUOUS
 62
     0
 10
7816.824
 20
6403.487
 30
0.0
 40
0.9999999999960002
 50
90.0
 51
168.382
  0
LINE
  5
C6
  8
1
  6
CONTINUOUS
 62
     0
 10
7824.061
 20
6403.487
 30
0.0
 11
7823.061
 21
6404.487
 31
0.0
  0
LINE
  5
C7
  8
1
  6
CONTINUOUS
 62
     0
 10
7819.061
 20
6326.487
 30
0.0
 11
7824.061
 21
6331.487
 31
0.0
  0
LINE
  5
C8
  8
1
  6
CONTINUOUS
 62
     0
 10
7746.561
 20
6326.487
 30
0.0
 11
7819.061
 21
6326.487
 31
0.0
  0
LINE
  5
C9
  8
1
  6
CONTINUOUS
 62
     0
 10
7745.561
 20
6327.487
 30
0.0
 11
7746.561
 21
6326.487
 31
0.0
  0
LINE
  5
CA
  8
1
  6
CONTINUOUS
 62
     0
 10
7745.561
 20
6327.487
 30
0.0
 11
7745.561
 21
6331.487
 31
0.0
  0
LINE
  5
CB
  8
1
  6
CONTINUOUS
 62
     0
 10
7745.561
 20
6331.487
 30
0.0
 11
7732.561
 21
6331.487
 31
0.0
  0
LINE
  5
CC
  8
1
  6
CONTINUOUS
 62
     0
 10
7732.561
 20
6331.487
 30
0.0
 11
7732.561
 21
6327.487
 31
0.0
  0
LINE
  5
CD
  8
1
  6
CONTINUOUS
 62
     0
 10
7731.561
 20
6326.487
 30
0.0
 11
7732.561
 21
6327.487
 31
0.0
  0
LINE
  5
CE
  8
1
  6
CONTINUOUS
 62
     0
 10
7659.061
 20
6326.487
 30
0.0
 11
7731.561
 21
6326.487
 31
0.0
  0
LINE
  5
CF
  8
1
  6
CONTINUOUS
 62
     0
 10
7654.061
 20
6355.987
 30
0.0
 11
7654.061
 21
6331.487
 31
0.0
  0
LINE
  5
D0
  8
1
  6
CONTINUOUS
 62
     0
 10
7654.561
 20
6356.487
 30
0.0
 11
7654.061
 21
6355.987
 31
0.0
  0
LINE
  5
D1
  8
1
  6
CONTINUOUS
 62
     0
 10
7654.561
 20
6356.487
 30
0.0
 11
7657.561
 21
6356.487
 31
0.0
  0
LINE
  5
D2
  8
1
  6
CONTINUOUS
 62
     0
 10
7657.561
 20
6356.487
 30
0.0
 11
7657.561
 21
6366.987
 31
0.0
  0
LINE
  5
D3
  8
1
  6
CONTINUOUS
 62
     0
 10
7657.561
 20
6366.987
 30
0.0
 11
7654.561
 21
6366.987
 31
0.0
  0
LINE
  5
D4
  8
1
  6
CONTINUOUS
 62
     0
 10
7654.061
 20
6367.487
 30
0.0
 11
7654.561
 21
6366.987
 31
0.0
  0
LINE
  5
D5
  8
1
  6
CONTINUOUS
 62
     0
 10
7823.061
 20
6404.487
 30
0.0
 11
7816.824
 21
6404.487
 31
0.0
  0
LINE
  5
D6
  8
1
  6
CONTINUOUS
 62
     0
 10
7824.061
 20
6331.487
 30
0.0
 11
7824.061
 21
6403.487
 31
0.0
  0
LINE
  5
D7
  8
1
  6
CONTINUOUS
 62
     0
 10
7654.061
 20
6403.487
 30
0.0
 11
7654.061
 21
6367.487
 31
0.0
  0
LINE
  5
D8
  8
1
  6
CONTINUOUS
 62
     0
 10
7654.061
 20
6331.487
 30
0.0
 11
7659.061
 21
6326.487
 31
0.0
  0
ARC
  5
D9
  8
1
  6
CONTINUOUS
 62
     0
 10
7661.299
 20
6403.487
 30
0.0
 40
0.9999999999960032
 50
11.618
 51
90.0
  0
ARC
  5
DA
  8
1
  6
CONTINUOUS
 62
     0
 10
7715.686
 20
6380.237
 30
0.0
 40
0.9999999999960095
 50
90.0
 51
122.089
  0
ENDBLK
  5
DC
  8
0
  0
BLOCK
  8
0
  2
GRUPPO7
 70
     0
 10
7739.061
 20
6318.487
 30
0.0
  3
GRUPPO7
  1

  0
LINE
  5
DF
  8
1
  6
CONTINUOUS
 62
     0
 10
7709.061
 20
6311.487
 30
0.0
 11
7709.061
 21
6325.487
 31
0.0
  0
LINE
  5
E0
  8
1
  6
CONTINUOUS
 62
     0
 10
7709.061
 20
6325.487
 30
0.0
 11
7710.061
 21
6326.487
 31
0.0
  0
LINE
  5
E1
  8
1
  6
CONTINUOUS
 62
     0
 10
7710.061
 20
6326.487
 30
0.0
 11
7768.061
 21
6326.487
 31
0.0
  0
LINE
  5
E2
  8
1
  6
CONTINUOUS
 62
     0
 10
7768.061
 20
6326.487
 30
0.0
 11
7769.061
 21
6325.487
 31
0.0
  0
LINE
  5
E3
  8
1
  6
CONTINUOUS
 62
     0
 10
7769.061
 20
6325.487
 30
0.0
 11
7769.061
 21
6311.487
 31
0.0
  0
LINE
  5
E4
  8
1
  6
CONTINUOUS
 62
     0
 10
7769.061
 20
6311.487
 30
0.0
 11
7768.061
 21
6310.487
 31
0.0
  0
LINE
  5
E5
  8
1
  6
CONTINUOUS
 62
     0
 10
7768.061
 20
6310.487
 30
0.0
 11
7710.061
 21
6310.487
 31
0.0
  0
LINE
  5
E6
  8
1
  6
CONTINUOUS
 62
     0
 10
7710.061
 20
6310.487
 30
0.0
 11
7709.061
 21
6311.487
 31
0.0
  0
ENDBLK
  5
E8
  8
0
  0
BLOCK
  8
0
  2
GRUPPO8
 70
     0
 10
7786.124
 20
6396.368
 30
0.0
  3
GRUPPO8
  1

  0
INSERT
  5
FD
  8
1
  2
GRUPPO9
 10
7786.186
 20
6408.737
 30
0.0
  0
INSERT
  5
10B
  8
1
  2
GRUPPO10
 10
7782.083
 20
6390.362
 30
0.0
  0
ENDBLK
  5
10D
  8
0
  0
BLOCK
  8
0
  2
GRUPPO9
 70
     0
 10
7786.186
 20
6408.737
 30
0.0
  3
GRUPPO9
  1

  0
LINE
  5
EF
  8
1
  6
CONTINUOUS
 62
     0
 10
7788.936
 20
6404.737
 30
0.0
 11
7821.686
 21
6404.737
 31
0.0
  0
LINE
  5
F0
  8
1
  6
CONTINUOUS
 62
     0
 10
7823.686
 20
6406.737
 30
0.0
 11
7821.686
 21
6404.737
 31
0.0
  0
LINE
  5
F1
  8
1
  6
CONTINUOUS
 62
     0
 10
7823.686
 20
6406.737
 30
0.0
 11
7823.686
 21
6414.737
 31
0.0
  0
LINE
  5
F2
  8
1
  6
CONTINUOUS
 62
     0
 10
7821.686
 20
6416.737
 30
0.0
 11
7823.686
 21
6414.737
 31
0.0
  0
LINE
  5
F3
  8
1
  6
CONTINUOUS
 62
     0
 10
7821.686
 20
6416.737
 30
0.0
 11
7750.686
 21
6416.737
 31
0.0
  0
LINE
  5
F4
  8
1
  6
CONTINUOUS
 62
     0
 10
7748.686
 20
6414.737
 30
0.0
 11
7750.686
 21
6416.737
 31
0.0
  0
LINE
  5
F5
  8
1
  6
CONTINUOUS
 62
     0
 10
7748.686
 20
6414.737
 30
0.0
 11
7748.686
 21
6406.737
 31
0.0
  0
LINE
  5
F6
  8
1
  6
CONTINUOUS
 62
     0
 10
7750.686
 20
6404.737
 30
0.0
 11
7748.686
 21
6406.737
 31
0.0
  0
LINE
  5
F7
  8
1
  6
CONTINUOUS
 62
     0
 10
7750.686
 20
6404.737
 30
0.0
 11
7774.436
 21
6404.737
 31
0.0
  0
LINE
  5
F8
  8
1
  6
CONTINUOUS
 62
     0
 10
7774.436
 20
6404.737
 30
0.0
 11
7774.436
 21
6400.737
 31
0.0
  0
LINE
  5
F9
  8
1
  6
CONTINUOUS
 62
     0
 10
7788.936
 20
6400.737
 30
0.0
 11
7788.936
 21
6404.737
 31
0.0
  0
LINE
  5
FA
  8
1
  6
CONTINUOUS
 62
     0
 10
7774.436
 20
6400.737
 30
0.0
 11
7788.936
 21
6400.737
 31
0.0
  0
ENDBLK
  5
FC
  8
0
  0
BLOCK
  8
0
  2
GRUPPO10
 70
     0
 10
7782.083
 20
6390.362
 30
0.0
  3
GRUPPO10
  1

  0
LINE
  5
FF
  8
1
  6
CONTINUOUS
 62
     0
 10
7774.311
 20
6400.237
 30
0.0
 11
7789.061
 21
6400.237
 31
0.0
  0
LINE
  5
100
  8
1
  6
CONTINUOUS
 62
     0
 10
7774.311
 20
6403.737
 30
0.0
 11
7774.311
 21
6400.237
 31
0.0
  0
LINE
  5
101
  8
1
  6
CONTINUOUS
 62
     0
 10
7773.311
 20
6404.737
 30
0.0
 11
7774.311
 21
6403.737
 31
0.0
  0
LINE
  5
102
  8
1
  6
CONTINUOUS
 62
     0
 10
7773.311
 20
6404.737
 30
0.0
 11
7749.561
 21
6404.737
 31
0.0
  0
LINE
  5
103
  8
1
  6
CONTINUOUS
 62
     0
 10
7748.561
 20
6403.737
 30
0.0
 11
7749.561
 21
6404.737
 31
0.0
  0
LINE
  5
104
  8
1
  6
CONTINUOUS
 62
     0
 10
7748.561
 20
6403.737
 30
0.0
 11
7748.561
 21
6399.849
 31
0.0
  0
ARC
  5
105
  8
1
  6
CONTINUOUS
 62
     0
 10
7781.561
 20
6410.737
 30
0.0
 40
34.74999999986103
 50
198.261
 51
348.431
  0
LINE
  5
106
  8
1
  6
CONTINUOUS
 62
     0
 10
7789.061
 20
6403.737
 30
0.0
 11
7790.061
 21
6404.737
 31
0.0
  0
LINE
  5
107
  8
1
  6
CONTINUOUS
 62
     0
 10
7789.061
 20
6400.237
 30
0.0
 11
7789.061
 21
6403.737
 31
0.0
  0
LINE
  5
108
  8
1
 10
7814.925
 20
6404.737
 30
0.0
 11
7790.061
 21
6404.737
 31
0.0
  0
ENDBLK
  5
10A
  8
0
  0
BLOCK
  8
0
  2
GRUPPO11
 70
     0
 10
7998.061
 20
6363.612
 30
0.0
  3
GRUPPO11
  1

  0
LINE
  5
113
  8
1
  6
CONTINUOUS
 62
     0
 10
7928.197
 20
6404.737
 30
0.0
 11
7927.517
 21
6403.769
 31
0.0
  0
INSERT
  5
135
  8
1
  2
GRUPPO12
 10
7956.999
 20
6396.368
 30
0.0
  0
INSERT
  5
175
  8
1
  2
GRUPPO15
 10
7998.061
 20
6363.487
 30
0.0
  0
INSERT
  5
197
  8
1
  2
GRUPPO19
 10
8051.124
 20
6396.368
 30
0.0
  0
ENDBLK
  5
199
  8
0
  0
BLOCK
  8
0
  2
GRUPPO12
 70
     0
 10
7956.999
 20
6396.368
 30
0.0
  3
GRUPPO12
  1

  0
INSERT
  5
124
  8
1
  2
GRUPPO13
 10
7956.936
 20
6408.737
 30
0.0
  0
INSERT
  5
132
  8
1
  2
GRUPPO14
 10
7961.039
 20
6390.362
 30
0.0
  0
ENDBLK
  5
134
  8
0
  0
BLOCK
  8
0
  2
GRUPPO13
 70
     0
 10
7956.936
 20
6408.737
 30
0.0
  3
GRUPPO13
  1

  0
LINE
  5
116
  8
1
  6
CONTINUOUS
 62
     0
 10
7954.186
 20
6404.737
 30
0.0
 11
7921.436
 21
6404.737
 31
0.0
  0
LINE
  5
117
  8
1
  6
CONTINUOUS
 62
     0
 10
7919.436
 20
6406.737
 30
0.0
 11
7921.436
 21
6404.737
 31
0.0
  0
LINE
  5
118
  8
1
  6
CONTINUOUS
 62
     0
 10
7919.436
 20
6406.737
 30
0.0
 11
7919.436
 21
6414.737
 31
0.0
  0
LINE
  5
119
  8
1
  6
CONTINUOUS
 62
     0
 10
7921.436
 20
6416.737
 30
0.0
 11
7919.436
 21
6414.737
 31
0.0
  0
LINE
  5
11A
  8
1
  6
CONTINUOUS
 62
     0
 10
7921.436
 20
6416.737
 30
0.0
 11
7992.436
 21
6416.737
 31
0.0
  0
LINE
  5
11B
  8
1
  6
CONTINUOUS
 62
     0
 10
7994.436
 20
6414.737
 30
0.0
 11
7992.436
 21
6416.737
 31
0.0
  0
LINE
  5
11C
  8
1
  6
CONTINUOUS
 62
     0
 10
7994.436
 20
6414.737
 30
0.0
 11
7994.436
 21
6406.737
 31
0.0
  0
LINE
  5
11D
  8
1
  6
CONTINUOUS
 62
     0
 10
7992.436
 20
6404.737
 30
0.0
 11
7994.436
 21
6406.737
 31
0.0
  0
LINE
  5
11E
  8
1
  6
CONTINUOUS
 62
     0
 10
7992.436
 20
6404.737
 30
0.0
 11
7968.686
 21
6404.737
 31
0.0
  0
LINE
  5
11F
  8
1
  6
CONTINUOUS
 62
     0
 10
7968.686
 20
6404.737
 30
0.0
 11
7968.686
 21
6400.737
 31
0.0
  0
LINE
  5
120
  8
1
  6
CONTINUOUS
 62
     0
 10
7954.186
 20
6400.737
 30
0.0
 11
7954.186
 21
6404.737
 31
0.0
  0
LINE
  5
121
  8
1
  6
CONTINUOUS
 62
     0
 10
7968.686
 20
6400.737
 30
0.0
 11
7954.186
 21
6400.737
 31
0.0
  0
ENDBLK
  5
123
  8
0
  0
BLOCK
  8
0
  2
GRUPPO14
 70
     0
 10
7961.039
 20
6390.362
 30
0.0
  3
GRUPPO14
  1

  0
LINE
  5
126
  8
1
  6
CONTINUOUS
 62
     0
 10
7968.811
 20
6400.237
 30
0.0
 11
7954.061
 21
6400.237
 31
0.0
  0
LINE
  5
127
  8
1
  6
CONTINUOUS
 62
     0
 10
7968.811
 20
6403.737
 30
0.0
 11
7968.811
 21
6400.237
 31
0.0
  0
LINE
  5
128
  8
1
  6
CONTINUOUS
 62
     0
 10
7969.811
 20
6404.737
 30
0.0
 11
7968.811
 21
6403.737
 31
0.0
  0
LINE
  5
129
  8
1
  6
CONTINUOUS
 62
     0
 10
7969.811
 20
6404.737
 30
0.0
 11
7993.561
 21
6404.737
 31
0.0
  0
LINE
  5
12A
  8
1
  6
CONTINUOUS
 62
     0
 10
7994.561
 20
6403.737
 30
0.0
 11
7993.561
 21
6404.737
 31
0.0
  0
LINE
  5
12B
  8
1
  6
CONTINUOUS
 62
     0
 10
7994.561
 20
6403.737
 30
0.0
 11
7994.561
 21
6399.849
 31
0.0
  0
ARC
  5
12C
  8
1
  6
CONTINUOUS
 62
     0
 10
7961.561
 20
6410.737
 30
0.0
 40
34.74999999986103
 50
191.569
 51
341.739
  0
LINE
  5
12D
  8
1
  6
CONTINUOUS
 62
     0
 10
7954.061
 20
6403.737
 30
0.0
 11
7953.061
 21
6404.737
 31
0.0
  0
LINE
  5
12E
  8
1
  6
CONTINUOUS
 62
     0
 10
7954.061
 20
6400.237
 30
0.0
 11
7954.061
 21
6403.737
 31
0.0
  0
LINE
  5
12F
  8
1
 10
7928.197
 20
6404.737
 30
0.0
 11
7953.061
 21
6404.737
 31
0.0
  0
ENDBLK
  5
131
  8
0
  0
BLOCK
  8
0
  2
GRUPPO15
 70
     0
 10
7998.061
 20
6363.487
 30
0.0
  3
GRUPPO15
  1

  0
INSERT
  5
144
  8
1
  2
GRUPPO16
 10
7914.561
 20
6386.487
 30
0.0
  0
INSERT
  5
166
  8
1
  2
GRUPPO17
 10
8004.061
 20
6365.487
 30
0.0
  0
INSERT
  5
172
  8
1
  2
GRUPPO18
 10
8004.061
 20
6319.487
 30
0.0
  0
ENDBLK
  5
174
  8
0
  0
BLOCK
  8
0
  2
GRUPPO16
 70
     0
 10
7914.561
 20
6386.487
 30
0.0
  3
GRUPPO16
  1

  0
LINE
  5
138
  8
1
  6
CONTINUOUS
 62
     0
 10
7921.561
 20
6356.487
 30
0.0
 11
7922.061
 21
6356.987
 31
0.0
  0
LINE
  5
139
  8
1
  6
CONTINUOUS
 62
     0
 10
7908.061
 20
6356.487
 30
0.0
 11
7921.561
 21
6356.487
 31
0.0
  0
LINE
  5
13A
  8
1
  6
CONTINUOUS
 62
     0
 10
7912.061
 20
6416.487
 30
0.0
 11
7907.061
 21
6411.487
 31
0.0
  0
LINE
  5
13B
  8
1
  6
CONTINUOUS
 62
     0
 10
7919.061
 20
6416.487
 30
0.0
 11
7912.061
 21
6416.487
 31
0.0
  0
LINE
  5
13C
  8
1
  6
CONTINUOUS
 62
     0
 10
7919.061
 20
6366.487
 30
0.0
 11
7919.061
 21
6416.487
 31
0.0
  0
LINE
  5
13D
  8
1
  6
CONTINUOUS
 62
     0
 10
7921.561
 20
6366.487
 30
0.0
 11
7919.061
 21
6366.487
 31
0.0
  0
LINE
  5
13E
  8
1
  6
CONTINUOUS
 62
     0
 10
7922.061
 20
6365.987
 30
0.0
 11
7921.561
 21
6366.487
 31
0.0
  0
LINE
  5
13F
  8
1
  6
CONTINUOUS
 62
     0
 10
7922.061
 20
6356.987
 30
0.0
 11
7922.061
 21
6365.987
 31
0.0
  0
LINE
  5
140
  8
1
  6
CONTINUOUS
 62
     0
 10
7907.061
 20
6411.487
 30
0.0
 11
7907.061
 21
6357.487
 31
0.0
  0
LINE
  5
141
  8
1
  6
CONTINUOUS
 62
     0
 10
7907.061
 20
6357.487
 30
0.0
 11
7908.061
 21
6356.487
 31
0.0
  0
ENDBLK
  5
143
  8
0
  0
BLOCK
  8
0
  2
GRUPPO17
 70
     0
 10
8004.061
 20
6365.487
 30
0.0
  3
GRUPPO17
  1

  0
LINE
  5
146
  8
1
  6
CONTINUOUS
 62
     0
 10
7920.061
 20
6404.487
 30
0.0
 11
7919.061
 21
6403.487
 31
0.0
  0
LINE
  5
147
  8
1
  6
CONTINUOUS
 62
     0
 10
7926.299
 20
6404.487
 30
0.0
 11
7920.061
 21
6404.487
 31
0.0
  0
ARC
  5
148
  8
1
  6
CONTINUOUS
 62
     0
 10
7961.561
 20
6410.737
 30
0.0
 40
34.99999999986001
 50
191.618
 51
302.089
  0
LINE
  5
149
  8
1
  6
CONTINUOUS
 62
     0
 10
7985.875
 20
6381.237
 30
0.0
 11
7980.686
 21
6381.237
 31
0.0
  0
ARC
  5
14A
  8
1
  6
CONTINUOUS
 62
     0
 10
7985.875
 20
6380.237
 30
0.0
 40
0.9999999999960002
 50
30.0
 51
90.0
  0
ARC
  5
14B
  8
1
  6
CONTINUOUS
 62
     0
 10
8004.061
 20
6390.737
 30
0.0
 40
19.99999999992002
 50
210.0
 51
330.0
  0
ARC
  5
14C
  8
1
  6
CONTINUOUS
 62
     0
 10
8022.248
 20
6380.237
 30
0.0
 40
0.9999999999960002
 50
90.0
 51
150.0
  0
LINE
  5
14D
  8
1
  6
CONTINUOUS
 62
     0
 10
8027.437
 20
6381.237
 30
0.0
 11
8022.248
 21
6381.237
 31
0.0
  0
ARC
  5
14E
  8
1
  6
CONTINUOUS
 62
     0
 10
8027.437
 20
6380.237
 30
0.0
 40
0.9999999999960171
 50
57.911
 51
90.0
  0
ARC
  5
14F
  8
1
  6
CONTINUOUS
 62
     0
 10
8046.561
 20
6410.737
 30
0.0
 40
34.99999999986002
 50
237.911
 51
348.382
  0
ARC
  5
150
  8
1
  6
CONTINUOUS
 62
     0
 10
8081.824
 20
6403.487
 30
0.0
 40
0.9999999999960002
 50
90.0
 51
168.382
  0
LINE
  5
151
  8
1
  6
CONTINUOUS
 62
     0
 10
8089.061
 20
6403.487
 30
0.0
 11
8088.061
 21
6404.487
 31
0.0
  0
LINE
  5
152
  8
1
  6
CONTINUOUS
 62
     0
 10
8084.061
 20
6326.487
 30
0.0
 11
8089.061
 21
6331.487
 31
0.0
  0
LINE
  5
153
  8
1
  6
CONTINUOUS
 62
     0
 10
8010.561
 20
6326.487
 30
0.0
 11
8084.061
 21
6326.487
 31
0.0
  0
LINE
  5
154
  8
1
  6
CONTINUOUS
 62
     0
 10
8010.561
 20
6326.487
 30
0.0
 11
8010.561
 21
6331.487
 31
0.0
  0
LINE
  5
155
  8
1
  6
CONTINUOUS
 62
     0
 10
8010.561
 20
6331.487
 30
0.0
 11
7997.561
 21
6331.487
 31
0.0
  0
LINE
  5
156
  8
1
  6
CONTINUOUS
 62
     0
 10
7997.561
 20
6331.487
 30
0.0
 11
7997.561
 21
6326.487
 31
0.0
  0
LINE
  5
157
  8
1
  6
CONTINUOUS
 62
     0
 10
7924.061
 20
6326.487
 30
0.0
 11
7997.561
 21
6326.487
 31
0.0
  0
LINE
  5
158
  8
1
  6
CONTINUOUS
 62
     0
 10
7919.061
 20
6355.987
 30
0.0
 11
7919.061
 21
6331.487
 31
0.0
  0
LINE
  5
159
  8
1
  6
CONTINUOUS
 62
     0
 10
7919.561
 20
6356.487
 30
0.0
 11
7919.061
 21
6355.987
 31
0.0
  0
LINE
  5
15A
  8
1
  6
CONTINUOUS
 62
     0
 10
7919.561
 20
6356.487
 30
0.0
 11
7922.561
 21
6356.487
 31
0.0
  0
LINE
  5
15B
  8
1
  6
CONTINUOUS
 62
     0
 10
7922.561
 20
6356.487
 30
0.0
 11
7922.561
 21
6366.987
 31
0.0
  0
LINE
  5
15C
  8
1
  6
CONTINUOUS
 62
     0
 10
7922.561
 20
6366.987
 30
0.0
 11
7919.561
 21
6366.987
 31
0.0
  0
LINE
  5
15D
  8
1
  6
CONTINUOUS
 62
     0
 10
7919.061
 20
6367.487
 30
0.0
 11
7919.561
 21
6366.987
 31
0.0
  0
LINE
  5
15E
  8
1
  6
CONTINUOUS
 62
     0
 10
8088.061
 20
6404.487
 30
0.0
 11
8081.824
 21
6404.487
 31
0.0
  0
LINE
  5
15F
  8
1
  6
CONTINUOUS
 62
     0
 10
8089.061
 20
6331.487
 30
0.0
 11
8089.061
 21
6403.487
 31
0.0
  0
LINE
  5
160
  8
1
  6
CONTINUOUS
 62
     0
 10
7919.061
 20
6403.487
 30
0.0
 11
7919.061
 21
6367.487
 31
0.0
  0
LINE
  5
161
  8
1
  6
CONTINUOUS
 62
     0
 10
7919.061
 20
6331.487
 30
0.0
 11
7924.061
 21
6326.487
 31
0.0
  0
ARC
  5
162
  8
1
  6
CONTINUOUS
 62
     0
 10
7926.299
 20
6403.487
 30
0.0
 40
0.9999999999960032
 50
11.618
 51
90.0
  0
ARC
  5
163
  8
1
  6
CONTINUOUS
 62
     0
 10
7980.686
 20
6380.237
 30
0.0
 40
0.9999999999960095
 50
90.0
 51
122.089
  0
ENDBLK
  5
165
  8
0
  0
BLOCK
  8
0
  2
GRUPPO18
 70
     0
 10
8004.061
 20
6319.487
 30
0.0
  3
GRUPPO18
  1

  0
LINE
  5
168
  8
1
  6
CONTINUOUS
 62
     0
 10
7997.561
 20
6308.487
 30
0.0
 11
7997.561
 21
6330.487
 31
0.0
  0
LINE
  5
169
  8
1
  6
CONTINUOUS
 62
     0
 10
7997.561
 20
6330.487
 30
0.0
 11
7998.561
 21
6331.487
 31
0.0
  0
LINE
  5
16A
  8
1
  6
CONTINUOUS
 62
     0
 10
7998.561
 20
6331.487
 30
0.0
 11
8009.561
 21
6331.487
 31
0.0
  0
LINE
  5
16B
  8
1
  6
CONTINUOUS
 62
     0
 10
8009.561
 20
6331.487
 30
0.0
 11
8010.561
 21
6330.487
 31
0.0
  0
LINE
  5
16C
  8
1
  6
CONTINUOUS
 62
     0
 10
8010.561
 20
6330.487
 30
0.0
 11
8010.561
 21
6308.487
 31
0.0
  0
LINE
  5
16D
  8
1
  6
CONTINUOUS
 62
     0
 10
8010.561
 20
6308.487
 30
0.0
 11
8009.561
 21
6307.487
 31
0.0
  0
LINE
  5
16E
  8
1
  6
CONTINUOUS
 62
     0
 10
8009.561
 20
6307.487
 30
0.0
 11
7998.561
 21
6307.487
 31
0.0
  0
LINE
  5
16F
  8
1
  6
CONTINUOUS
 62
     0
 10
7998.561
 20
6307.487
 30
0.0
 11
7997.561
 21
6308.487
 31
0.0
  0
ENDBLK
  5
171
  8
0
  0
BLOCK
  8
0
  2
GRUPPO19
 70
     0
 10
8051.124
 20
6396.368
 30
0.0
  3
GRUPPO19
  1

  0
INSERT
  5
186
  8
1
  2
GRUPPO20
 10
8051.186
 20
6408.737
 30
0.0
  0
INSERT
  5
194
  8
1
  2
GRUPPO21
 10
8047.083
 20
6390.362
 30
0.0
  0
ENDBLK
  5
196
  8
0
  0
BLOCK
  8
0
  2
GRUPPO20
 70
     0
 10
8051.186
 20
6408.737
 30
0.0
  3
GRUPPO20
  1

  0
LINE
  5
178
  8
1
  6
CONTINUOUS
 62
     0
 10
8053.936
 20
6404.737
 30
0.0
 11
8086.686
 21
6404.737
 31
0.0
  0
LINE
  5
179
  8
1
  6
CONTINUOUS
 62
     0
 10
8088.686
 20
6406.737
 30
0.0
 11
8086.686
 21
6404.737
 31
0.0
  0
LINE
  5
17A
  8
1
  6
CONTINUOUS
 62
     0
 10
8088.686
 20
6406.737
 30
0.0
 11
8088.686
 21
6414.737
 31
0.0
  0
LINE
  5
17B
  8
1
  6
CONTINUOUS
 62
     0
 10
8086.686
 20
6416.737
 30
0.0
 11
8088.686
 21
6414.737
 31
0.0
  0
LINE
  5
17C
  8
1
  6
CONTINUOUS
 62
     0
 10
8086.686
 20
6416.737
 30
0.0
 11
8015.686
 21
6416.737
 31
0.0
  0
LINE
  5
17D
  8
1
  6
CONTINUOUS
 62
     0
 10
8013.686
 20
6414.737
 30
0.0
 11
8015.686
 21
6416.737
 31
0.0
  0
LINE
  5
17E
  8
1
  6
CONTINUOUS
 62
     0
 10
8013.686
 20
6414.737
 30
0.0
 11
8013.686
 21
6406.737
 31
0.0
  0
LINE
  5
17F
  8
1
  6
CONTINUOUS
 62
     0
 10
8015.686
 20
6404.737
 30
0.0
 11
8013.686
 21
6406.737
 31
0.0
  0
LINE
  5
180
  8
1
  6
CONTINUOUS
 62
     0
 10
8015.686
 20
6404.737
 30
0.0
 11
8039.436
 21
6404.737
 31
0.0
  0
LINE
  5
181
  8
1
  6
CONTINUOUS
 62
     0
 10
8039.436
 20
6404.737
 30
0.0
 11
8039.436
 21
6400.737
 31
0.0
  0
LINE
  5
182
  8
1
  6
CONTINUOUS
 62
     0
 10
8053.936
 20
6400.737
 30
0.0
 11
8053.936
 21
6404.737
 31
0.0
  0
LINE
  5
183
  8
1
  6
CONTINUOUS
 62
     0
 10
8039.436
 20
6400.737
 30
0.0
 11
8053.936
 21
6400.737
 31
0.0
  0
ENDBLK
  5
185
  8
0
  0
BLOCK
  8
0
  2
GRUPPO21
 70
     0
 10
8047.083
 20
6390.362
 30
0.0
  3
GRUPPO21
  1

  0
LINE
  5
188
  8
1
  6
CONTINUOUS
 62
     0
 10
8039.311
 20
6400.237
 30
0.0
 11
8054.061
 21
6400.237
 31
0.0
  0
LINE
  5
189
  8
1
  6
CONTINUOUS
 62
     0
 10
8039.311
 20
6403.737
 30
0.0
 11
8039.311
 21
6400.237
 31
0.0
  0
LINE
  5
18A
  8
1
  6
CONTINUOUS
 62
     0
 10
8038.311
 20
6404.737
 30
0.0
 11
8039.311
 21
6403.737
 31
0.0
  0
LINE
  5
18B
  8
1
  6
CONTINUOUS
 62
     0
 10
8038.311
 20
6404.737
 30
0.0
 11
8014.561
 21
6404.737
 31
0.0
  0
LINE
  5
18C
  8
1
  6
CONTINUOUS
 62
     0
 10
8013.561
 20
6403.737
 30
0.0
 11
8014.561
 21
6404.737
 31
0.0
  0
LINE
  5
18D
  8
1
  6
CONTINUOUS
 62
     0
 10
8013.561
 20
6403.737
 30
0.0
 11
8013.561
 21
6399.849
 31
0.0
  0
ARC
  5
18E
  8
1
  6
CONTINUOUS
 62
     0
 10
8046.561
 20
6410.737
 30
0.0
 40
34.74999999986103
 50
198.261
 51
348.431
  0
LINE
  5
18F
  8
1
  6
CONTINUOUS
 62
     0
 10
8054.061
 20
6403.737
 30
0.0
 11
8055.061
 21
6404.737
 31
0.0
  0
LINE
  5
190
  8
1
  6
CONTINUOUS
 62
     0
 10
8054.061
 20
6400.237
 30
0.0
 11
8054.061
 21
6403.737
 31
0.0
  0
LINE
  5
191
  8
1
 10
8079.925
 20
6404.737
 30
0.0
 11
8055.061
 21
6404.737
 31
0.0
  0
ENDBLK
  5
193
  8
0
  0
ENDSEC
  0
SECTION
  2
ENTITIES
  0
INSERT
  5
111
  8
1
  2
GRUPPO
 10
7733.061
 20
6363.612
 30
0.0
  0
INSERT
  5
19A
  8
1
  2
GRUPPO11
 10
7998.061
 20
6363.612
 30
0.0
  0
ENDSEC
  0
EOF
