  0
SECTION
  2
HEADER
  9
$ACADVER
  1
AC1012
  9
$DWGCODEPAGE
  3
iso8859-1
  9
$INSBASE
 10
0.0
 20
0.0
 30
0.0
  9
$EXTMIN
 10
6.84992
 20
5.0
 30
0.0
  9
$EXTMAX
 10
396.038088
 20
288.0
 30
0.0
  9
$LIMMIN
 10
0.0
 20
0.0
  9
$LIMMAX
 10
210.0
 20
297.0
  9
$ORTHOMODE
 70
     0
  9
$REGENMODE
 70
     1
  9
$FILLMODE
 70
     1
  9
$QTEXTMODE
 70
     0
  9
$MIRRTEXT
 70
     1
  9
$DRAGMODE
 70
     2
  9
$LTSCALE
 40
1.0
  9
$OSMODE
 70
     0
  9
$ATTMODE
 70
     1
  9
$TEXTSIZE
 40
2.5
  9
$TRACEWID
 40
0.05
  9
$TEXTSTYLE
  7
STANDARD
  9
$CLAYER
  8
QUOTE
  9
$CELTYPE
  6
BYLAYER
  9
$CECOLOR
 62
   256
  9
$CELTSCALE
 40
1.0
  9
$DELOBJ
 70
     1
  9
$DISPSILH
 70
     0
  9
$DIMSCALE
 40
1.0
  9
$DIMASZ
 40
2.5
  9
$DIMEXO
 40
0.625
  9
$DIMDLI
 40
3.75
  9
$DIMRND
 40
0.0
  9
$DIMDLE
 40
0.0
  9
$DIMEXE
 40
1.25
  9
$DIMTP
 40
0.0
  9
$DIMTM
 40
0.0
  9
$DIMTXT
 40
3.0
  9
$DIMCEN
 40
2.5
  9
$DIMTSZ
 40
0.0
  9
$DIMTOL
 70
     0
  9
$DIMLIM
 70
     0
  9
$DIMTIH
 70
     0
  9
$DIMTOH
 70
     0
  9
$DIMSE1
 70
     0
  9
$DIMSE2
 70
     0
  9
$DIMTAD
 70
     1
  9
$DIMZIN
 70
     8
  9
$DIMBLK
  1

  9
$DIMASO
 70
     1
  9
$DIMSHO
 70
     1
  9
$DIMPOST
  1

  9
$DIMAPOST
  1

  9
$DIMALT
 70
     0
  9
$DIMALTD
 70
     2
  9
$DIMALTF
 40
0.03937
  9
$DIMLFAC
 40
1.0
  9
$DIMTOFL
 70
     0
  9
$DIMTVP
 40
0.0
  9
$DIMTIX
 70
     0
  9
$DIMSOXD
 70
     0
  9
$DIMSAH
 70
     0
  9
$DIMBLK1
  1

  9
$DIMBLK2
  1

  9
$DIMSTYLE
  2
STANDARD
  9
$DIMCLRD
 70
     0
  9
$DIMCLRE
 70
     0
  9
$DIMCLRT
 70
     0
  9
$DIMTFAC
 40
1.0
  9
$DIMGAP
 40
0.625
  9
$DIMJUST
 70
     0
  9
$DIMSD1
 70
     0
  9
$DIMSD2
 70
     0
  9
$DIMTOLJ
 70
     1
  9
$DIMTZIN
 70
     8
  9
$DIMALTZ
 70
     0
  9
$DIMALTTZ
 70
     0
  9
$DIMFIT
 70
     3
  9
$DIMUPT
 70
     0
  9
$DIMUNIT
 70
     2
  9
$DIMDEC
 70
     2
  9
$DIMTDEC
 70
     2
  9
$DIMALTU
 70
     2
  9
$DIMALTTD
 70
     2
  9
$DIMTXSTY
  7
STANDARD
  9
$DIMAUNIT
 70
     0
  9
$LUNITS
 70
     2
  9
$LUPREC
 70
     4
  9
$SKETCHINC
 40
0.1
  9
$FILLETRAD
 40
3.0
  9
$AUNITS
 70
     0
  9
$AUPREC
 70
     0
  9
$MENU
  1
acad
  9
$ELEVATION
 40
0.0
  9
$PELEVATION
 40
0.0
  9
$THICKNESS
 40
0.0
  9
$LIMCHECK
 70
     0
  9
$BLIPMODE
 70
     1
  9
$CHAMFERA
 40
1.0
  9
$CHAMFERB
 40
1.0
  9
$CHAMFERC
 40
20.0
  9
$CHAMFERD
 40
0.0
  9
$SKPOLY
 70
     0
  9
$TDCREATE
 40
2451764.642722337
  9
$TDUPDATE
 40
2451764.680090046
  9
$TDINDWG
 40
0.0373677083
  9
$TDUSRTIMER
 40
0.0373677083
  9
$USRTIMER
 70
     1
  9
$ANGBASE
 50
0.0
  9
$ANGDIR
 70
     0
  9
$PDMODE
 70
     0
  9
$PDSIZE
 40
0.0
  9
$PLINEWID
 40
0.0
  9
$COORDS
 70
     1
  9
$SPLFRAME
 70
     0
  9
$SPLINETYPE
 70
     6
  9
$SPLINESEGS
 70
     8
  9
$ATTDIA
 70
     0
  9
$ATTREQ
 70
     1
  9
$HANDLING
 70
     1
  9
$HANDSEED
  5
A0F
  9
$SURFTAB1
 70
     6
  9
$SURFTAB2
 70
     6
  9
$SURFTYPE
 70
     6
  9
$SURFU
 70
     6
  9
$SURFV
 70
     6
  9
$UCSNAME
  2

  9
$UCSORG
 10
0.0
 20
0.0
 30
0.0
  9
$UCSXDIR
 10
1.0
 20
0.0
 30
0.0
  9
$UCSYDIR
 10
0.0
 20
1.0
 30
0.0
  9
$PUCSNAME
  2

  9
$PUCSORG
 10
0.0
 20
0.0
 30
0.0
  9
$PUCSXDIR
 10
1.0
 20
0.0
 30
0.0
  9
$PUCSYDIR
 10
0.0
 20
1.0
 30
0.0
  9
$USERI1
 70
     0
  9
$USERI2
 70
     0
  9
$USERI3
 70
     0
  9
$USERI4
 70
     0
  9
$USERI5
 70
     0
  9
$USERR1
 40
0.0
  9
$USERR2
 40
0.0
  9
$USERR3
 40
0.0
  9
$USERR4
 40
0.0
  9
$USERR5
 40
0.0
  9
$WORLDVIEW
 70
     1
  9
$SHADEDGE
 70
     3
  9
$SHADEDIF
 70
    70
  9
$TILEMODE
 70
     1
  9
$MAXACTVP
 70
    16
  9
$PINSBASE
 10
0.0
 20
0.0
 30
0.0
  9
$PLIMCHECK
 70
     0
  9
$PEXTMIN
 10
1.000000E+20
 20
1.000000E+20
 30
1.000000E+20
  9
$PEXTMAX
 10
-1.000000E+20
 20
-1.000000E+20
 30
-1.000000E+20
  9
$PLIMMIN
 10
0.0
 20
0.0
  9
$PLIMMAX
 10
12.0
 20
9.0
  9
$UNITMODE
 70
     0
  9
$VISRETAIN
 70
     0
  9
$PLINEGEN
 70
     0
  9
$PSLTSCALE
 70
     1
  9
$TREEDEPTH
 70
  3020
  9
$PICKSTYLE
 70
     1
  9
$CMLSTYLE
  2
STANDARD
  9
$CMLJUST
 70
     0
  9
$CMLSCALE
 40
20.0
  9
$SAVEIMAGES
 70
     0
  0
ENDSEC
  0
SECTION
  2
CLASSES
  0
ENDSEC
  0
SECTION
  2
TABLES
  0
TABLE
  2
VPORT
  5
8
100
AcDbSymbolTable
 70
     2
  0
VPORT
  5
A0E
100
AcDbSymbolTableRecord
100
AcDbViewportTableRecord
  2
*ACTIVE
 70
     0
 10
0.0
 20
0.0
 11
1.0
 21
1.0
 12
188.383621
 22
74.407123
 13
0.0
 23
0.0
 14
10.0
 24
10.0
 15
10.0
 25
10.0
 16
0.0
 26
0.0
 36
1.0
 17
0.0
 27
0.0
 37
0.0
 40
501.365847
 41
1.650113
 42
50.0
 43
0.0
 44
0.0
 50
0.0
 51
0.0
 71
     0
 72
   100
 73
     1
 74
     0
 75
     0
 76
     0
 77
     0
 78
     0
  0
ENDTAB
  0
TABLE
  2
LTYPE
  5
5
100
AcDbSymbolTable
 70
     4
  0
LTYPE
  5
13
100
AcDbSymbolTableRecord
100
AcDbLinetypeTableRecord
  2
BYBLOCK
 70
     0
  3

 72
    65
 73
     0
 40
0.0
  0
LTYPE
  5
14
100
AcDbSymbolTableRecord
100
AcDbLinetypeTableRecord
  2
BYLAYER
 70
     0
  3

 72
    65
 73
     0
 40
0.0
  0
LTYPE
  5
15
100
AcDbSymbolTableRecord
100
AcDbLinetypeTableRecord
  2
CONTINUOUS
 70
    64
  3
Solid line
 72
    65
 73
     0
 40
0.0
  0
LTYPE
  5
94
100
AcDbSymbolTableRecord
100
AcDbLinetypeTableRecord
  2
ACAD_ISO04W100
 70
    64
  3
____ . ____ . ____ . ____ . ____ . ____ . ____ 
 72
    65
 73
     4
 40
30.5
 49
24.0
 74
     0
 49
-3.0
 74
     0
 49
0.5
 74
     0
 49
-3.0
 74
     0
  0
LTYPE
  5
225
100
AcDbSymbolTableRecord
100
AcDbLinetypeTableRecord
  2
TRATTEGGIATAX2
 70
    64
  3
____  ____  ____  ____  ____  ____  ____  ____ 
 72
    65
 73
     2
 40
1.5
 49
1.0
 74
     0
 49
-0.5
 74
     0
  0
LTYPE
  5
226
100
AcDbSymbolTableRecord
100
AcDbLinetypeTableRecord
  2
NASCOSTA
 70
    64
  3
__ __ __ __ __ __ __ __ __ __ __ __ __ __ __ __
 72
    65
 73
     2
 40
0.375
 49
0.25
 74
     0
 49
-0.125
 74
     0
  0
ENDTAB
  0
TABLE
  2
LAYER
  5
2
100
AcDbSymbolTable
 70
     9
  0
LAYER
  5
F
100
AcDbSymbolTableRecord
100
AcDbLayerTableRecord
  2
0
 70
     0
 62
     7
  6
CONTINUOUS
  0
LAYER
  5
95
100
AcDbSymbolTableRecord
100
AcDbLayerTableRecord
  2
DISEGNO
 70
    64
 62
     7
  6
CONTINUOUS
  0
LAYER
  5
96
100
AcDbSymbolTableRecord
100
AcDbLayerTableRecord
  2
ASSI
 70
    64
 62
     1
  6
ACAD_ISO04W100
  0
LAYER
  5
97
100
AcDbSymbolTableRecord
100
AcDbLayerTableRecord
  2
SEZIONE
 70
    64
 62
     3
  6
CONTINUOUS
  0
LAYER
  5
98
100
AcDbSymbolTableRecord
100
AcDbLayerTableRecord
  2
TEMPRA
 70
    64
 62
     2
  6
CONTINUOUS
  0
LAYER
  5
99
100
AcDbSymbolTableRecord
100
AcDbLayerTableRecord
  2
QUOTE
 70
    64
 62
     5
  6
CONTINUOUS
  0
LAYER
  5
9A
100
AcDbSymbolTableRecord
100
AcDbLayerTableRecord
  2
FOGLIO
 70
    64
 62
     8
  6
CONTINUOUS
  0
LAYER
  5
1A3
100
AcDbSymbolTableRecord
100
AcDbLayerTableRecord
  2
TRATTO
 70
    64
 62
     6
  6
NASCOSTA
  0
LAYER
  5
284
100
AcDbSymbolTableRecord
100
AcDbLayerTableRecord
  2
DEFPOINTS
 70
    64
 62
     7
  6
CONTINUOUS
  0
ENDTAB
  0
TABLE
  2
STYLE
  5
3
100
AcDbSymbolTable
 70
     2
  0
STYLE
  5
10
100
AcDbSymbolTableRecord
100
AcDbTextStyleTableRecord
  2
STANDARD
 70
    64
 40
0.0
 41
1.1
 50
0.0
 71
     0
 42
2.5
  3
C:\Programmi\AutoCAD LT\isocp.shx
  4

  0
STYLE
  5
B0
100
AcDbSymbolTableRecord
100
AcDbTextStyleTableRecord
  2
STYLE3
 70
    64
 40
0.0
 41
1.5
 50
0.0
 71
     0
 42
4.0
  3
C:\Programmi\AutoCAD LT\isocp3.shx
  4

  0
ENDTAB
  0
TABLE
  2
VIEW
  5
6
100
AcDbSymbolTable
 70
     0
  0
ENDTAB
  0
TABLE
  2
UCS
  5
7
100
AcDbSymbolTable
 70
     0
  0
ENDTAB
  0
TABLE
  2
APPID
  5
9
100
AcDbSymbolTable
 70
     1
  0
APPID
  5
11
100
AcDbSymbolTableRecord
100
AcDbRegAppTableRecord
  2
ACAD
 70
     0
  0
ENDTAB
  0
TABLE
  2
DIMSTYLE
  5
A
100
AcDbSymbolTable
 70
    12
  0
DIMSTYLE
105
1D
100
AcDbSymbolTableRecord
100
AcDbDimStyleTableRecord
  2
STANDARD
 70
     0
  3

  4

  5

  6

  7

 40
1.0
 41
2.5
 42
0.625
 43
3.75
 44
1.25
 45
0.0
 46
0.0
 47
0.0
 48
0.0
140
3.0
141
2.5
142
0.0
143
0.03937
144
1.0
145
0.0
146
1.0
147
0.625
 71
     0
 72
     0
 73
     0
 74
     0
 75
     0
 76
     0
 77
     1
 78
     8
170
     0
171
     2
172
     0
173
     0
174
     0
175
     0
176
     0
177
     0
178
     0
270
     2
271
     2
272
     2
273
     2
274
     2
340
10
275
     0
280
     0
281
     0
282
     0
283
     1
284
     8
285
     0
286
     0
287
     3
288
     0
  0
DIMSTYLE
105
198
100
AcDbSymbolTableRecord
100
AcDbDimStyleTableRecord
  2
TOLL-06
 70
     0
  3

  4

  5

  6

  7

 40
1.0
 41
2.5
 42
0.625
 43
3.75
 44
1.25
 45
0.0
 46
0.0
 47
-0.05
 48
0.0
140
3.0
141
2.5
142
0.0
143
0.03937
144
1.0
145
0.0
146
0.8
147
0.625
 71
     1
 72
     0
 73
     0
 74
     0
 75
     0
 76
     0
 77
     1
 78
     8
170
     0
171
     2
172
     0
173
     0
174
     0
175
     0
176
     0
177
     0
178
     0
270
     2
271
     2
272
     2
273
     2
274
     2
340
10
275
     0
280
     0
281
     0
282
     0
283
     2
284
     8
285
     0
286
     0
287
     3
288
     0
  0
DIMSTYLE
105
20B
100
AcDbSymbolTableRecord
100
AcDbDimStyleTableRecord
  2
TOLL-01
 70
     0
  3

  4

  5

  6

  7

 40
1.0
 41
2.5
 42
0.625
 43
3.75
 44
1.25
 45
0.0
 46
0.0
 47
0.02
 48
0.0
140
3.0
141
2.5
142
0.0
143
0.03937
144
1.0
145
0.0
146
0.8
147
0.625
 71
     1
 72
     0
 73
     0
 74
     0
 75
     0
 76
     0
 77
     1
 78
     8
170
     0
171
     2
172
     0
173
     0
174
     0
175
     0
176
     0
177
     0
178
     0
270
     2
271
     2
272
     2
273
     2
274
     2
340
10
275
     0
280
     0
281
     0
282
     0
283
     2
284
     8
285
     0
286
     0
287
     3
288
     0
  0
DIMSTYLE
105
232
100
AcDbSymbolTableRecord
100
AcDbDimStyleTableRecord
  2
TOLL-02
 70
     0
  3

  4

  5

  6

  7

 40
1.0
 41
2.5
 42
0.625
 43
3.75
 44
1.25
 45
0.0
 46
0.0
 47
-0.02
 48
0.0
140
3.0
141
2.5
142
0.0
143
0.03937
144
1.0
145
0.0
146
0.8
147
0.625
 71
     1
 72
     0
 73
     0
 74
     0
 75
     0
 76
     0
 77
     1
 78
     8
170
     0
171
     2
172
     0
173
     0
174
     0
175
     0
176
     0
177
     0
178
     0
270
     2
271
     2
272
     2
273
     2
274
     2
340
10
275
     0
280
     0
281
     0
282
     0
283
     2
284
     8
285
     0
286
     0
287
     3
288
     0
  0
DIMSTYLE
105
233
100
AcDbSymbolTableRecord
100
AcDbDimStyleTableRecord
  2
TOLL-03
 70
     0
  3

  4

  5

  6

  7

 40
1.0
 41
2.5
 42
0.625
 43
3.75
 44
1.25
 45
0.0
 46
0.0
 47
0.01
 48
0.01
140
3.0
141
2.5
142
0.0
143
0.03937
144
1.0
145
0.0
146
0.8
147
0.625
 71
     1
 72
     0
 73
     0
 74
     0
 75
     0
 76
     0
 77
     1
 78
     8
170
     0
171
     2
172
     0
173
     0
174
     0
175
     0
176
     0
177
     0
178
     0
270
     2
271
     2
272
     2
273
     2
274
     2
340
10
275
     0
280
     0
281
     0
282
     0
283
     2
284
     8
285
     0
286
     0
287
     3
288
     0
  0
DIMSTYLE
105
234
100
AcDbSymbolTableRecord
100
AcDbDimStyleTableRecord
  2
TOLL-04
 70
     0
  3

  4

  5

  6

  7

 40
1.0
 41
2.5
 42
0.625
 43
3.75
 44
1.25
 45
0.0
 46
0.0
 47
0.05
 48
0.05
140
3.0
141
2.5
142
0.0
143
0.03937
144
1.0
145
0.0
146
0.8
147
0.625
 71
     1
 72
     0
 73
     0
 74
     0
 75
     0
 76
     0
 77
     1
 78
     8
170
     0
171
     2
172
     0
173
     0
174
     0
175
     0
176
     0
177
     0
178
     0
270
     2
271
     2
272
     2
273
     2
274
     2
340
10
275
     0
280
     0
281
     0
282
     0
283
     2
284
     8
285
     0
286
     0
287
     3
288
     0
  0
DIMSTYLE
105
235
100
AcDbSymbolTableRecord
100
AcDbDimStyleTableRecord
  2
TOLL-05
 70
     0
  3

  4

  5

  6

  7

 40
1.0
 41
2.5
 42
0.625
 43
3.75
 44
1.25
 45
0.0
 46
0.0
 47
0.05
 48
0.0
140
3.0
141
2.5
142
0.0
143
0.03937
144
1.0
145
0.0
146
0.8
147
0.625
 71
     1
 72
     0
 73
     0
 74
     0
 75
     0
 76
     0
 77
     1
 78
     8
170
     0
171
     2
172
     0
173
     0
174
     0
175
     0
176
     0
177
     0
178
     0
270
     2
271
     2
272
     2
273
     2
274
     2
340
10
275
     0
280
     0
281
     0
282
     0
283
     2
284
     8
285
     0
286
     0
287
     3
288
     0
  0
DIMSTYLE
105
247
100
AcDbSymbolTableRecord
100
AcDbDimStyleTableRecord
  2
TOLL-07
 70
     0
  3

  4

  5

  6

  7

 40
1.0
 41
2.5
 42
0.625
 43
3.75
 44
1.25
 45
0.0
 46
0.0
 47
0.1
 48
0.1
140
3.0
141
2.5
142
0.0
143
0.03937
144
1.0
145
0.0
146
1.0
147
0.625
 71
     1
 72
     0
 73
     0
 74
     0
 75
     0
 76
     0
 77
     1
 78
     8
170
     0
171
     2
172
     0
173
     0
174
     0
175
     0
176
     0
177
     0
178
     0
270
     2
271
     2
272
     2
273
     2
274
     2
340
10
275
     0
280
     0
281
     0
282
     0
283
     1
284
     8
285
     0
286
     0
287
     3
288
     0
  0
DIMSTYLE
105
251
100
AcDbSymbolTableRecord
100
AcDbDimStyleTableRecord
  2
TOLL-08
 70
     0
  3

  4

  5

  6

  7

 40
1.0
 41
2.5
 42
0.625
 43
3.75
 44
1.25
 45
0.0
 46
0.0
 47
0.1
 48
0.0
140
3.0
141
2.5
142
0.0
143
0.03937
144
1.0
145
0.0
146
1.0
147
0.625
 71
     1
 72
     0
 73
     0
 74
     0
 75
     0
 76
     0
 77
     1
 78
     8
170
     0
171
     2
172
     0
173
     0
174
     0
175
     0
176
     0
177
     0
178
     0
270
     2
271
     2
272
     2
273
     2
274
     2
340
10
275
     0
280
     0
281
     0
282
     0
283
     1
284
     8
285
     0
286
     0
287
     3
288
     0
  0
DIMSTYLE
105
257
100
AcDbSymbolTableRecord
100
AcDbDimStyleTableRecord
  2
TOLL-09
 70
     0
  3

  4

  5

  6

  7

 40
1.0
 41
2.5
 42
0.625
 43
3.75
 44
1.25
 45
0.0
 46
0.0
 47
-0.1
 48
0.0
140
3.0
141
2.5
142
0.0
143
0.03937
144
1.0
145
0.0
146
1.0
147
0.625
 71
     1
 72
     0
 73
     0
 74
     0
 75
     0
 76
     0
 77
     1
 78
     8
170
     0
171
     2
172
     0
173
     0
174
     0
175
     0
176
     0
177
     0
178
     0
270
     2
271
     2
272
     2
273
     2
274
     2
340
10
275
     0
280
     0
281
     0
282
     0
283
     1
284
     8
285
     0
286
     0
287
     3
288
     0
  0
DIMSTYLE
105
258
100
AcDbSymbolTableRecord
100
AcDbDimStyleTableRecord
  2
TOLL-10
 70
     0
  3

  4

  5

  6

  7

 40
1.0
 41
2.5
 42
0.625
 43
3.75
 44
1.25
 45
0.0
 46
0.0
 47
0.2
 48
0.2
140
3.0
141
2.5
142
0.0
143
0.03937
144
1.0
145
0.0
146
1.0
147
0.625
 71
     1
 72
     0
 73
     0
 74
     0
 75
     0
 76
     0
 77
     1
 78
     8
170
     0
171
     2
172
     0
173
     0
174
     0
175
     0
176
     0
177
     0
178
     0
270
     2
271
     2
272
     2
273
     2
274
     2
340
10
275
     0
280
     0
281
     0
282
     0
283
     1
284
     8
285
     0
286
     0
287
     3
288
     0
  0
DIMSTYLE
105
259
100
AcDbSymbolTableRecord
100
AcDbDimStyleTableRecord
  2
TOLL-11
 70
     0
  3

  4

  5

  6

  7

 40
1.0
 41
2.5
 42
0.625
 43
3.75
 44
1.25
 45
0.0
 46
0.0
 47
0.2
 48
0.0
140
3.0
141
2.5
142
0.0
143
0.03937
144
1.0
145
0.0
146
1.0
147
0.625
 71
     1
 72
     0
 73
     0
 74
     0
 75
     0
 76
     0
 77
     1
 78
     8
170
     0
171
     2
172
     0
173
     0
174
     0
175
     0
176
     0
177
     0
178
     0
270
     2
271
     2
272
     2
273
     2
274
     2
340
10
275
     0
280
     0
281
     0
282
     0
283
     1
284
     8
285
     0
286
     0
287
     3
288
     0
  0
ENDTAB
  0
TABLE
  2
BLOCK_RECORD
  5
1
100
AcDbSymbolTable
 70
    25
  0
BLOCK_RECORD
  5
19
100
AcDbSymbolTableRecord
100
AcDbBlockTableRecord
  2
*MODEL_SPACE
  0
BLOCK_RECORD
  5
16
100
AcDbSymbolTableRecord
100
AcDbBlockTableRecord
  2
*PAPER_SPACE
  0
BLOCK_RECORD
  5
27B
100
AcDbSymbolTableRecord
100
AcDbBlockTableRecord
  2
*D0
  0
BLOCK_RECORD
  5
28A
100
AcDbSymbolTableRecord
100
AcDbBlockTableRecord
  2
*D1
  0
BLOCK_RECORD
  5
297
100
AcDbSymbolTableRecord
100
AcDbBlockTableRecord
  2
*D2
  0
BLOCK_RECORD
  5
2A4
100
AcDbSymbolTableRecord
100
AcDbBlockTableRecord
  2
*D3
  0
BLOCK_RECORD
  5
2B1
100
AcDbSymbolTableRecord
100
AcDbBlockTableRecord
  2
*D4
  0
BLOCK_RECORD
  5
2D4
100
AcDbSymbolTableRecord
100
AcDbBlockTableRecord
  2
*D5
  0
BLOCK_RECORD
  5
2E1
100
AcDbSymbolTableRecord
100
AcDbBlockTableRecord
  2
*D6
  0
BLOCK_RECORD
  5
2EE
100
AcDbSymbolTableRecord
100
AcDbBlockTableRecord
  2
*D7
  0
BLOCK_RECORD
  5
358
100
AcDbSymbolTableRecord
100
AcDbBlockTableRecord
  2
*D8
  0
BLOCK_RECORD
  5
36E
100
AcDbSymbolTableRecord
100
AcDbBlockTableRecord
  2
*D9
  0
BLOCK_RECORD
  5
384
100
AcDbSymbolTableRecord
100
AcDbBlockTableRecord
  2
*D10
  0
BLOCK_RECORD
  5
3D9
100
AcDbSymbolTableRecord
100
AcDbBlockTableRecord
  2
*X11
  0
BLOCK_RECORD
  5
606
100
AcDbSymbolTableRecord
100
AcDbBlockTableRecord
  2
*X12
  0
BLOCK_RECORD
  5
81D
100
AcDbSymbolTableRecord
100
AcDbBlockTableRecord
  2
RUGOSITA
  0
BLOCK_RECORD
  5
879
100
AcDbSymbolTableRecord
100
AcDbBlockTableRecord
  2
*D16
  0
BLOCK_RECORD
  5
884
100
AcDbSymbolTableRecord
100
AcDbBlockTableRecord
  2
*D17
  0
BLOCK_RECORD
  5
88F
100
AcDbSymbolTableRecord
100
AcDbBlockTableRecord
  2
*D18
  0
BLOCK_RECORD
  5
8D0
100
AcDbSymbolTableRecord
100
AcDbBlockTableRecord
  2
*D19
  0
BLOCK_RECORD
  5
8F3
100
AcDbSymbolTableRecord
100
AcDbBlockTableRecord
  2
*D20
  0
BLOCK_RECORD
  5
916
100
AcDbSymbolTableRecord
100
AcDbBlockTableRecord
  2
*D21
  0
BLOCK_RECORD
  5
966
100
AcDbSymbolTableRecord
100
AcDbBlockTableRecord
  2
*D22
  0
BLOCK_RECORD
  5
994
100
AcDbSymbolTableRecord
100
AcDbBlockTableRecord
  2
*D23
  0
BLOCK_RECORD
  5
9A2
100
AcDbSymbolTableRecord
100
AcDbBlockTableRecord
  2
*D24
  0
ENDTAB
  0
ENDSEC
  0
SECTION
  2
BLOCKS
  0
BLOCK
  5
1A
100
AcDbEntity
  8
0
100
AcDbBlockBegin
  2
*MODEL_SPACE
 70
     0
 10
0.0
 20
0.0
 30
0.0
  3
*MODEL_SPACE
  1

  0
ENDBLK
  5
1B
100
AcDbEntity
  8
0
100
AcDbBlockEnd
  0
BLOCK
  5
17
100
AcDbEntity
 67
     1
  8
0
100
AcDbBlockBegin
  2
*PAPER_SPACE
 70
     0
 10
0.0
 20
0.0
 30
0.0
  3
*PAPER_SPACE
  1

  0
ENDBLK
  5
18
100
AcDbEntity
 67
     1
  8
0
100
AcDbBlockEnd
  0
BLOCK
  5
341
100
AcDbEntity
  8
0
100
AcDbBlockBegin
  2
*D0
 70
    65
 10
0.0
 20
0.0
 30
0.0
  3
*D0
  1

  0
LINE
  5
342
100
AcDbEntity
  8
0
  6
BYBLOCK
 62
     0
100
AcDbLine
 10
102.413379
 20
196.911741
 30
0.0
 11
102.413379
 21
218.563547
 31
0.0
  0
LINE
  5
343
100
AcDbEntity
  8
0
  6
BYBLOCK
 62
     0
100
AcDbLine
 10
108.413379
 20
196.911741
 30
0.0
 11
108.413379
 21
218.563547
 31
0.0
  0
LINE
  5
344
100
AcDbEntity
  8
0
  6
BYBLOCK
 62
     0
100
AcDbLine
 10
99.913379
 20
217.313547
 30
0.0
 11
97.413379
 21
217.313547
 31
0.0
  0
LINE
  5
345
100
AcDbEntity
  8
0
  6
BYBLOCK
 62
     0
100
AcDbLine
 10
110.913379
 20
217.313547
 30
0.0
 11
124.474731
 21
217.313547
 31
0.0
  0
SOLID
  5
346
100
AcDbEntity
  8
0
  6
BYBLOCK
 62
     0
100
AcDbTrace
 10
99.913379
 20
217.730213
 30
0.0
 11
99.913379
 21
216.89688
 31
0.0
 12
102.413379
 22
217.313547
 32
0.0
 13
102.413379
 23
217.313547
 33
0.0
  0
SOLID
  5
347
100
AcDbEntity
  8
0
  6
BYBLOCK
 62
     0
100
AcDbTrace
 10
110.913379
 20
217.730213
 30
0.0
 11
110.913379
 21
216.89688
 31
0.0
 12
108.413379
 22
217.313547
 32
0.0
 13
108.413379
 23
217.313547
 33
0.0
  0
MTEXT
  5
348
100
AcDbEntity
  8
0
  6
BYBLOCK
 62
     0
100
AcDbMText
 10
118.944055
 20
219.438547
 30
0.0
 40
3.0
 41
0.0
 71
     5
 72
     1
  1
\A2;6{\H2.400000;±0.05}
  0
POINT
  5
349
100
AcDbEntity
  8
DEFPOINTS
  6
BYBLOCK
 62
     0
100
AcDbPoint
 10
102.413379
 20
196.286741
 30
0.0
  0
POINT
  5
34A
100
AcDbEntity
  8
DEFPOINTS
  6
BYBLOCK
 62
     0
100
AcDbPoint
 10
108.413379
 20
196.286741
 30
0.0
  0
POINT
  5
34B
100
AcDbEntity
  8
DEFPOINTS
  6
BYBLOCK
 62
     0
100
AcDbPoint
 10
108.413379
 20
217.313547
 30
0.0
  0
ENDBLK
  5
34C
100
AcDbEntity
  8
0
100
AcDbBlockEnd
  0
BLOCK
  5
336
100
AcDbEntity
  8
0
100
AcDbBlockBegin
  2
*D1
 70
    65
 10
0.0
 20
0.0
 30
0.0
  3
*D1
  1

  0
LINE
  5
337
100
AcDbEntity
  8
0
  6
BYBLOCK
 62
     0
100
AcDbLine
 10
136.038379
 20
175.286741
 30
0.0
 11
159.019448
 21
175.286741
 31
0.0
  0
LINE
  5
338
100
AcDbEntity
  8
0
  6
BYBLOCK
 62
     0
100
AcDbLine
 10
136.038379
 20
157.286741
 30
0.0
 11
159.019448
 21
157.286741
 31
0.0
  0
LINE
  5
339
100
AcDbEntity
  8
0
  6
BYBLOCK
 62
     0
100
AcDbLine
 10
157.769448
 20
172.786741
 30
0.0
 11
157.769448
 21
159.786741
 31
0.0
  0
SOLID
  5
33A
100
AcDbEntity
  8
0
  6
BYBLOCK
 62
     0
100
AcDbTrace
 10
157.352781
 20
172.786741
 30
0.0
 11
158.186114
 21
172.786741
 31
0.0
 12
157.769448
 22
175.286741
 32
0.0
 13
157.769448
 23
175.286741
 33
0.0
  0
SOLID
  5
33B
100
AcDbEntity
  8
0
  6
BYBLOCK
 62
     0
100
AcDbTrace
 10
157.352781
 20
159.786741
 30
0.0
 11
158.186114
 21
159.786741
 31
0.0
 12
157.769448
 22
157.286741
 32
0.0
 13
157.769448
 23
157.286741
 33
0.0
  0
MTEXT
  5
33C
100
AcDbEntity
  8
0
  6
BYBLOCK
 62
     0
100
AcDbMText
 10
155.644448
 20
166.286741
 30
0.0
 40
3.0
 41
0.0
 71
     5
 72
     1
  1
\A2;18{\H2.400000;±0.05}
 11
0.0
 21
1.0
 31
0.0
  0
POINT
  5
33D
100
AcDbEntity
  8
DEFPOINTS
  6
BYBLOCK
 62
     0
100
AcDbPoint
 10
135.413379
 20
175.286741
 30
0.0
  0
POINT
  5
33E
100
AcDbEntity
  8
DEFPOINTS
  6
BYBLOCK
 62
     0
100
AcDbPoint
 10
135.413379
 20
157.286741
 30
0.0
  0
POINT
  5
33F
100
AcDbEntity
  8
DEFPOINTS
  6
BYBLOCK
 62
     0
100
AcDbPoint
 10
157.769448
 20
157.286741
 30
0.0
  0
ENDBLK
  5
340
100
AcDbEntity
  8
0
100
AcDbBlockEnd
  0
BLOCK
  5
32A
100
AcDbEntity
  8
0
100
AcDbBlockBegin
  2
*D2
 70
    65
 10
0.0
 20
0.0
 30
0.0
  3
*D2
  1

  0
LINE
  5
32B
100
AcDbEntity
  8
0
  6
BYBLOCK
 62
     0
100
AcDbLine
 10
74.788379
 20
171.286741
 30
0.0
 11
53.601056
 21
171.286741
 31
0.0
  0
LINE
  5
32C
100
AcDbEntity
  8
0
  6
BYBLOCK
 62
     0
100
AcDbLine
 10
74.788379
 20
161.286741
 30
0.0
 11
53.601056
 21
161.286741
 31
0.0
  0
LINE
  5
32D
100
AcDbEntity
  8
0
  6
BYBLOCK
 62
     0
100
AcDbLine
 10
54.851056
 20
168.786741
 30
0.0
 11
54.851056
 21
163.786741
 31
0.0
  0
LINE
  5
32E
100
AcDbEntity
  8
0
  6
BYBLOCK
 62
     0
100
AcDbLine
 10
54.851056
 20
161.286741
 30
0.0
 11
54.851056
 21
146.075389
 31
0.0
  0
SOLID
  5
32F
100
AcDbEntity
  8
0
  6
BYBLOCK
 62
     0
100
AcDbTrace
 10
54.434389
 20
168.786741
 30
0.0
 11
55.267723
 21
168.786741
 31
0.0
 12
54.851056
 22
171.286741
 32
0.0
 13
54.851056
 23
171.286741
 33
0.0
  0
SOLID
  5
330
100
AcDbEntity
  8
0
  6
BYBLOCK
 62
     0
100
AcDbTrace
 10
54.434389
 20
163.786741
 30
0.0
 11
55.267723
 21
163.786741
 31
0.0
 12
54.851056
 22
161.286741
 32
0.0
 13
54.851056
 23
161.286741
 33
0.0
  0
MTEXT
  5
331
100
AcDbEntity
  8
0
  6
BYBLOCK
 62
     0
100
AcDbMText
 10
52.726056
 20
152.431065
 30
0.0
 40
3.0
 41
0.0
 71
     5
 72
     1
  1
\A2;10{\H2.400000;±0.05}
 11
0.0
 21
1.0
 31
0.0
  0
POINT
  5
332
100
AcDbEntity
  8
DEFPOINTS
  6
BYBLOCK
 62
     0
100
AcDbPoint
 10
75.413379
 20
171.286741
 30
0.0
  0
POINT
  5
333
100
AcDbEntity
  8
DEFPOINTS
  6
BYBLOCK
 62
     0
100
AcDbPoint
 10
75.413379
 20
161.286741
 30
0.0
  0
POINT
  5
334
100
AcDbEntity
  8
DEFPOINTS
  6
BYBLOCK
 62
     0
100
AcDbPoint
 10
54.851056
 20
161.286741
 30
0.0
  0
ENDBLK
  5
335
100
AcDbEntity
  8
0
100
AcDbBlockEnd
  0
BLOCK
  5
2C9
100
AcDbEntity
  8
0
100
AcDbBlockBegin
  2
*D3
 70
    65
 10
0.0
 20
0.0
 30
0.0
  3
*D3
  1

  0
LINE
  5
2CA
100
AcDbEntity
  8
0
  6
BYBLOCK
 62
     0
100
AcDbLine
 10
75.413379
 20
135.661741
 30
0.0
 11
75.413379
 21
112.009331
 31
0.0
  0
LINE
  5
2CB
100
AcDbEntity
  8
0
  6
BYBLOCK
 62
     0
100
AcDbLine
 10
135.413379
 20
135.661741
 30
0.0
 11
135.413379
 21
112.009331
 31
0.0
  0
LINE
  5
2CC
100
AcDbEntity
  8
0
  6
BYBLOCK
 62
     0
100
AcDbLine
 10
77.913379
 20
113.259331
 30
0.0
 11
132.913379
 21
113.259331
 31
0.0
  0
SOLID
  5
2CD
100
AcDbEntity
  8
0
  6
BYBLOCK
 62
     0
100
AcDbTrace
 10
77.913379
 20
113.675998
 30
0.0
 11
77.913379
 21
112.842665
 31
0.0
 12
75.413379
 22
113.259331
 32
0.0
 13
75.413379
 23
113.259331
 33
0.0
  0
SOLID
  5
2CE
100
AcDbEntity
  8
0
  6
BYBLOCK
 62
     0
100
AcDbTrace
 10
132.913379
 20
113.675998
 30
0.0
 11
132.913379
 21
112.842665
 31
0.0
 12
135.413379
 22
113.259331
 32
0.0
 13
135.413379
 23
113.259331
 33
0.0
  0
MTEXT
  5
2CF
100
AcDbEntity
  8
0
  6
BYBLOCK
 62
     0
100
AcDbMText
 10
105.413379
 20
116.62504
 30
0.0
 40
3.0
 41
0.0
 71
     5
 72
     1
  1
\A2;60{\H2.400000;\S+0.02^  0;}
  0
POINT
  5
2D0
100
AcDbEntity
  8
DEFPOINTS
  6
BYBLOCK
 62
     0
100
AcDbPoint
 10
75.413379
 20
136.286741
 30
0.0
  0
POINT
  5
2D1
100
AcDbEntity
  8
DEFPOINTS
  6
BYBLOCK
 62
     0
100
AcDbPoint
 10
135.413379
 20
136.286741
 30
0.0
  0
POINT
  5
2D2
100
AcDbEntity
  8
DEFPOINTS
  6
BYBLOCK
 62
     0
100
AcDbPoint
 10
135.413379
 20
113.259331
 30
0.0
  0
ENDBLK
  5
2D3
100
AcDbEntity
  8
0
100
AcDbBlockEnd
  0
BLOCK
  5
2BE
100
AcDbEntity
  8
0
100
AcDbBlockBegin
  2
*D4
 70
    65
 10
0.0
 20
0.0
 30
0.0
  3
*D4
  1

  0
LINE
  5
2BF
100
AcDbEntity
  8
0
  6
BYBLOCK
 62
     0
100
AcDbLine
 10
136.038379
 20
196.286741
 30
0.0
 11
176.651453
 21
196.286741
 31
0.0
  0
LINE
  5
2C0
100
AcDbEntity
  8
0
  6
BYBLOCK
 62
     0
100
AcDbLine
 10
136.038379
 20
136.286741
 30
0.0
 11
176.651453
 21
136.286741
 31
0.0
  0
LINE
  5
2C1
100
AcDbEntity
  8
0
  6
BYBLOCK
 62
     0
100
AcDbLine
 10
175.401453
 20
193.786741
 30
0.0
 11
175.401453
 21
138.786741
 31
0.0
  0
SOLID
  5
2C2
100
AcDbEntity
  8
0
  6
BYBLOCK
 62
     0
100
AcDbTrace
 10
174.984787
 20
193.786741
 30
0.0
 11
175.81812
 21
193.786741
 31
0.0
 12
175.401453
 22
196.286741
 32
0.0
 13
175.401453
 23
196.286741
 33
0.0
  0
SOLID
  5
2C3
100
AcDbEntity
  8
0
  6
BYBLOCK
 62
     0
100
AcDbTrace
 10
174.984787
 20
138.786741
 30
0.0
 11
175.81812
 21
138.786741
 31
0.0
 12
175.401453
 22
136.286741
 32
0.0
 13
175.401453
 23
136.286741
 33
0.0
  0
MTEXT
  5
2C4
100
AcDbEntity
  8
0
  6
BYBLOCK
 62
     0
100
AcDbMText
 10
172.035745
 20
166.286741
 30
0.0
 40
3.0
 41
0.0
 71
     5
 72
     1
  1
\A2;60{\H2.400000;\S+0.02^  0;}
 11
0.0
 21
1.0
 31
0.0
  0
POINT
  5
2C5
100
AcDbEntity
  8
DEFPOINTS
  6
BYBLOCK
 62
     0
100
AcDbPoint
 10
135.413379
 20
196.286741
 30
0.0
  0
POINT
  5
2C6
100
AcDbEntity
  8
DEFPOINTS
  6
BYBLOCK
 62
     0
100
AcDbPoint
 10
135.413379
 20
136.286741
 30
0.0
  0
POINT
  5
2C7
100
AcDbEntity
  8
DEFPOINTS
  6
BYBLOCK
 62
     0
100
AcDbPoint
 10
175.401453
 20
136.286741
 30
0.0
  0
ENDBLK
  5
2C8
100
AcDbEntity
  8
0
100
AcDbBlockEnd
  0
BLOCK
  5
31E
100
AcDbEntity
  8
0
100
AcDbBlockBegin
  2
*D5
 70
    65
 10
0.0
 20
0.0
 30
0.0
  3
*D5
  1

  0
LINE
  5
31F
100
AcDbEntity
  8
0
  6
BYBLOCK
 62
     0
100
AcDbLine
 10
101.788379
 20
188.286741
 30
0.0
 11
85.006937
 21
188.286741
 31
0.0
  0
LINE
  5
320
100
AcDbEntity
  8
0
  6
BYBLOCK
 62
     0
100
AcDbLine
 10
85.631937
 20
196.286741
 30
0.0
 11
85.006937
 21
196.286741
 31
0.0
  0
LINE
  5
321
100
AcDbEntity
  8
0
  6
BYBLOCK
 62
     0
100
AcDbLine
 10
86.256937
 20
190.786741
 30
0.0
 11
86.256937
 21
193.786741
 31
0.0
  0
LINE
  5
322
100
AcDbEntity
  8
0
  6
BYBLOCK
 62
     0
100
AcDbLine
 10
86.256937
 20
196.286741
 30
0.0
 11
86.256937
 21
209.606741
 31
0.0
  0
SOLID
  5
323
100
AcDbEntity
  8
0
  6
BYBLOCK
 62
     0
100
AcDbTrace
 10
85.84027
 20
190.786741
 30
0.0
 11
86.673603
 21
190.786741
 31
0.0
 12
86.256937
 22
188.286741
 32
0.0
 13
86.256937
 23
188.286741
 33
0.0
  0
SOLID
  5
324
100
AcDbEntity
  8
0
  6
BYBLOCK
 62
     0
100
AcDbTrace
 10
85.84027
 20
193.786741
 30
0.0
 11
86.673603
 21
193.786741
 31
0.0
 12
86.256937
 22
196.286741
 32
0.0
 13
86.256937
 23
196.286741
 33
0.0
  0
MTEXT
  5
325
100
AcDbEntity
  8
0
  6
BYBLOCK
 62
     0
100
AcDbMText
 10
82.280756
 20
204.196741
 30
0.0
 40
3.0
 41
0.0
 71
     5
 72
     1
  1
\A1;8\S+0.1^  0;
 11
0.0
 21
1.0
 31
0.0
  0
POINT
  5
326
100
AcDbEntity
  8
DEFPOINTS
  6
BYBLOCK
 62
     0
100
AcDbPoint
 10
102.413379
 20
188.286741
 30
0.0
  0
POINT
  5
327
100
AcDbEntity
  8
DEFPOINTS
  6
BYBLOCK
 62
     0
100
AcDbPoint
 10
86.256937
 20
196.286741
 30
0.0
  0
POINT
  5
328
100
AcDbEntity
  8
DEFPOINTS
  6
BYBLOCK
 62
     0
100
AcDbPoint
 10
86.256937
 20
196.286741
 30
0.0
  0
ENDBLK
  5
329
100
AcDbEntity
  8
0
100
AcDbBlockEnd
  0
BLOCK
  5
312
100
AcDbEntity
  8
0
100
AcDbBlockBegin
  2
*D6
 70
    65
 10
0.0
 20
0.0
 30
0.0
  3
*D6
  1

  0
LINE
  5
313
100
AcDbEntity
  8
0
  6
BYBLOCK
 62
     0
100
AcDbLine
 10
115.413379
 20
156.661741
 30
0.0
 11
115.413379
 21
141.924875
 31
0.0
  0
LINE
  5
314
100
AcDbEntity
  8
0
  6
BYBLOCK
 62
     0
100
AcDbLine
 10
135.413379
 20
142.918739
 30
0.0
 11
135.413379
 21
144.424875
 31
0.0
  0
LINE
  5
315
100
AcDbEntity
  8
0
  6
BYBLOCK
 62
     0
100
AcDbLine
 10
117.913379
 20
143.174875
 30
0.0
 11
132.913379
 21
143.174875
 31
0.0
  0
LINE
  5
316
100
AcDbEntity
  8
0
  6
BYBLOCK
 62
     0
100
AcDbLine
 10
135.413379
 20
143.174875
 30
0.0
 11
152.325075
 21
143.174875
 31
0.0
  0
SOLID
  5
317
100
AcDbEntity
  8
0
  6
BYBLOCK
 62
     0
100
AcDbTrace
 10
117.913379
 20
143.591542
 30
0.0
 11
117.913379
 21
142.758208
 31
0.0
 12
115.413379
 22
143.174875
 32
0.0
 13
115.413379
 23
143.174875
 33
0.0
  0
SOLID
  5
318
100
AcDbEntity
  8
0
  6
BYBLOCK
 62
     0
100
AcDbTrace
 10
132.913379
 20
143.591542
 30
0.0
 11
132.913379
 21
142.758208
 31
0.0
 12
135.413379
 22
143.174875
 32
0.0
 13
135.413379
 23
143.174875
 33
0.0
  0
MTEXT
  5
319
100
AcDbEntity
  8
0
  6
BYBLOCK
 62
     0
100
AcDbMText
 10
145.760075
 20
147.151056
 30
0.0
 40
3.0
 41
0.0
 71
     5
 72
     1
  1
\A1;20\S+0.1^  0;
  0
POINT
  5
31A
100
AcDbEntity
  8
DEFPOINTS
  6
BYBLOCK
 62
     0
100
AcDbPoint
 10
115.413379
 20
157.286741
 30
0.0
  0
POINT
  5
31B
100
AcDbEntity
  8
DEFPOINTS
  6
BYBLOCK
 62
     0
100
AcDbPoint
 10
135.413379
 20
142.293739
 30
0.0
  0
POINT
  5
31C
100
AcDbEntity
  8
DEFPOINTS
  6
BYBLOCK
 62
     0
100
AcDbPoint
 10
135.413379
 20
143.174875
 30
0.0
  0
ENDBLK
  5
31D
100
AcDbEntity
  8
0
100
AcDbBlockEnd
  0
BLOCK
  5
2FB
100
AcDbEntity
  8
0
100
AcDbBlockBegin
  2
*D7
 70
    65
 10
0.0
 20
0.0
 30
0.0
  3
*D7
  1

  0
LINE
  5
2FC
100
AcDbEntity
  8
0
  6
BYBLOCK
 62
     0
100
AcDbLine
 10
87.413379
 20
160.661741
 30
0.0
 11
87.413379
 21
147.211684
 31
0.0
  0
LINE
  5
2FD
100
AcDbEntity
  8
0
  6
BYBLOCK
 62
     0
100
AcDbLine
 10
75.413379
 20
149.086684
 30
0.0
 11
75.413379
 21
149.711684
 31
0.0
  0
LINE
  5
2FE
100
AcDbEntity
  8
0
  6
BYBLOCK
 62
     0
100
AcDbLine
 10
84.913379
 20
148.461684
 30
0.0
 11
77.913379
 21
148.461684
 31
0.0
  0
LINE
  5
2FF
100
AcDbEntity
  8
0
  6
BYBLOCK
 62
     0
100
AcDbLine
 10
75.413379
 20
148.461684
 30
0.0
 11
60.443379
 21
148.461684
 31
0.0
  0
SOLID
  5
300
100
AcDbEntity
  8
0
  6
BYBLOCK
 62
     0
100
AcDbTrace
 10
84.913379
 20
148.878351
 30
0.0
 11
84.913379
 21
148.045018
 31
0.0
 12
87.413379
 22
148.461684
 32
0.0
 13
87.413379
 23
148.461684
 33
0.0
  0
SOLID
  5
301
100
AcDbEntity
  8
0
  6
BYBLOCK
 62
     0
100
AcDbTrace
 10
77.913379
 20
148.878351
 30
0.0
 11
77.913379
 21
148.045018
 31
0.0
 12
75.413379
 22
148.461684
 32
0.0
 13
75.413379
 23
148.461684
 33
0.0
  0
MTEXT
  5
302
100
AcDbEntity
  8
0
  6
BYBLOCK
 62
     0
100
AcDbMText
 10
66.678379
 20
152.437866
 30
0.0
 40
3.0
 41
0.0
 71
     5
 72
     1
  1
\A1;12\S+0.1^  0;
  0
POINT
  5
303
100
AcDbEntity
  8
DEFPOINTS
  6
BYBLOCK
 62
     0
100
AcDbPoint
 10
87.413379
 20
161.286741
 30
0.0
  0
POINT
  5
304
100
AcDbEntity
  8
DEFPOINTS
  6
BYBLOCK
 62
     0
100
AcDbPoint
 10
75.413379
 20
148.461684
 30
0.0
  0
POINT
  5
305
100
AcDbEntity
  8
DEFPOINTS
  6
BYBLOCK
 62
     0
100
AcDbPoint
 10
75.413379
 20
148.461684
 30
0.0
  0
ENDBLK
  5
306
100
AcDbEntity
  8
0
100
AcDbBlockEnd
  0
BLOCK
  5
363
100
AcDbEntity
  8
0
100
AcDbBlockBegin
  2
*D8
 70
    65
 10
0.0
 20
0.0
 30
0.0
  3
*D8
  1

  0
LINE
  5
364
100
AcDbEntity
  8
0
  6
BYBLOCK
 62
     0
100
AcDbLine
 10
111.17806
 20
198.581551
 30
0.0
 11
114.479313
 21
208.487303
 31
0.0
  0
SOLID
  5
365
100
AcDbEntity
  8
0
  6
BYBLOCK
 62
     0
100
AcDbTrace
 10
110.782768
 20
198.713289
 30
0.0
 11
111.573353
 21
198.449813
 31
0.0
 12
110.387634
 22
196.209795
 32
0.0
 13
110.387634
 23
196.209795
 33
0.0
  0
MTEXT
  5
366
100
AcDbEntity
  8
0
  6
BYBLOCK
 62
     0
100
AcDbMText
 10
111.200742
 20
205.370669
 30
0.0
 40
3.0
 41
0.0
 71
     5
 72
     1
  1
\A1;R1.5
 11
0.31617
 21
0.948702
 31
0.0
  0
LINE
  5
367
100
AcDbEntity
  8
0
  6
BYBLOCK
 62
     0
100
AcDbLine
 10
107.413379
 20
194.786741
 30
0.0
 11
112.413379
 21
194.786741
 31
0.0
  0
LINE
  5
368
100
AcDbEntity
  8
0
  6
BYBLOCK
 62
     0
100
AcDbLine
 10
109.913379
 20
192.286741
 30
0.0
 11
109.913379
 21
197.286741
 31
0.0
  0
POINT
  5
369
100
AcDbEntity
  8
DEFPOINTS
  6
BYBLOCK
 62
     0
100
AcDbPoint
 10
110.387634
 20
196.209795
 30
0.0
  0
POINT
  5
36A
100
AcDbEntity
  8
DEFPOINTS
  6
BYBLOCK
 62
     0
100
AcDbPoint
 10
109.913379
 20
194.786741
 30
0.0
  0
ENDBLK
  5
36B
100
AcDbEntity
  8
0
100
AcDbBlockEnd
  0
BLOCK
  5
379
100
AcDbEntity
  8
0
100
AcDbBlockBegin
  2
*D9
 70
    65
 10
0.0
 20
0.0
 30
0.0
  3
*D9
  1

  0
LINE
  5
37A
100
AcDbEntity
  8
0
  6
BYBLOCK
 62
     0
100
AcDbLine
 10
72.964435
 20
173.962681
 30
0.0
 11
63.417903
 21
175.413112
 31
0.0
  0
SOLID
  5
37B
100
AcDbEntity
  8
0
  6
BYBLOCK
 62
     0
100
AcDbTrace
 10
73.027022
 20
174.374621
 30
0.0
 11
72.901847
 21
173.550742
 31
0.0
 12
75.43607
 22
173.587159
 32
0.0
 13
75.43607
 23
173.587159
 33
0.0
  0
MTEXT
  5
37C
100
AcDbEntity
  8
0
  6
BYBLOCK
 62
     0
100
AcDbMText
 10
66.451983
 20
177.101821
 30
0.0
 40
3.0
 41
0.0
 71
     5
 72
     1
  1
\A1;R2
 11
0.988654
 21
-0.150209
 31
0.0
  0
LINE
  5
37D
100
AcDbEntity
  8
0
  6
BYBLOCK
 62
     0
100
AcDbLine
 10
74.913379
 20
173.286741
 30
0.0
 11
79.913379
 21
173.286741
 31
0.0
  0
LINE
  5
37E
100
AcDbEntity
  8
0
  6
BYBLOCK
 62
     0
100
AcDbLine
 10
77.413379
 20
170.786741
 30
0.0
 11
77.413379
 21
175.786741
 31
0.0
  0
POINT
  5
37F
100
AcDbEntity
  8
DEFPOINTS
  6
BYBLOCK
 62
     0
100
AcDbPoint
 10
75.43607
 20
173.587159
 30
0.0
  0
POINT
  5
380
100
AcDbEntity
  8
DEFPOINTS
  6
BYBLOCK
 62
     0
100
AcDbPoint
 10
77.413379
 20
173.286741
 30
0.0
  0
ENDBLK
  5
381
100
AcDbEntity
  8
0
100
AcDbBlockEnd
  0
BLOCK
  5
38F
100
AcDbEntity
  8
0
100
AcDbBlockBegin
  2
*D10
 70
    65
 10
0.0
 20
0.0
 30
0.0
  3
*D10
  1

  0
LINE
  5
390
100
AcDbEntity
  8
0
  6
BYBLOCK
 62
     0
100
AcDbLine
 10
137.852417
 20
179.103359
 30
0.0
 11
146.950379
 21
180.469328
 31
0.0
  0
SOLID
  5
391
100
AcDbEntity
  8
0
  6
BYBLOCK
 62
     0
100
AcDbTrace
 10
137.790552
 20
179.515407
 30
0.0
 11
137.914282
 21
178.691311
 31
0.0
 12
135.380127
 22
178.732169
 32
0.0
 13
135.380127
 23
178.732169
 33
0.0
  0
MTEXT
  5
392
100
AcDbEntity
  8
0
  6
BYBLOCK
 62
     0
100
AcDbMText
 10
143.991154
 20
182.173847
 30
0.0
 40
3.0
 41
0.0
 71
     5
 72
     1
  1
\A1;R3
 11
0.988916
 21
0.148476
 31
0.0
  0
LINE
  5
393
100
AcDbEntity
  8
0
  6
BYBLOCK
 62
     0
100
AcDbLine
 10
129.913379
 20
178.286741
 30
0.0
 11
134.913379
 21
178.286741
 31
0.0
  0
LINE
  5
394
100
AcDbEntity
  8
0
  6
BYBLOCK
 62
     0
100
AcDbLine
 10
132.413379
 20
175.786741
 30
0.0
 11
132.413379
 21
180.786741
 31
0.0
  0
POINT
  5
395
100
AcDbEntity
  8
DEFPOINTS
  6
BYBLOCK
 62
     0
100
AcDbPoint
 10
135.380127
 20
178.732169
 30
0.0
  0
POINT
  5
396
100
AcDbEntity
  8
DEFPOINTS
  6
BYBLOCK
 62
     0
100
AcDbPoint
 10
132.413379
 20
178.286741
 30
0.0
  0
ENDBLK
  5
397
100
AcDbEntity
  8
0
100
AcDbBlockEnd
  0
BLOCK
  5
3DA
100
AcDbEntity
  8
0
100
AcDbBlockBegin
  2
*X11
 70
    65
 10
0.0
 20
0.0
 30
0.0
  3
*X11
  1

  0
LINE
  5
3DC
100
AcDbEntity
  8
0
 62
     0
100
AcDbLine
 10
115.934007
 20
194.286741
 30
0.0
 11
117.934007
 21
196.286741
 31
0.0
  0
LINE
  5
3DD
100
AcDbEntity
  8
0
 62
     0
100
AcDbLine
 10
115.7095
 20
194.286741
 30
0.0
 11
117.7095
 21
196.286741
 31
0.0
  0
LINE
  5
3DE
100
AcDbEntity
  8
0
 62
     0
100
AcDbLine
 10
115.484994
 20
194.286741
 30
0.0
 11
117.484994
 21
196.286741
 31
0.0
  0
LINE
  5
3DF
100
AcDbEntity
  8
0
 62
     0
100
AcDbLine
 10
115.260487
 20
194.286741
 30
0.0
 11
117.260487
 21
196.286741
 31
0.0
  0
LINE
  5
3E0
100
AcDbEntity
  8
0
 62
     0
100
AcDbLine
 10
115.035981
 20
194.286741
 30
0.0
 11
117.035981
 21
196.286741
 31
0.0
  0
LINE
  5
3E1
100
AcDbEntity
  8
0
 62
     0
100
AcDbLine
 10
114.811475
 20
194.286741
 30
0.0
 11
116.811475
 21
196.286741
 31
0.0
  0
LINE
  5
3E2
100
AcDbEntity
  8
0
 62
     0
100
AcDbLine
 10
114.586968
 20
194.286741
 30
0.0
 11
116.586968
 21
196.286741
 31
0.0
  0
LINE
  5
3E3
100
AcDbEntity
  8
0
 62
     0
100
AcDbLine
 10
114.362462
 20
194.286741
 30
0.0
 11
116.362462
 21
196.286741
 31
0.0
  0
LINE
  5
3E4
100
AcDbEntity
  8
0
 62
     0
100
AcDbLine
 10
114.137955
 20
194.286741
 30
0.0
 11
116.137955
 21
196.286741
 31
0.0
  0
LINE
  5
3E5
100
AcDbEntity
  8
0
 62
     0
100
AcDbLine
 10
113.913449
 20
194.286741
 30
0.0
 11
115.913449
 21
196.286741
 31
0.0
  0
LINE
  5
3E6
100
AcDbEntity
  8
0
 62
     0
100
AcDbLine
 10
113.688943
 20
194.286741
 30
0.0
 11
115.688943
 21
196.286741
 31
0.0
  0
LINE
  5
3E7
100
AcDbEntity
  8
0
 62
     0
100
AcDbLine
 10
113.464436
 20
194.286741
 30
0.0
 11
115.464436
 21
196.286741
 31
0.0
  0
LINE
  5
3E8
100
AcDbEntity
  8
0
 62
     0
100
AcDbLine
 10
113.23993
 20
194.286741
 30
0.0
 11
115.23993
 21
196.286741
 31
0.0
  0
LINE
  5
3E9
100
AcDbEntity
  8
0
 62
     0
100
AcDbLine
 10
113.015423
 20
194.286741
 30
0.0
 11
115.015423
 21
196.286741
 31
0.0
  0
LINE
  5
3EA
100
AcDbEntity
  8
0
 62
     0
100
AcDbLine
 10
112.790917
 20
194.286741
 30
0.0
 11
114.790917
 21
196.286741
 31
0.0
  0
LINE
  5
3EB
100
AcDbEntity
  8
0
 62
     0
100
AcDbLine
 10
112.566411
 20
194.286741
 30
0.0
 11
114.566411
 21
196.286741
 31
0.0
  0
LINE
  5
3EC
100
AcDbEntity
  8
0
 62
     0
100
AcDbLine
 10
112.341904
 20
194.286741
 30
0.0
 11
114.341904
 21
196.286741
 31
0.0
  0
LINE
  5
3ED
100
AcDbEntity
  8
0
 62
     0
100
AcDbLine
 10
112.117398
 20
194.286741
 30
0.0
 11
114.117398
 21
196.286741
 31
0.0
  0
LINE
  5
3EE
100
AcDbEntity
  8
0
 62
     0
100
AcDbLine
 10
108.413379
 20
190.807229
 30
0.0
 11
108.510581
 21
190.904431
 31
0.0
  0
LINE
  5
3EF
100
AcDbEntity
  8
0
 62
     0
100
AcDbLine
 10
111.892891
 20
194.286741
 30
0.0
 11
113.892891
 21
196.286741
 31
0.0
  0
LINE
  5
3F0
100
AcDbEntity
  8
0
 62
     0
100
AcDbLine
 10
108.413379
 20
191.031735
 30
0.0
 11
108.669679
 21
191.288035
 31
0.0
  0
LINE
  5
3F1
100
AcDbEntity
  8
0
 62
     0
100
AcDbLine
 10
111.668385
 20
194.286741
 30
0.0
 11
113.668385
 21
196.286741
 31
0.0
  0
LINE
  5
3F2
100
AcDbEntity
  8
0
 62
     0
100
AcDbLine
 10
108.413379
 20
191.256241
 30
0.0
 11
108.828777
 21
191.67164
 31
0.0
  0
LINE
  5
3F3
100
AcDbEntity
  8
0
 62
     0
100
AcDbLine
 10
111.443879
 20
194.286741
 30
0.0
 11
113.443879
 21
196.286741
 31
0.0
  0
LINE
  5
3F4
100
AcDbEntity
  8
0
 62
     0
100
AcDbLine
 10
108.413379
 20
191.480748
 30
0.0
 11
108.987876
 21
192.055245
 31
0.0
  0
LINE
  5
3F5
100
AcDbEntity
  8
0
 62
     0
100
AcDbLine
 10
111.219372
 20
194.286741
 30
0.0
 11
113.219372
 21
196.286741
 31
0.0
  0
LINE
  5
3F6
100
AcDbEntity
  8
0
 62
     0
100
AcDbLine
 10
108.413379
 20
191.705254
 30
0.0
 11
109.146974
 21
192.43885
 31
0.0
  0
LINE
  5
3F7
100
AcDbEntity
  8
0
 62
     0
100
AcDbLine
 10
110.994866
 20
194.286741
 30
0.0
 11
112.994866
 21
196.286741
 31
0.0
  0
LINE
  5
3F8
100
AcDbEntity
  8
0
 62
     0
100
AcDbLine
 10
108.413379
 20
191.929761
 30
0.0
 11
109.306072
 21
192.822454
 31
0.0
  0
LINE
  5
3F9
100
AcDbEntity
  8
0
 62
     0
100
AcDbLine
 10
110.770359
 20
194.286741
 30
0.0
 11
112.770359
 21
196.286741
 31
0.0
  0
LINE
  5
3FA
100
AcDbEntity
  8
0
 62
     0
100
AcDbLine
 10
108.413379
 20
192.154267
 30
0.0
 11
109.465171
 21
193.206059
 31
0.0
  0
LINE
  5
3FB
100
AcDbEntity
  8
0
 62
     0
100
AcDbLine
 10
110.545853
 20
194.286741
 30
0.0
 11
112.545853
 21
196.286741
 31
0.0
  0
LINE
  5
3FC
100
AcDbEntity
  8
0
 62
     0
100
AcDbLine
 10
108.413379
 20
192.378774
 30
0.0
 11
109.624269
 21
193.589664
 31
0.0
  0
LINE
  5
3FD
100
AcDbEntity
  8
0
 62
     0
100
AcDbLine
 10
110.321346
 20
194.286741
 30
0.0
 11
112.321346
 21
196.286741
 31
0.0
  0
LINE
  5
3FE
100
AcDbEntity
  8
0
 62
     0
100
AcDbLine
 10
108.413379
 20
192.60328
 30
0.0
 11
109.783367
 21
193.973269
 31
0.0
  0
LINE
  5
3FF
100
AcDbEntity
  8
0
 62
     0
100
AcDbLine
 10
110.09684
 20
194.286741
 30
0.0
 11
112.09684
 21
196.286741
 31
0.0
  0
LINE
  5
400
100
AcDbEntity
  8
0
 62
     0
100
AcDbLine
 10
108.413379
 20
192.827786
 30
0.0
 11
111.872334
 21
196.286741
 31
0.0
  0
LINE
  5
401
100
AcDbEntity
  8
0
 62
     0
100
AcDbLine
 10
108.413379
 20
193.052293
 30
0.0
 11
111.647827
 21
196.286741
 31
0.0
  0
LINE
  5
402
100
AcDbEntity
  8
0
 62
     0
100
AcDbLine
 10
108.413379
 20
193.276799
 30
0.0
 11
111.423321
 21
196.286741
 31
0.0
  0
LINE
  5
403
100
AcDbEntity
  8
0
 62
     0
100
AcDbLine
 10
108.413379
 20
193.501306
 30
0.0
 11
111.198814
 21
196.286741
 31
0.0
  0
LINE
  5
404
100
AcDbEntity
  8
0
 62
     0
100
AcDbLine
 10
108.413379
 20
193.725812
 30
0.0
 11
110.974308
 21
196.286741
 31
0.0
  0
LINE
  5
405
100
AcDbEntity
  8
0
 62
     0
100
AcDbLine
 10
108.413379
 20
193.950318
 30
0.0
 11
110.749802
 21
196.286741
 31
0.0
  0
LINE
  5
406
100
AcDbEntity
  8
0
 62
     0
100
AcDbLine
 10
108.413379
 20
194.174825
 30
0.0
 11
110.525295
 21
196.286741
 31
0.0
  0
LINE
  5
407
100
AcDbEntity
  8
0
 62
     0
100
AcDbLine
 10
108.413379
 20
194.399331
 30
0.0
 11
110.300789
 21
196.286741
 31
0.0
  0
LINE
  5
408
100
AcDbEntity
  8
0
 62
     0
100
AcDbLine
 10
108.413379
 20
194.623838
 30
0.0
 11
110.076282
 21
196.286741
 31
0.0
  0
LINE
  5
409
100
AcDbEntity
  8
0
 62
     0
100
AcDbLine
 10
108.414699
 20
194.849664
 30
0.0
 11
109.850456
 21
196.285421
 31
0.0
  0
LINE
  5
40A
100
AcDbEntity
  8
0
 62
     0
100
AcDbLine
 10
108.448089
 20
195.10756
 30
0.0
 11
109.59256
 21
196.252031
 31
0.0
  0
LINE
  5
40B
100
AcDbEntity
  8
0
 62
     0
100
AcDbLine
 10
108.569905
 20
195.453883
 30
0.0
 11
109.246237
 21
196.130215
 31
0.0
  0
LINE
  5
40C
100
AcDbEntity
  8
0
 62
     0
100
AcDbLine
 10
102.355088
 20
190.810611
 30
0.0
 11
102.413379
 21
190.868902
 31
0.0
  0
LINE
  5
40D
100
AcDbEntity
  8
0
 62
     0
100
AcDbLine
 10
82.606712
 20
171.286741
 30
0.0
 11
82.617927
 21
171.297956
 31
0.0
  0
LINE
  5
40E
100
AcDbEntity
  8
0
 62
     0
100
AcDbLine
 10
102.289272
 20
190.969301
 30
0.0
 11
102.413379
 21
191.093408
 31
0.0
  0
LINE
  5
40F
100
AcDbEntity
  8
0
 62
     0
100
AcDbLine
 10
82.382206
 20
171.286741
 30
0.0
 11
82.455491
 21
171.360027
 31
0.0
  0
LINE
  5
410
100
AcDbEntity
  8
0
 62
     0
100
AcDbLine
 10
102.223456
 20
191.127991
 30
0.0
 11
102.413379
 21
191.317914
 31
0.0
  0
LINE
  5
411
100
AcDbEntity
  8
0
 62
     0
100
AcDbLine
 10
82.157699
 20
171.286741
 30
0.0
 11
82.293055
 21
171.422097
 31
0.0
  0
LINE
  5
412
100
AcDbEntity
  8
0
 62
     0
100
AcDbLine
 10
102.15764
 20
191.286682
 30
0.0
 11
102.413379
 21
191.542421
 31
0.0
  0
LINE
  5
413
100
AcDbEntity
  8
0
 62
     0
100
AcDbLine
 10
81.933193
 20
171.286741
 30
0.0
 11
82.13062
 21
171.484168
 31
0.0
  0
LINE
  5
414
100
AcDbEntity
  8
0
 62
     0
100
AcDbLine
 10
102.091824
 20
191.445372
 30
0.0
 11
102.413379
 21
191.766927
 31
0.0
  0
LINE
  5
415
100
AcDbEntity
  8
0
 62
     0
100
AcDbLine
 10
81.708686
 20
171.286741
 30
0.0
 11
81.968184
 21
171.546239
 31
0.0
  0
LINE
  5
416
100
AcDbEntity
  8
0
 62
     0
100
AcDbLine
 10
102.026008
 20
191.604062
 30
0.0
 11
102.413379
 21
191.991434
 31
0.0
  0
LINE
  5
417
100
AcDbEntity
  8
0
 62
     0
100
AcDbLine
 10
81.48418
 20
171.286741
 30
0.0
 11
81.805748
 21
171.608309
 31
0.0
  0
LINE
  5
418
100
AcDbEntity
  8
0
 62
     0
100
AcDbLine
 10
101.960192
 20
191.762753
 30
0.0
 11
102.413379
 21
192.21594
 31
0.0
  0
LINE
  5
419
100
AcDbEntity
  8
0
 62
     0
100
AcDbLine
 10
81.259674
 20
171.286741
 30
0.0
 11
81.643312
 21
171.67038
 31
0.0
  0
LINE
  5
41A
100
AcDbEntity
  8
0
 62
     0
100
AcDbLine
 10
101.894375
 20
191.921443
 30
0.0
 11
102.413379
 21
192.440446
 31
0.0
  0
LINE
  5
41B
100
AcDbEntity
  8
0
 62
     0
100
AcDbLine
 10
81.035167
 20
171.286741
 30
0.0
 11
81.480877
 21
171.732451
 31
0.0
  0
LINE
  5
41C
100
AcDbEntity
  8
0
 62
     0
100
AcDbLine
 10
101.828559
 20
192.080133
 30
0.0
 11
102.413379
 21
192.664953
 31
0.0
  0
LINE
  5
41D
100
AcDbEntity
  8
0
 62
     0
100
AcDbLine
 10
80.810661
 20
171.286741
 30
0.0
 11
81.318441
 21
171.794521
 31
0.0
  0
LINE
  5
41E
100
AcDbEntity
  8
0
 62
     0
100
AcDbLine
 10
101.762743
 20
192.238824
 30
0.0
 11
102.413379
 21
192.889459
 31
0.0
  0
LINE
  5
41F
100
AcDbEntity
  8
0
 62
     0
100
AcDbLine
 10
80.586154
 20
171.286741
 30
0.0
 11
81.156005
 21
171.856592
 31
0.0
  0
LINE
  5
420
100
AcDbEntity
  8
0
 62
     0
100
AcDbLine
 10
101.696927
 20
192.397514
 30
0.0
 11
102.413379
 21
193.113966
 31
0.0
  0
LINE
  5
421
100
AcDbEntity
  8
0
 62
     0
100
AcDbLine
 10
80.361648
 20
171.286741
 30
0.0
 11
80.99357
 21
171.918663
 31
0.0
  0
LINE
  5
422
100
AcDbEntity
  8
0
 62
     0
100
AcDbLine
 10
101.631111
 20
192.556204
 30
0.0
 11
102.413379
 21
193.338472
 31
0.0
  0
LINE
  5
423
100
AcDbEntity
  8
0
 62
     0
100
AcDbLine
 10
80.137142
 20
171.286741
 30
0.0
 11
80.831134
 21
171.980733
 31
0.0
  0
LINE
  5
424
100
AcDbEntity
  8
0
 62
     0
100
AcDbLine
 10
101.565295
 20
192.714895
 30
0.0
 11
102.413379
 21
193.562978
 31
0.0
  0
LINE
  5
425
100
AcDbEntity
  8
0
 62
     0
100
AcDbLine
 10
79.912635
 20
171.286741
 30
0.0
 11
80.668698
 21
172.042804
 31
0.0
  0
LINE
  5
426
100
AcDbEntity
  8
0
 62
     0
100
AcDbLine
 10
101.499479
 20
192.873585
 30
0.0
 11
102.413379
 21
193.787485
 31
0.0
  0
LINE
  5
427
100
AcDbEntity
  8
0
 62
     0
100
AcDbLine
 10
79.688129
 20
171.286741
 30
0.0
 11
80.506262
 21
172.104875
 31
0.0
  0
LINE
  5
428
100
AcDbEntity
  8
0
 62
     0
100
AcDbLine
 10
101.433663
 20
193.032275
 30
0.0
 11
102.413379
 21
194.011991
 31
0.0
  0
LINE
  5
429
100
AcDbEntity
  8
0
 62
     0
100
AcDbLine
 10
79.463622
 20
171.286741
 30
0.0
 11
80.343827
 21
172.166945
 31
0.0
  0
LINE
  5
42A
100
AcDbEntity
  8
0
 62
     0
100
AcDbLine
 10
101.367847
 20
193.190966
 30
0.0
 11
102.413379
 21
194.236498
 31
0.0
  0
LINE
  5
42B
100
AcDbEntity
  8
0
 62
     0
100
AcDbLine
 10
79.239116
 20
171.286741
 30
0.0
 11
80.181391
 21
172.229016
 31
0.0
  0
LINE
  5
42C
100
AcDbEntity
  8
0
 62
     0
100
AcDbLine
 10
101.302031
 20
193.349656
 30
0.0
 11
102.413379
 21
194.461004
 31
0.0
  0
LINE
  5
42D
100
AcDbEntity
  8
0
 62
     0
100
AcDbLine
 10
79.01461
 20
171.286741
 30
0.0
 11
80.018955
 21
172.291087
 31
0.0
  0
LINE
  5
42E
100
AcDbEntity
  8
0
 62
     0
100
AcDbLine
 10
101.236215
 20
193.508346
 30
0.0
 11
102.413379
 21
194.68551
 31
0.0
  0
LINE
  5
42F
100
AcDbEntity
  8
0
 62
     0
100
AcDbLine
 10
78.790103
 20
171.286741
 30
0.0
 11
79.856519
 21
172.353157
 31
0.0
  0
LINE
  5
430
100
AcDbEntity
  8
0
 62
     0
100
AcDbLine
 10
101.170398
 20
193.667037
 30
0.0
 11
102.408684
 21
194.905322
 31
0.0
  0
LINE
  5
431
100
AcDbEntity
  8
0
 62
     0
100
AcDbLine
 10
78.565597
 20
171.286741
 30
0.0
 11
79.694084
 21
172.415228
 31
0.0
  0
LINE
  5
432
100
AcDbEntity
  8
0
 62
     0
100
AcDbLine
 10
101.104582
 20
193.825727
 30
0.0
 11
102.380049
 21
195.101193
 31
0.0
  0
LINE
  5
433
100
AcDbEntity
  8
0
 62
     0
100
AcDbLine
 10
78.34109
 20
171.286741
 30
0.0
 11
79.531648
 21
172.477299
 31
0.0
  0
LINE
  5
434
100
AcDbEntity
  8
0
 62
     0
100
AcDbLine
 10
101.038766
 20
193.984417
 30
0.0
 11
102.331089
 21
195.27674
 31
0.0
  0
LINE
  5
435
100
AcDbEntity
  8
0
 62
     0
100
AcDbLine
 10
78.116584
 20
171.286741
 30
0.0
 11
79.369212
 21
172.539369
 31
0.0
  0
LINE
  5
436
100
AcDbEntity
  8
0
 62
     0
100
AcDbLine
 10
100.97295
 20
194.143107
 30
0.0
 11
102.265669
 21
195.435826
 31
0.0
  0
LINE
  5
437
100
AcDbEntity
  8
0
 62
     0
100
AcDbLine
 10
77.892078
 20
171.286741
 30
0.0
 11
79.206776
 21
172.60144
 31
0.0
  0
LINE
  5
438
100
AcDbEntity
  8
0
 62
     0
100
AcDbLine
 10
100.892078
 20
194.286741
 30
0.0
 11
102.18603
 21
195.580693
 31
0.0
  0
LINE
  5
439
100
AcDbEntity
  8
0
 62
     0
100
AcDbLine
 10
77.667571
 20
171.286741
 30
0.0
 11
79.044341
 21
172.663511
 31
0.0
  0
LINE
  5
43A
100
AcDbEntity
  8
0
 62
     0
100
AcDbLine
 10
100.667571
 20
194.286741
 30
0.0
 11
102.093493
 21
195.712663
 31
0.0
  0
LINE
  5
43B
100
AcDbEntity
  8
0
 62
     0
100
AcDbLine
 10
77.443065
 20
171.286741
 30
0.0
 11
78.881905
 21
172.725581
 31
0.0
  0
LINE
  5
43C
100
AcDbEntity
  8
0
 62
     0
100
AcDbLine
 10
100.443065
 20
194.286741
 30
0.0
 11
101.988778
 21
195.832455
 31
0.0
  0
LINE
  5
43D
100
AcDbEntity
  8
0
 62
     0
100
AcDbLine
 10
77.227239
 20
171.295422
 30
0.0
 11
78.719469
 21
172.787652
 31
0.0
  0
LINE
  5
43E
100
AcDbEntity
  8
0
 62
     0
100
AcDbLine
 10
100.218558
 20
194.286741
 30
0.0
 11
101.872146
 21
195.940329
 31
0.0
  0
LINE
  5
43F
100
AcDbEntity
  8
0
 62
     0
100
AcDbLine
 10
77.030954
 20
171.323644
 30
0.0
 11
78.557034
 21
172.849723
 31
0.0
  0
LINE
  5
440
100
AcDbEntity
  8
0
 62
     0
100
AcDbLine
 10
99.994052
 20
194.286741
 30
0.0
 11
101.743447
 21
196.036136
 31
0.0
  0
LINE
  5
441
100
AcDbEntity
  8
0
 62
     0
100
AcDbLine
 10
76.850413
 20
171.367609
 30
0.0
 11
78.394598
 21
172.911793
 31
0.0
  0
LINE
  5
442
100
AcDbEntity
  8
0
 62
     0
100
AcDbLine
 10
99.769546
 20
194.286741
 30
0.0
 11
101.602091
 21
196.119286
 31
0.0
  0
LINE
  5
443
100
AcDbEntity
  8
0
 62
     0
100
AcDbLine
 10
76.683124
 20
171.424826
 30
0.0
 11
78.232162
 21
172.973864
 31
0.0
  0
LINE
  5
444
100
AcDbEntity
  8
0
 62
     0
100
AcDbLine
 10
99.545039
 20
194.286741
 30
0.0
 11
101.446936
 21
196.188639
 31
0.0
  0
LINE
  5
445
100
AcDbEntity
  8
0
 62
     0
100
AcDbLine
 10
76.527453
 20
171.493661
 30
0.0
 11
78.069726
 21
173.035935
 31
0.0
  0
LINE
  5
446
100
AcDbEntity
  8
0
 62
     0
100
AcDbLine
 10
99.320533
 20
194.286741
 30
0.0
 11
101.276033
 21
196.242242
 31
0.0
  0
LINE
  5
447
100
AcDbEntity
  8
0
 62
     0
100
AcDbLine
 10
76.382297
 20
171.573011
 30
0.0
 11
77.907291
 21
173.098005
 31
0.0
  0
LINE
  5
448
100
AcDbEntity
  8
0
 62
     0
100
AcDbLine
 10
99.096026
 20
194.286741
 30
0.0
 11
101.086054
 21
196.276769
 31
0.0
  0
LINE
  5
449
100
AcDbEntity
  8
0
 62
     0
100
AcDbLine
 10
76.246911
 20
171.662133
 30
0.0
 11
77.744855
 21
173.160076
 31
0.0
  0
LINE
  5
44A
100
AcDbEntity
  8
0
 62
     0
100
AcDbLine
 10
98.87152
 20
194.286741
 30
0.0
 11
100.87152
 21
196.286741
 31
0.0
  0
LINE
  5
44B
100
AcDbEntity
  8
0
 62
     0
100
AcDbLine
 10
76.120816
 20
171.760543
 30
0.0
 11
77.582419
 21
173.222147
 31
0.0
  0
LINE
  5
44C
100
AcDbEntity
  8
0
 62
     0
100
AcDbLine
 10
98.647014
 20
194.286741
 30
0.0
 11
100.647014
 21
196.286741
 31
0.0
  0
LINE
  5
44D
100
AcDbEntity
  8
0
 62
     0
100
AcDbLine
 10
76.003737
 20
171.867971
 30
0.0
 11
77.419983
 21
173.284217
 31
0.0
  0
LINE
  5
44E
100
AcDbEntity
  8
0
 62
     0
100
AcDbLine
 10
98.422507
 20
194.286741
 30
0.0
 11
100.422507
 21
196.286741
 31
0.0
  0
LINE
  5
44F
100
AcDbEntity
  8
0
 62
     0
100
AcDbLine
 10
75.895582
 20
171.984323
 30
0.0
 11
77.413379
 21
173.502119
 31
0.0
  0
LINE
  5
450
100
AcDbEntity
  8
0
 62
     0
100
AcDbLine
 10
98.198001
 20
194.286741
 30
0.0
 11
100.198001
 21
196.286741
 31
0.0
  0
LINE
  5
451
100
AcDbEntity
  8
0
 62
     0
100
AcDbLine
 10
75.796431
 20
172.109678
 30
0.0
 11
77.413379
 21
173.726626
 31
0.0
  0
LINE
  5
452
100
AcDbEntity
  8
0
 62
     0
100
AcDbLine
 10
97.973494
 20
194.286741
 30
0.0
 11
99.973494
 21
196.286741
 31
0.0
  0
LINE
  5
453
100
AcDbEntity
  8
0
 62
     0
100
AcDbLine
 10
75.706539
 20
172.244293
 30
0.0
 11
77.413379
 21
173.951132
 31
0.0
  0
LINE
  5
454
100
AcDbEntity
  8
0
 62
     0
100
AcDbLine
 10
97.748988
 20
194.286741
 30
0.0
 11
99.748988
 21
196.286741
 31
0.0
  0
LINE
  5
455
100
AcDbEntity
  8
0
 62
     0
100
AcDbLine
 10
75.626371
 20
172.388631
 30
0.0
 11
77.413379
 21
174.175638
 31
0.0
  0
LINE
  5
456
100
AcDbEntity
  8
0
 62
     0
100
AcDbLine
 10
97.524482
 20
194.286741
 30
0.0
 11
99.524482
 21
196.286741
 31
0.0
  0
LINE
  5
457
100
AcDbEntity
  8
0
 62
     0
100
AcDbLine
 10
75.556645
 20
172.543411
 30
0.0
 11
77.413379
 21
174.400145
 31
0.0
  0
LINE
  5
458
100
AcDbEntity
  8
0
 62
     0
100
AcDbLine
 10
97.299975
 20
194.286741
 30
0.0
 11
99.299975
 21
196.286741
 31
0.0
  0
LINE
  5
459
100
AcDbEntity
  8
0
 62
     0
100
AcDbLine
 10
75.49843
 20
172.709703
 30
0.0
 11
77.413379
 21
174.624651
 31
0.0
  0
LINE
  5
45A
100
AcDbEntity
  8
0
 62
     0
100
AcDbLine
 10
97.075469
 20
194.286741
 30
0.0
 11
99.075469
 21
196.286741
 31
0.0
  0
LINE
  5
45B
100
AcDbEntity
  8
0
 62
     0
100
AcDbLine
 10
75.453309
 20
172.889088
 30
0.0
 11
77.413379
 21
174.849158
 31
0.0
  0
LINE
  5
45C
100
AcDbEntity
  8
0
 62
     0
100
AcDbLine
 10
96.850962
 20
194.286741
 30
0.0
 11
98.850962
 21
196.286741
 31
0.0
  0
LINE
  5
45D
100
AcDbEntity
  8
0
 62
     0
100
AcDbLine
 10
75.423684
 20
173.08397
 30
0.0
 11
77.413379
 21
175.073664
 31
0.0
  0
LINE
  5
45E
100
AcDbEntity
  8
0
 62
     0
100
AcDbLine
 10
96.626456
 20
194.286741
 30
0.0
 11
98.626456
 21
196.286741
 31
0.0
  0
LINE
  5
45F
100
AcDbEntity
  8
0
 62
     0
100
AcDbLine
 10
75.413379
 20
173.29817
 30
0.0
 11
77.413379
 21
175.29817
 31
0.0
  0
LINE
  5
460
100
AcDbEntity
  8
0
 62
     0
100
AcDbLine
 10
96.40195
 20
194.286741
 30
0.0
 11
98.40195
 21
196.286741
 31
0.0
  0
LINE
  5
461
100
AcDbEntity
  8
0
 62
     0
100
AcDbLine
 10
75.413379
 20
173.522677
 30
0.0
 11
77.413379
 21
175.522677
 31
0.0
  0
LINE
  5
462
100
AcDbEntity
  8
0
 62
     0
100
AcDbLine
 10
96.177443
 20
194.286741
 30
0.0
 11
98.177443
 21
196.286741
 31
0.0
  0
LINE
  5
463
100
AcDbEntity
  8
0
 62
     0
100
AcDbLine
 10
75.413379
 20
173.747183
 30
0.0
 11
77.413379
 21
175.747183
 31
0.0
  0
LINE
  5
464
100
AcDbEntity
  8
0
 62
     0
100
AcDbLine
 10
95.952937
 20
194.286741
 30
0.0
 11
97.952937
 21
196.286741
 31
0.0
  0
LINE
  5
465
100
AcDbEntity
  8
0
 62
     0
100
AcDbLine
 10
75.413379
 20
173.97169
 30
0.0
 11
77.413379
 21
175.97169
 31
0.0
  0
LINE
  5
466
100
AcDbEntity
  8
0
 62
     0
100
AcDbLine
 10
95.72843
 20
194.286741
 30
0.0
 11
97.72843
 21
196.286741
 31
0.0
  0
LINE
  5
467
100
AcDbEntity
  8
0
 62
     0
100
AcDbLine
 10
75.413379
 20
174.196196
 30
0.0
 11
77.413379
 21
176.196196
 31
0.0
  0
LINE
  5
468
100
AcDbEntity
  8
0
 62
     0
100
AcDbLine
 10
95.503924
 20
194.286741
 30
0.0
 11
97.503924
 21
196.286741
 31
0.0
  0
LINE
  5
469
100
AcDbEntity
  8
0
 62
     0
100
AcDbLine
 10
75.413379
 20
174.420703
 30
0.0
 11
77.413379
 21
176.420703
 31
0.0
  0
LINE
  5
46A
100
AcDbEntity
  8
0
 62
     0
100
AcDbLine
 10
95.279417
 20
194.286741
 30
0.0
 11
97.279417
 21
196.286741
 31
0.0
  0
LINE
  5
46B
100
AcDbEntity
  8
0
 62
     0
100
AcDbLine
 10
75.413379
 20
174.645209
 30
0.0
 11
77.413379
 21
176.645209
 31
0.0
  0
LINE
  5
46C
100
AcDbEntity
  8
0
 62
     0
100
AcDbLine
 10
95.054911
 20
194.286741
 30
0.0
 11
97.054911
 21
196.286741
 31
0.0
  0
LINE
  5
46D
100
AcDbEntity
  8
0
 62
     0
100
AcDbLine
 10
75.413379
 20
174.869715
 30
0.0
 11
77.413379
 21
176.869715
 31
0.0
  0
LINE
  5
46E
100
AcDbEntity
  8
0
 62
     0
100
AcDbLine
 10
94.830405
 20
194.286741
 30
0.0
 11
96.830405
 21
196.286741
 31
0.0
  0
LINE
  5
46F
100
AcDbEntity
  8
0
 62
     0
100
AcDbLine
 10
75.413379
 20
175.094222
 30
0.0
 11
77.413379
 21
177.094222
 31
0.0
  0
LINE
  5
470
100
AcDbEntity
  8
0
 62
     0
100
AcDbLine
 10
94.605898
 20
194.286741
 30
0.0
 11
96.605898
 21
196.286741
 31
0.0
  0
LINE
  5
471
100
AcDbEntity
  8
0
 62
     0
100
AcDbLine
 10
75.413379
 20
175.318728
 30
0.0
 11
77.413379
 21
177.318728
 31
0.0
  0
LINE
  5
472
100
AcDbEntity
  8
0
 62
     0
100
AcDbLine
 10
94.381392
 20
194.286741
 30
0.0
 11
96.381392
 21
196.286741
 31
0.0
  0
LINE
  5
473
100
AcDbEntity
  8
0
 62
     0
100
AcDbLine
 10
75.413379
 20
175.543235
 30
0.0
 11
77.413379
 21
177.543235
 31
0.0
  0
LINE
  5
474
100
AcDbEntity
  8
0
 62
     0
100
AcDbLine
 10
94.156885
 20
194.286741
 30
0.0
 11
96.156885
 21
196.286741
 31
0.0
  0
LINE
  5
475
100
AcDbEntity
  8
0
 62
     0
100
AcDbLine
 10
75.413379
 20
175.767741
 30
0.0
 11
77.413379
 21
177.767741
 31
0.0
  0
LINE
  5
476
100
AcDbEntity
  8
0
 62
     0
100
AcDbLine
 10
93.932379
 20
194.286741
 30
0.0
 11
95.932379
 21
196.286741
 31
0.0
  0
LINE
  5
477
100
AcDbEntity
  8
0
 62
     0
100
AcDbLine
 10
75.413379
 20
175.992247
 30
0.0
 11
77.413379
 21
177.992247
 31
0.0
  0
LINE
  5
478
100
AcDbEntity
  8
0
 62
     0
100
AcDbLine
 10
93.707873
 20
194.286741
 30
0.0
 11
95.707873
 21
196.286741
 31
0.0
  0
LINE
  5
479
100
AcDbEntity
  8
0
 62
     0
100
AcDbLine
 10
75.413379
 20
176.216754
 30
0.0
 11
77.413379
 21
178.216754
 31
0.0
  0
LINE
  5
47A
100
AcDbEntity
  8
0
 62
     0
100
AcDbLine
 10
93.483366
 20
194.286741
 30
0.0
 11
95.483366
 21
196.286741
 31
0.0
  0
LINE
  5
47B
100
AcDbEntity
  8
0
 62
     0
100
AcDbLine
 10
75.413379
 20
176.44126
 30
0.0
 11
77.413379
 21
178.44126
 31
0.0
  0
LINE
  5
47C
100
AcDbEntity
  8
0
 62
     0
100
AcDbLine
 10
93.25886
 20
194.286741
 30
0.0
 11
95.25886
 21
196.286741
 31
0.0
  0
LINE
  5
47D
100
AcDbEntity
  8
0
 62
     0
100
AcDbLine
 10
75.413379
 20
176.665767
 30
0.0
 11
77.413379
 21
178.665767
 31
0.0
  0
LINE
  5
47E
100
AcDbEntity
  8
0
 62
     0
100
AcDbLine
 10
93.034353
 20
194.286741
 30
0.0
 11
95.034353
 21
196.286741
 31
0.0
  0
LINE
  5
47F
100
AcDbEntity
  8
0
 62
     0
100
AcDbLine
 10
75.413379
 20
176.890273
 30
0.0
 11
77.413379
 21
178.890273
 31
0.0
  0
LINE
  5
480
100
AcDbEntity
  8
0
 62
     0
100
AcDbLine
 10
92.809847
 20
194.286741
 30
0.0
 11
94.809847
 21
196.286741
 31
0.0
  0
LINE
  5
481
100
AcDbEntity
  8
0
 62
     0
100
AcDbLine
 10
75.413379
 20
177.114779
 30
0.0
 11
77.413379
 21
179.114779
 31
0.0
  0
LINE
  5
482
100
AcDbEntity
  8
0
 62
     0
100
AcDbLine
 10
92.585341
 20
194.286741
 30
0.0
 11
94.585341
 21
196.286741
 31
0.0
  0
LINE
  5
483
100
AcDbEntity
  8
0
 62
     0
100
AcDbLine
 10
75.413379
 20
177.339286
 30
0.0
 11
77.413379
 21
179.339286
 31
0.0
  0
LINE
  5
484
100
AcDbEntity
  8
0
 62
     0
100
AcDbLine
 10
92.360834
 20
194.286741
 30
0.0
 11
94.360834
 21
196.286741
 31
0.0
  0
LINE
  5
485
100
AcDbEntity
  8
0
 62
     0
100
AcDbLine
 10
75.413379
 20
177.563792
 30
0.0
 11
77.413379
 21
179.563792
 31
0.0
  0
LINE
  5
486
100
AcDbEntity
  8
0
 62
     0
100
AcDbLine
 10
92.136328
 20
194.286741
 30
0.0
 11
94.136328
 21
196.286741
 31
0.0
  0
LINE
  5
487
100
AcDbEntity
  8
0
 62
     0
100
AcDbLine
 10
75.413379
 20
177.788299
 30
0.0
 11
77.413379
 21
179.788299
 31
0.0
  0
LINE
  5
488
100
AcDbEntity
  8
0
 62
     0
100
AcDbLine
 10
91.911821
 20
194.286741
 30
0.0
 11
93.911821
 21
196.286741
 31
0.0
  0
LINE
  5
489
100
AcDbEntity
  8
0
 62
     0
100
AcDbLine
 10
75.413379
 20
178.012805
 30
0.0
 11
77.413379
 21
180.012805
 31
0.0
  0
LINE
  5
48A
100
AcDbEntity
  8
0
 62
     0
100
AcDbLine
 10
91.687315
 20
194.286741
 30
0.0
 11
93.687315
 21
196.286741
 31
0.0
  0
LINE
  5
48B
100
AcDbEntity
  8
0
 62
     0
100
AcDbLine
 10
75.413379
 20
178.237311
 30
0.0
 11
77.413379
 21
180.237311
 31
0.0
  0
LINE
  5
48C
100
AcDbEntity
  8
0
 62
     0
100
AcDbLine
 10
91.462809
 20
194.286741
 30
0.0
 11
93.462809
 21
196.286741
 31
0.0
  0
LINE
  5
48D
100
AcDbEntity
  8
0
 62
     0
100
AcDbLine
 10
75.413379
 20
178.461818
 30
0.0
 11
77.413379
 21
180.461818
 31
0.0
  0
LINE
  5
48E
100
AcDbEntity
  8
0
 62
     0
100
AcDbLine
 10
91.238302
 20
194.286741
 30
0.0
 11
93.238302
 21
196.286741
 31
0.0
  0
LINE
  5
48F
100
AcDbEntity
  8
0
 62
     0
100
AcDbLine
 10
75.413379
 20
178.686324
 30
0.0
 11
77.413379
 21
180.686324
 31
0.0
  0
LINE
  5
490
100
AcDbEntity
  8
0
 62
     0
100
AcDbLine
 10
91.013796
 20
194.286741
 30
0.0
 11
93.013796
 21
196.286741
 31
0.0
  0
LINE
  5
491
100
AcDbEntity
  8
0
 62
     0
100
AcDbLine
 10
75.413379
 20
178.910831
 30
0.0
 11
77.413379
 21
180.910831
 31
0.0
  0
LINE
  5
492
100
AcDbEntity
  8
0
 62
     0
100
AcDbLine
 10
90.789289
 20
194.286741
 30
0.0
 11
92.789289
 21
196.286741
 31
0.0
  0
LINE
  5
493
100
AcDbEntity
  8
0
 62
     0
100
AcDbLine
 10
75.413379
 20
179.135337
 30
0.0
 11
77.413379
 21
181.135337
 31
0.0
  0
LINE
  5
494
100
AcDbEntity
  8
0
 62
     0
100
AcDbLine
 10
90.564783
 20
194.286741
 30
0.0
 11
92.564783
 21
196.286741
 31
0.0
  0
LINE
  5
495
100
AcDbEntity
  8
0
 62
     0
100
AcDbLine
 10
75.413379
 20
179.359843
 30
0.0
 11
77.413379
 21
181.359843
 31
0.0
  0
LINE
  5
496
100
AcDbEntity
  8
0
 62
     0
100
AcDbLine
 10
90.340277
 20
194.286741
 30
0.0
 11
92.340277
 21
196.286741
 31
0.0
  0
LINE
  5
497
100
AcDbEntity
  8
0
 62
     0
100
AcDbLine
 10
75.413379
 20
179.58435
 30
0.0
 11
77.413379
 21
181.58435
 31
0.0
  0
LINE
  5
498
100
AcDbEntity
  8
0
 62
     0
100
AcDbLine
 10
90.11577
 20
194.286741
 30
0.0
 11
92.11577
 21
196.286741
 31
0.0
  0
LINE
  5
499
100
AcDbEntity
  8
0
 62
     0
100
AcDbLine
 10
75.413379
 20
179.808856
 30
0.0
 11
77.413379
 21
181.808856
 31
0.0
  0
LINE
  5
49A
100
AcDbEntity
  8
0
 62
     0
100
AcDbLine
 10
89.891264
 20
194.286741
 30
0.0
 11
91.891264
 21
196.286741
 31
0.0
  0
LINE
  5
49B
100
AcDbEntity
  8
0
 62
     0
100
AcDbLine
 10
75.413379
 20
180.033363
 30
0.0
 11
77.413379
 21
182.033363
 31
0.0
  0
LINE
  5
49C
100
AcDbEntity
  8
0
 62
     0
100
AcDbLine
 10
89.666757
 20
194.286741
 30
0.0
 11
91.666757
 21
196.286741
 31
0.0
  0
LINE
  5
49D
100
AcDbEntity
  8
0
 62
     0
100
AcDbLine
 10
75.413379
 20
180.257869
 30
0.0
 11
77.413379
 21
182.257869
 31
0.0
  0
LINE
  5
49E
100
AcDbEntity
  8
0
 62
     0
100
AcDbLine
 10
89.442251
 20
194.286741
 30
0.0
 11
91.442251
 21
196.286741
 31
0.0
  0
LINE
  5
49F
100
AcDbEntity
  8
0
 62
     0
100
AcDbLine
 10
75.413379
 20
180.482375
 30
0.0
 11
77.413379
 21
182.482375
 31
0.0
  0
LINE
  5
4A0
100
AcDbEntity
  8
0
 62
     0
100
AcDbLine
 10
89.217745
 20
194.286741
 30
0.0
 11
91.217745
 21
196.286741
 31
0.0
  0
LINE
  5
4A1
100
AcDbEntity
  8
0
 62
     0
100
AcDbLine
 10
75.413379
 20
180.706882
 30
0.0
 11
77.413379
 21
182.706882
 31
0.0
  0
LINE
  5
4A2
100
AcDbEntity
  8
0
 62
     0
100
AcDbLine
 10
88.993238
 20
194.286741
 30
0.0
 11
90.993238
 21
196.286741
 31
0.0
  0
LINE
  5
4A3
100
AcDbEntity
  8
0
 62
     0
100
AcDbLine
 10
75.413379
 20
180.931388
 30
0.0
 11
77.413379
 21
182.931388
 31
0.0
  0
LINE
  5
4A4
100
AcDbEntity
  8
0
 62
     0
100
AcDbLine
 10
88.768732
 20
194.286741
 30
0.0
 11
90.768732
 21
196.286741
 31
0.0
  0
LINE
  5
4A5
100
AcDbEntity
  8
0
 62
     0
100
AcDbLine
 10
75.413379
 20
181.155895
 30
0.0
 11
77.413379
 21
183.155895
 31
0.0
  0
LINE
  5
4A6
100
AcDbEntity
  8
0
 62
     0
100
AcDbLine
 10
88.544225
 20
194.286741
 30
0.0
 11
90.544225
 21
196.286741
 31
0.0
  0
LINE
  5
4A7
100
AcDbEntity
  8
0
 62
     0
100
AcDbLine
 10
75.413379
 20
181.380401
 30
0.0
 11
77.413379
 21
183.380401
 31
0.0
  0
LINE
  5
4A8
100
AcDbEntity
  8
0
 62
     0
100
AcDbLine
 10
88.319719
 20
194.286741
 30
0.0
 11
90.319719
 21
196.286741
 31
0.0
  0
LINE
  5
4A9
100
AcDbEntity
  8
0
 62
     0
100
AcDbLine
 10
75.413379
 20
181.604907
 30
0.0
 11
77.413379
 21
183.604907
 31
0.0
  0
LINE
  5
4AA
100
AcDbEntity
  8
0
 62
     0
100
AcDbLine
 10
88.095213
 20
194.286741
 30
0.0
 11
90.095213
 21
196.286741
 31
0.0
  0
LINE
  5
4AB
100
AcDbEntity
  8
0
 62
     0
100
AcDbLine
 10
75.413379
 20
181.829414
 30
0.0
 11
77.413379
 21
183.829414
 31
0.0
  0
LINE
  5
4AC
100
AcDbEntity
  8
0
 62
     0
100
AcDbLine
 10
87.870706
 20
194.286741
 30
0.0
 11
89.870706
 21
196.286741
 31
0.0
  0
LINE
  5
4AD
100
AcDbEntity
  8
0
 62
     0
100
AcDbLine
 10
75.413379
 20
182.05392
 30
0.0
 11
77.413379
 21
184.05392
 31
0.0
  0
LINE
  5
4AE
100
AcDbEntity
  8
0
 62
     0
100
AcDbLine
 10
87.6462
 20
194.286741
 30
0.0
 11
89.6462
 21
196.286741
 31
0.0
  0
LINE
  5
4AF
100
AcDbEntity
  8
0
 62
     0
100
AcDbLine
 10
75.413379
 20
182.278427
 30
0.0
 11
77.413379
 21
184.278427
 31
0.0
  0
LINE
  5
4B0
100
AcDbEntity
  8
0
 62
     0
100
AcDbLine
 10
87.421693
 20
194.286741
 30
0.0
 11
89.421693
 21
196.286741
 31
0.0
  0
LINE
  5
4B1
100
AcDbEntity
  8
0
 62
     0
100
AcDbLine
 10
75.413379
 20
182.502933
 30
0.0
 11
77.413379
 21
184.502933
 31
0.0
  0
LINE
  5
4B2
100
AcDbEntity
  8
0
 62
     0
100
AcDbLine
 10
87.197187
 20
194.286741
 30
0.0
 11
89.197187
 21
196.286741
 31
0.0
  0
LINE
  5
4B3
100
AcDbEntity
  8
0
 62
     0
100
AcDbLine
 10
75.413379
 20
182.727439
 30
0.0
 11
77.413379
 21
184.727439
 31
0.0
  0
LINE
  5
4B4
100
AcDbEntity
  8
0
 62
     0
100
AcDbLine
 10
86.972681
 20
194.286741
 30
0.0
 11
88.972681
 21
196.286741
 31
0.0
  0
LINE
  5
4B5
100
AcDbEntity
  8
0
 62
     0
100
AcDbLine
 10
75.413379
 20
182.951946
 30
0.0
 11
77.413379
 21
184.951946
 31
0.0
  0
LINE
  5
4B6
100
AcDbEntity
  8
0
 62
     0
100
AcDbLine
 10
86.748174
 20
194.286741
 30
0.0
 11
88.748174
 21
196.286741
 31
0.0
  0
LINE
  5
4B7
100
AcDbEntity
  8
0
 62
     0
100
AcDbLine
 10
75.413379
 20
183.176452
 30
0.0
 11
77.413379
 21
185.176452
 31
0.0
  0
LINE
  5
4B8
100
AcDbEntity
  8
0
 62
     0
100
AcDbLine
 10
86.523668
 20
194.286741
 30
0.0
 11
88.523668
 21
196.286741
 31
0.0
  0
LINE
  5
4B9
100
AcDbEntity
  8
0
 62
     0
100
AcDbLine
 10
75.413379
 20
183.400959
 30
0.0
 11
77.413379
 21
185.400959
 31
0.0
  0
LINE
  5
4BA
100
AcDbEntity
  8
0
 62
     0
100
AcDbLine
 10
86.299161
 20
194.286741
 30
0.0
 11
88.299161
 21
196.286741
 31
0.0
  0
LINE
  5
4BB
100
AcDbEntity
  8
0
 62
     0
100
AcDbLine
 10
75.413379
 20
183.625465
 30
0.0
 11
77.413379
 21
185.625465
 31
0.0
  0
LINE
  5
4BC
100
AcDbEntity
  8
0
 62
     0
100
AcDbLine
 10
86.074655
 20
194.286741
 30
0.0
 11
88.074655
 21
196.286741
 31
0.0
  0
LINE
  5
4BD
100
AcDbEntity
  8
0
 62
     0
100
AcDbLine
 10
75.413379
 20
183.849971
 30
0.0
 11
77.413379
 21
185.849971
 31
0.0
  0
LINE
  5
4BE
100
AcDbEntity
  8
0
 62
     0
100
AcDbLine
 10
85.850149
 20
194.286741
 30
0.0
 11
87.850149
 21
196.286741
 31
0.0
  0
LINE
  5
4BF
100
AcDbEntity
  8
0
 62
     0
100
AcDbLine
 10
75.413379
 20
184.074478
 30
0.0
 11
77.413379
 21
186.074478
 31
0.0
  0
LINE
  5
4C0
100
AcDbEntity
  8
0
 62
     0
100
AcDbLine
 10
85.625642
 20
194.286741
 30
0.0
 11
87.625642
 21
196.286741
 31
0.0
  0
LINE
  5
4C1
100
AcDbEntity
  8
0
 62
     0
100
AcDbLine
 10
75.413379
 20
184.298984
 30
0.0
 11
77.413379
 21
186.298984
 31
0.0
  0
LINE
  5
4C2
100
AcDbEntity
  8
0
 62
     0
100
AcDbLine
 10
85.401136
 20
194.286741
 30
0.0
 11
87.401136
 21
196.286741
 31
0.0
  0
LINE
  5
4C3
100
AcDbEntity
  8
0
 62
     0
100
AcDbLine
 10
75.413379
 20
184.523491
 30
0.0
 11
77.413379
 21
186.523491
 31
0.0
  0
LINE
  5
4C4
100
AcDbEntity
  8
0
 62
     0
100
AcDbLine
 10
85.176629
 20
194.286741
 30
0.0
 11
87.176629
 21
196.286741
 31
0.0
  0
LINE
  5
4C5
100
AcDbEntity
  8
0
 62
     0
100
AcDbLine
 10
75.413379
 20
184.747997
 30
0.0
 11
77.413379
 21
186.747997
 31
0.0
  0
LINE
  5
4C6
100
AcDbEntity
  8
0
 62
     0
100
AcDbLine
 10
84.952123
 20
194.286741
 30
0.0
 11
86.952123
 21
196.286741
 31
0.0
  0
LINE
  5
4C7
100
AcDbEntity
  8
0
 62
     0
100
AcDbLine
 10
75.413379
 20
184.972503
 30
0.0
 11
77.413379
 21
186.972503
 31
0.0
  0
LINE
  5
4C8
100
AcDbEntity
  8
0
 62
     0
100
AcDbLine
 10
84.727617
 20
194.286741
 30
0.0
 11
86.727617
 21
196.286741
 31
0.0
  0
LINE
  5
4C9
100
AcDbEntity
  8
0
 62
     0
100
AcDbLine
 10
75.413379
 20
185.19701
 30
0.0
 11
77.413379
 21
187.19701
 31
0.0
  0
LINE
  5
4CA
100
AcDbEntity
  8
0
 62
     0
100
AcDbLine
 10
84.50311
 20
194.286741
 30
0.0
 11
86.50311
 21
196.286741
 31
0.0
  0
LINE
  5
4CB
100
AcDbEntity
  8
0
 62
     0
100
AcDbLine
 10
75.413379
 20
185.421516
 30
0.0
 11
77.413379
 21
187.421516
 31
0.0
  0
LINE
  5
4CC
100
AcDbEntity
  8
0
 62
     0
100
AcDbLine
 10
84.278604
 20
194.286741
 30
0.0
 11
86.278604
 21
196.286741
 31
0.0
  0
LINE
  5
4CD
100
AcDbEntity
  8
0
 62
     0
100
AcDbLine
 10
75.413379
 20
185.646023
 30
0.0
 11
77.413379
 21
187.646023
 31
0.0
  0
LINE
  5
4CE
100
AcDbEntity
  8
0
 62
     0
100
AcDbLine
 10
84.054097
 20
194.286741
 30
0.0
 11
86.054097
 21
196.286741
 31
0.0
  0
LINE
  5
4CF
100
AcDbEntity
  8
0
 62
     0
100
AcDbLine
 10
75.413379
 20
185.870529
 30
0.0
 11
77.413379
 21
187.870529
 31
0.0
  0
LINE
  5
4D0
100
AcDbEntity
  8
0
 62
     0
100
AcDbLine
 10
83.829591
 20
194.286741
 30
0.0
 11
85.829591
 21
196.286741
 31
0.0
  0
LINE
  5
4D1
100
AcDbEntity
  8
0
 62
     0
100
AcDbLine
 10
75.413379
 20
186.095035
 30
0.0
 11
77.413379
 21
188.095035
 31
0.0
  0
LINE
  5
4D2
100
AcDbEntity
  8
0
 62
     0
100
AcDbLine
 10
83.605085
 20
194.286741
 30
0.0
 11
85.605085
 21
196.286741
 31
0.0
  0
LINE
  5
4D3
100
AcDbEntity
  8
0
 62
     0
100
AcDbLine
 10
75.413379
 20
186.319542
 30
0.0
 11
77.413379
 21
188.319542
 31
0.0
  0
LINE
  5
4D4
100
AcDbEntity
  8
0
 62
     0
100
AcDbLine
 10
83.380578
 20
194.286741
 30
0.0
 11
85.380578
 21
196.286741
 31
0.0
  0
LINE
  5
4D5
100
AcDbEntity
  8
0
 62
     0
100
AcDbLine
 10
75.413379
 20
186.544048
 30
0.0
 11
77.413379
 21
188.544048
 31
0.0
  0
LINE
  5
4D6
100
AcDbEntity
  8
0
 62
     0
100
AcDbLine
 10
83.156072
 20
194.286741
 30
0.0
 11
85.156072
 21
196.286741
 31
0.0
  0
LINE
  5
4D7
100
AcDbEntity
  8
0
 62
     0
100
AcDbLine
 10
75.413379
 20
186.768555
 30
0.0
 11
77.413379
 21
188.768555
 31
0.0
  0
LINE
  5
4D8
100
AcDbEntity
  8
0
 62
     0
100
AcDbLine
 10
82.931565
 20
194.286741
 30
0.0
 11
84.931565
 21
196.286741
 31
0.0
  0
LINE
  5
4D9
100
AcDbEntity
  8
0
 62
     0
100
AcDbLine
 10
75.413379
 20
186.993061
 30
0.0
 11
77.413379
 21
188.993061
 31
0.0
  0
LINE
  5
4DA
100
AcDbEntity
  8
0
 62
     0
100
AcDbLine
 10
82.707059
 20
194.286741
 30
0.0
 11
84.707059
 21
196.286741
 31
0.0
  0
LINE
  5
4DB
100
AcDbEntity
  8
0
 62
     0
100
AcDbLine
 10
75.413379
 20
187.217567
 30
0.0
 11
77.413379
 21
189.217567
 31
0.0
  0
LINE
  5
4DC
100
AcDbEntity
  8
0
 62
     0
100
AcDbLine
 10
82.482553
 20
194.286741
 30
0.0
 11
84.482553
 21
196.286741
 31
0.0
  0
LINE
  5
4DD
100
AcDbEntity
  8
0
 62
     0
100
AcDbLine
 10
75.413379
 20
187.442074
 30
0.0
 11
77.413379
 21
189.442074
 31
0.0
  0
LINE
  5
4DE
100
AcDbEntity
  8
0
 62
     0
100
AcDbLine
 10
82.258046
 20
194.286741
 30
0.0
 11
84.258046
 21
196.286741
 31
0.0
  0
LINE
  5
4DF
100
AcDbEntity
  8
0
 62
     0
100
AcDbLine
 10
75.413379
 20
187.66658
 30
0.0
 11
77.413379
 21
189.66658
 31
0.0
  0
LINE
  5
4E0
100
AcDbEntity
  8
0
 62
     0
100
AcDbLine
 10
82.03354
 20
194.286741
 30
0.0
 11
84.03354
 21
196.286741
 31
0.0
  0
LINE
  5
4E1
100
AcDbEntity
  8
0
 62
     0
100
AcDbLine
 10
75.413379
 20
187.891087
 30
0.0
 11
77.413379
 21
189.891087
 31
0.0
  0
LINE
  5
4E2
100
AcDbEntity
  8
0
 62
     0
100
AcDbLine
 10
81.809033
 20
194.286741
 30
0.0
 11
83.809033
 21
196.286741
 31
0.0
  0
LINE
  5
4E3
100
AcDbEntity
  8
0
 62
     0
100
AcDbLine
 10
75.413379
 20
188.115593
 30
0.0
 11
77.413379
 21
190.115593
 31
0.0
  0
LINE
  5
4E4
100
AcDbEntity
  8
0
 62
     0
100
AcDbLine
 10
81.584527
 20
194.286741
 30
0.0
 11
83.584527
 21
196.286741
 31
0.0
  0
LINE
  5
4E5
100
AcDbEntity
  8
0
 62
     0
100
AcDbLine
 10
75.413379
 20
188.340099
 30
0.0
 11
77.413379
 21
190.340099
 31
0.0
  0
LINE
  5
4E6
100
AcDbEntity
  8
0
 62
     0
100
AcDbLine
 10
81.360021
 20
194.286741
 30
0.0
 11
83.360021
 21
196.286741
 31
0.0
  0
LINE
  5
4E7
100
AcDbEntity
  8
0
 62
     0
100
AcDbLine
 10
75.413379
 20
188.564606
 30
0.0
 11
77.413379
 21
190.564606
 31
0.0
  0
LINE
  5
4E8
100
AcDbEntity
  8
0
 62
     0
100
AcDbLine
 10
81.135514
 20
194.286741
 30
0.0
 11
83.135514
 21
196.286741
 31
0.0
  0
LINE
  5
4E9
100
AcDbEntity
  8
0
 62
     0
100
AcDbLine
 10
75.413379
 20
188.789112
 30
0.0
 11
77.413379
 21
190.789112
 31
0.0
  0
LINE
  5
4EA
100
AcDbEntity
  8
0
 62
     0
100
AcDbLine
 10
80.911008
 20
194.286741
 30
0.0
 11
82.911008
 21
196.286741
 31
0.0
  0
LINE
  5
4EB
100
AcDbEntity
  8
0
 62
     0
100
AcDbLine
 10
75.413379
 20
189.013619
 30
0.0
 11
77.413379
 21
191.013619
 31
0.0
  0
LINE
  5
4EC
100
AcDbEntity
  8
0
 62
     0
100
AcDbLine
 10
80.686501
 20
194.286741
 30
0.0
 11
82.686501
 21
196.286741
 31
0.0
  0
LINE
  5
4ED
100
AcDbEntity
  8
0
 62
     0
100
AcDbLine
 10
75.413379
 20
189.238125
 30
0.0
 11
77.413379
 21
191.238125
 31
0.0
  0
LINE
  5
4EE
100
AcDbEntity
  8
0
 62
     0
100
AcDbLine
 10
80.461995
 20
194.286741
 30
0.0
 11
82.461995
 21
196.286741
 31
0.0
  0
LINE
  5
4EF
100
AcDbEntity
  8
0
 62
     0
100
AcDbLine
 10
75.413379
 20
189.462632
 30
0.0
 11
77.413379
 21
191.462632
 31
0.0
  0
LINE
  5
4F0
100
AcDbEntity
  8
0
 62
     0
100
AcDbLine
 10
80.237488
 20
194.286741
 30
0.0
 11
82.237488
 21
196.286741
 31
0.0
  0
LINE
  5
4F1
100
AcDbEntity
  8
0
 62
     0
100
AcDbLine
 10
75.413379
 20
189.687138
 30
0.0
 11
77.413379
 21
191.687138
 31
0.0
  0
LINE
  5
4F2
100
AcDbEntity
  8
0
 62
     0
100
AcDbLine
 10
80.012982
 20
194.286741
 30
0.0
 11
82.012982
 21
196.286741
 31
0.0
  0
LINE
  5
4F3
100
AcDbEntity
  8
0
 62
     0
100
AcDbLine
 10
75.413379
 20
189.911644
 30
0.0
 11
77.413379
 21
191.911644
 31
0.0
  0
LINE
  5
4F4
100
AcDbEntity
  8
0
 62
     0
100
AcDbLine
 10
79.788476
 20
194.286741
 30
0.0
 11
81.788476
 21
196.286741
 31
0.0
  0
LINE
  5
4F5
100
AcDbEntity
  8
0
 62
     0
100
AcDbLine
 10
75.413379
 20
190.136151
 30
0.0
 11
77.413379
 21
192.136151
 31
0.0
  0
LINE
  5
4F6
100
AcDbEntity
  8
0
 62
     0
100
AcDbLine
 10
79.563969
 20
194.286741
 30
0.0
 11
81.563969
 21
196.286741
 31
0.0
  0
LINE
  5
4F7
100
AcDbEntity
  8
0
 62
     0
100
AcDbLine
 10
75.413379
 20
190.360657
 30
0.0
 11
77.413379
 21
192.360657
 31
0.0
  0
LINE
  5
4F8
100
AcDbEntity
  8
0
 62
     0
100
AcDbLine
 10
79.339463
 20
194.286741
 30
0.0
 11
81.339463
 21
196.286741
 31
0.0
  0
LINE
  5
4F9
100
AcDbEntity
  8
0
 62
     0
100
AcDbLine
 10
75.413379
 20
190.585164
 30
0.0
 11
77.413379
 21
192.585164
 31
0.0
  0
LINE
  5
4FA
100
AcDbEntity
  8
0
 62
     0
100
AcDbLine
 10
79.114956
 20
194.286741
 30
0.0
 11
81.114956
 21
196.286741
 31
0.0
  0
LINE
  5
4FB
100
AcDbEntity
  8
0
 62
     0
100
AcDbLine
 10
75.413379
 20
190.80967
 30
0.0
 11
77.413379
 21
192.80967
 31
0.0
  0
LINE
  5
4FC
100
AcDbEntity
  8
0
 62
     0
100
AcDbLine
 10
78.89045
 20
194.286741
 30
0.0
 11
80.89045
 21
196.286741
 31
0.0
  0
LINE
  5
4FD
100
AcDbEntity
  8
0
 62
     0
100
AcDbLine
 10
75.413379
 20
191.034176
 30
0.0
 11
77.413379
 21
193.034176
 31
0.0
  0
LINE
  5
4FE
100
AcDbEntity
  8
0
 62
     0
100
AcDbLine
 10
78.665944
 20
194.286741
 30
0.0
 11
80.665944
 21
196.286741
 31
0.0
  0
LINE
  5
4FF
100
AcDbEntity
  8
0
 62
     0
100
AcDbLine
 10
75.413379
 20
191.258683
 30
0.0
 11
77.413379
 21
193.258683
 31
0.0
  0
LINE
  5
500
100
AcDbEntity
  8
0
 62
     0
100
AcDbLine
 10
78.441437
 20
194.286741
 30
0.0
 11
80.441437
 21
196.286741
 31
0.0
  0
LINE
  5
501
100
AcDbEntity
  8
0
 62
     0
100
AcDbLine
 10
75.413379
 20
191.483189
 30
0.0
 11
77.413379
 21
193.483189
 31
0.0
  0
LINE
  5
502
100
AcDbEntity
  8
0
 62
     0
100
AcDbLine
 10
78.216931
 20
194.286741
 30
0.0
 11
80.216931
 21
196.286741
 31
0.0
  0
LINE
  5
503
100
AcDbEntity
  8
0
 62
     0
100
AcDbLine
 10
75.413379
 20
191.707696
 30
0.0
 11
77.413379
 21
193.707696
 31
0.0
  0
LINE
  5
504
100
AcDbEntity
  8
0
 62
     0
100
AcDbLine
 10
77.992424
 20
194.286741
 30
0.0
 11
79.992424
 21
196.286741
 31
0.0
  0
LINE
  5
505
100
AcDbEntity
  8
0
 62
     0
100
AcDbLine
 10
75.413379
 20
191.932202
 30
0.0
 11
77.413379
 21
193.932202
 31
0.0
  0
LINE
  5
506
100
AcDbEntity
  8
0
 62
     0
100
AcDbLine
 10
77.767918
 20
194.286741
 30
0.0
 11
79.767918
 21
196.286741
 31
0.0
  0
LINE
  5
507
100
AcDbEntity
  8
0
 62
     0
100
AcDbLine
 10
75.413379
 20
192.156708
 30
0.0
 11
77.413379
 21
194.156708
 31
0.0
  0
LINE
  5
508
100
AcDbEntity
  8
0
 62
     0
100
AcDbLine
 10
77.543412
 20
194.286741
 30
0.0
 11
79.543412
 21
196.286741
 31
0.0
  0
LINE
  5
509
100
AcDbEntity
  8
0
 62
     0
100
AcDbLine
 10
75.413379
 20
192.381215
 30
0.0
 11
79.318905
 21
196.286741
 31
0.0
  0
LINE
  5
50A
100
AcDbEntity
  8
0
 62
     0
100
AcDbLine
 10
75.413379
 20
192.605721
 30
0.0
 11
79.094399
 21
196.286741
 31
0.0
  0
LINE
  5
50B
100
AcDbEntity
  8
0
 62
     0
100
AcDbLine
 10
75.413379
 20
192.830228
 30
0.0
 11
78.869892
 21
196.286741
 31
0.0
  0
LINE
  5
50C
100
AcDbEntity
  8
0
 62
     0
100
AcDbLine
 10
75.413379
 20
193.054734
 30
0.0
 11
78.645386
 21
196.286741
 31
0.0
  0
LINE
  5
50D
100
AcDbEntity
  8
0
 62
     0
100
AcDbLine
 10
75.413379
 20
193.27924
 30
0.0
 11
78.42088
 21
196.286741
 31
0.0
  0
LINE
  5
50E
100
AcDbEntity
  8
0
 62
     0
100
AcDbLine
 10
75.413379
 20
193.503747
 30
0.0
 11
78.196373
 21
196.286741
 31
0.0
  0
LINE
  5
50F
100
AcDbEntity
  8
0
 62
     0
100
AcDbLine
 10
75.413379
 20
193.728253
 30
0.0
 11
77.971867
 21
196.286741
 31
0.0
  0
LINE
  5
510
100
AcDbEntity
  8
0
 62
     0
100
AcDbLine
 10
75.413379
 20
193.95276
 30
0.0
 11
77.74736
 21
196.286741
 31
0.0
  0
LINE
  5
511
100
AcDbEntity
  8
0
 62
     0
100
AcDbLine
 10
75.413379
 20
194.177266
 30
0.0
 11
77.522854
 21
196.286741
 31
0.0
  0
LINE
  5
512
100
AcDbEntity
  8
0
 62
     0
100
AcDbLine
 10
75.413379
 20
194.401772
 30
0.0
 11
77.298348
 21
196.286741
 31
0.0
  0
LINE
  5
513
100
AcDbEntity
  8
0
 62
     0
100
AcDbLine
 10
75.413379
 20
194.626279
 30
0.0
 11
77.073841
 21
196.286741
 31
0.0
  0
LINE
  5
514
100
AcDbEntity
  8
0
 62
     0
100
AcDbLine
 10
75.413379
 20
194.850785
 30
0.0
 11
76.849335
 21
196.286741
 31
0.0
  0
LINE
  5
515
100
AcDbEntity
  8
0
 62
     0
100
AcDbLine
 10
75.413379
 20
195.075292
 30
0.0
 11
76.624828
 21
196.286741
 31
0.0
  0
LINE
  5
516
100
AcDbEntity
  8
0
 62
     0
100
AcDbLine
 10
116.158513
 20
194.286741
 30
0.0
 11
118.158513
 21
196.286741
 31
0.0
  0
LINE
  5
517
100
AcDbEntity
  8
0
 62
     0
100
AcDbLine
 10
116.383019
 20
194.286741
 30
0.0
 11
118.383019
 21
196.286741
 31
0.0
  0
LINE
  5
518
100
AcDbEntity
  8
0
 62
     0
100
AcDbLine
 10
116.607526
 20
194.286741
 30
0.0
 11
118.607526
 21
196.286741
 31
0.0
  0
LINE
  5
519
100
AcDbEntity
  8
0
 62
     0
100
AcDbLine
 10
116.832032
 20
194.286741
 30
0.0
 11
118.832032
 21
196.286741
 31
0.0
  0
LINE
  5
51A
100
AcDbEntity
  8
0
 62
     0
100
AcDbLine
 10
117.056539
 20
194.286741
 30
0.0
 11
119.056539
 21
196.286741
 31
0.0
  0
LINE
  5
51B
100
AcDbEntity
  8
0
 62
     0
100
AcDbLine
 10
117.281045
 20
194.286741
 30
0.0
 11
119.281045
 21
196.286741
 31
0.0
  0
LINE
  5
51C
100
AcDbEntity
  8
0
 62
     0
100
AcDbLine
 10
117.505551
 20
194.286741
 30
0.0
 11
119.505551
 21
196.286741
 31
0.0
  0
LINE
  5
51D
100
AcDbEntity
  8
0
 62
     0
100
AcDbLine
 10
117.730058
 20
194.286741
 30
0.0
 11
119.730058
 21
196.286741
 31
0.0
  0
LINE
  5
51E
100
AcDbEntity
  8
0
 62
     0
100
AcDbLine
 10
117.954564
 20
194.286741
 30
0.0
 11
119.954564
 21
196.286741
 31
0.0
  0
LINE
  5
51F
100
AcDbEntity
  8
0
 62
     0
100
AcDbLine
 10
118.179071
 20
194.286741
 30
0.0
 11
120.179071
 21
196.286741
 31
0.0
  0
LINE
  5
520
100
AcDbEntity
  8
0
 62
     0
100
AcDbLine
 10
118.403577
 20
194.286741
 30
0.0
 11
120.403577
 21
196.286741
 31
0.0
  0
LINE
  5
521
100
AcDbEntity
  8
0
 62
     0
100
AcDbLine
 10
118.628083
 20
194.286741
 30
0.0
 11
120.628083
 21
196.286741
 31
0.0
  0
LINE
  5
522
100
AcDbEntity
  8
0
 62
     0
100
AcDbLine
 10
118.85259
 20
194.286741
 30
0.0
 11
120.85259
 21
196.286741
 31
0.0
  0
LINE
  5
523
100
AcDbEntity
  8
0
 62
     0
100
AcDbLine
 10
119.077096
 20
194.286741
 30
0.0
 11
121.077096
 21
196.286741
 31
0.0
  0
LINE
  5
524
100
AcDbEntity
  8
0
 62
     0
100
AcDbLine
 10
119.301603
 20
194.286741
 30
0.0
 11
121.301603
 21
196.286741
 31
0.0
  0
LINE
  5
525
100
AcDbEntity
  8
0
 62
     0
100
AcDbLine
 10
119.526109
 20
194.286741
 30
0.0
 11
121.526109
 21
196.286741
 31
0.0
  0
LINE
  5
526
100
AcDbEntity
  8
0
 62
     0
100
AcDbLine
 10
119.750615
 20
194.286741
 30
0.0
 11
121.750615
 21
196.286741
 31
0.0
  0
LINE
  5
527
100
AcDbEntity
  8
0
 62
     0
100
AcDbLine
 10
119.975122
 20
194.286741
 30
0.0
 11
121.975122
 21
196.286741
 31
0.0
  0
LINE
  5
528
100
AcDbEntity
  8
0
 62
     0
100
AcDbLine
 10
120.199628
 20
194.286741
 30
0.0
 11
122.199628
 21
196.286741
 31
0.0
  0
LINE
  5
529
100
AcDbEntity
  8
0
 62
     0
100
AcDbLine
 10
120.424135
 20
194.286741
 30
0.0
 11
122.424135
 21
196.286741
 31
0.0
  0
LINE
  5
52A
100
AcDbEntity
  8
0
 62
     0
100
AcDbLine
 10
120.648641
 20
194.286741
 30
0.0
 11
122.648641
 21
196.286741
 31
0.0
  0
LINE
  5
52B
100
AcDbEntity
  8
0
 62
     0
100
AcDbLine
 10
120.873147
 20
194.286741
 30
0.0
 11
122.873147
 21
196.286741
 31
0.0
  0
LINE
  5
52C
100
AcDbEntity
  8
0
 62
     0
100
AcDbLine
 10
121.097654
 20
194.286741
 30
0.0
 11
123.097654
 21
196.286741
 31
0.0
  0
LINE
  5
52D
100
AcDbEntity
  8
0
 62
     0
100
AcDbLine
 10
121.32216
 20
194.286741
 30
0.0
 11
123.32216
 21
196.286741
 31
0.0
  0
LINE
  5
52E
100
AcDbEntity
  8
0
 62
     0
100
AcDbLine
 10
121.546667
 20
194.286741
 30
0.0
 11
123.546667
 21
196.286741
 31
0.0
  0
LINE
  5
52F
100
AcDbEntity
  8
0
 62
     0
100
AcDbLine
 10
121.771173
 20
194.286741
 30
0.0
 11
123.771173
 21
196.286741
 31
0.0
  0
LINE
  5
530
100
AcDbEntity
  8
0
 62
     0
100
AcDbLine
 10
121.995679
 20
194.286741
 30
0.0
 11
123.995679
 21
196.286741
 31
0.0
  0
LINE
  5
531
100
AcDbEntity
  8
0
 62
     0
100
AcDbLine
 10
122.220186
 20
194.286741
 30
0.0
 11
124.220186
 21
196.286741
 31
0.0
  0
LINE
  5
532
100
AcDbEntity
  8
0
 62
     0
100
AcDbLine
 10
122.444692
 20
194.286741
 30
0.0
 11
124.444692
 21
196.286741
 31
0.0
  0
LINE
  5
533
100
AcDbEntity
  8
0
 62
     0
100
AcDbLine
 10
122.669199
 20
194.286741
 30
0.0
 11
124.669199
 21
196.286741
 31
0.0
  0
LINE
  5
534
100
AcDbEntity
  8
0
 62
     0
100
AcDbLine
 10
122.893705
 20
194.286741
 30
0.0
 11
124.893705
 21
196.286741
 31
0.0
  0
LINE
  5
535
100
AcDbEntity
  8
0
 62
     0
100
AcDbLine
 10
123.118211
 20
194.286741
 30
0.0
 11
125.118211
 21
196.286741
 31
0.0
  0
LINE
  5
536
100
AcDbEntity
  8
0
 62
     0
100
AcDbLine
 10
123.342718
 20
194.286741
 30
0.0
 11
125.342718
 21
196.286741
 31
0.0
  0
LINE
  5
537
100
AcDbEntity
  8
0
 62
     0
100
AcDbLine
 10
123.567224
 20
194.286741
 30
0.0
 11
125.567224
 21
196.286741
 31
0.0
  0
LINE
  5
538
100
AcDbEntity
  8
0
 62
     0
100
AcDbLine
 10
123.791731
 20
194.286741
 30
0.0
 11
125.791731
 21
196.286741
 31
0.0
  0
LINE
  5
539
100
AcDbEntity
  8
0
 62
     0
100
AcDbLine
 10
124.016237
 20
194.286741
 30
0.0
 11
126.016237
 21
196.286741
 31
0.0
  0
LINE
  5
53A
100
AcDbEntity
  8
0
 62
     0
100
AcDbLine
 10
124.240743
 20
194.286741
 30
0.0
 11
126.240743
 21
196.286741
 31
0.0
  0
LINE
  5
53B
100
AcDbEntity
  8
0
 62
     0
100
AcDbLine
 10
124.46525
 20
194.286741
 30
0.0
 11
126.46525
 21
196.286741
 31
0.0
  0
LINE
  5
53C
100
AcDbEntity
  8
0
 62
     0
100
AcDbLine
 10
124.689756
 20
194.286741
 30
0.0
 11
126.689756
 21
196.286741
 31
0.0
  0
LINE
  5
53D
100
AcDbEntity
  8
0
 62
     0
100
AcDbLine
 10
124.914263
 20
194.286741
 30
0.0
 11
126.914263
 21
196.286741
 31
0.0
  0
LINE
  5
53E
100
AcDbEntity
  8
0
 62
     0
100
AcDbLine
 10
125.138769
 20
194.286741
 30
0.0
 11
127.138769
 21
196.286741
 31
0.0
  0
LINE
  5
53F
100
AcDbEntity
  8
0
 62
     0
100
AcDbLine
 10
125.363275
 20
194.286741
 30
0.0
 11
127.363275
 21
196.286741
 31
0.0
  0
LINE
  5
540
100
AcDbEntity
  8
0
 62
     0
100
AcDbLine
 10
125.587782
 20
194.286741
 30
0.0
 11
127.587782
 21
196.286741
 31
0.0
  0
LINE
  5
541
100
AcDbEntity
  8
0
 62
     0
100
AcDbLine
 10
125.812288
 20
194.286741
 30
0.0
 11
127.812288
 21
196.286741
 31
0.0
  0
LINE
  5
542
100
AcDbEntity
  8
0
 62
     0
100
AcDbLine
 10
126.036795
 20
194.286741
 30
0.0
 11
128.036795
 21
196.286741
 31
0.0
  0
LINE
  5
543
100
AcDbEntity
  8
0
 62
     0
100
AcDbLine
 10
126.261301
 20
194.286741
 30
0.0
 11
128.261301
 21
196.286741
 31
0.0
  0
LINE
  5
544
100
AcDbEntity
  8
0
 62
     0
100
AcDbLine
 10
126.485808
 20
194.286741
 30
0.0
 11
128.485808
 21
196.286741
 31
0.0
  0
LINE
  5
545
100
AcDbEntity
  8
0
 62
     0
100
AcDbLine
 10
126.710314
 20
194.286741
 30
0.0
 11
128.710314
 21
196.286741
 31
0.0
  0
LINE
  5
546
100
AcDbEntity
  8
0
 62
     0
100
AcDbLine
 10
126.93482
 20
194.286741
 30
0.0
 11
128.93482
 21
196.286741
 31
0.0
  0
LINE
  5
547
100
AcDbEntity
  8
0
 62
     0
100
AcDbLine
 10
127.159327
 20
194.286741
 30
0.0
 11
129.159327
 21
196.286741
 31
0.0
  0
LINE
  5
548
100
AcDbEntity
  8
0
 62
     0
100
AcDbLine
 10
127.383833
 20
194.286741
 30
0.0
 11
129.383833
 21
196.286741
 31
0.0
  0
LINE
  5
549
100
AcDbEntity
  8
0
 62
     0
100
AcDbLine
 10
127.60834
 20
194.286741
 30
0.0
 11
129.60834
 21
196.286741
 31
0.0
  0
LINE
  5
54A
100
AcDbEntity
  8
0
 62
     0
100
AcDbLine
 10
127.832846
 20
194.286741
 30
0.0
 11
129.832846
 21
196.286741
 31
0.0
  0
LINE
  5
54B
100
AcDbEntity
  8
0
 62
     0
100
AcDbLine
 10
128.057352
 20
194.286741
 30
0.0
 11
130.057352
 21
196.286741
 31
0.0
  0
LINE
  5
54C
100
AcDbEntity
  8
0
 62
     0
100
AcDbLine
 10
128.281859
 20
194.286741
 30
0.0
 11
130.281859
 21
196.286741
 31
0.0
  0
LINE
  5
54D
100
AcDbEntity
  8
0
 62
     0
100
AcDbLine
 10
128.506365
 20
194.286741
 30
0.0
 11
130.506365
 21
196.286741
 31
0.0
  0
LINE
  5
54E
100
AcDbEntity
  8
0
 62
     0
100
AcDbLine
 10
128.730872
 20
194.286741
 30
0.0
 11
130.730872
 21
196.286741
 31
0.0
  0
LINE
  5
54F
100
AcDbEntity
  8
0
 62
     0
100
AcDbLine
 10
128.955378
 20
194.286741
 30
0.0
 11
130.955378
 21
196.286741
 31
0.0
  0
LINE
  5
550
100
AcDbEntity
  8
0
 62
     0
100
AcDbLine
 10
129.179884
 20
194.286741
 30
0.0
 11
131.179884
 21
196.286741
 31
0.0
  0
LINE
  5
551
100
AcDbEntity
  8
0
 62
     0
100
AcDbLine
 10
129.404391
 20
194.286741
 30
0.0
 11
131.404391
 21
196.286741
 31
0.0
  0
LINE
  5
552
100
AcDbEntity
  8
0
 62
     0
100
AcDbLine
 10
129.628897
 20
194.286741
 30
0.0
 11
131.628897
 21
196.286741
 31
0.0
  0
LINE
  5
553
100
AcDbEntity
  8
0
 62
     0
100
AcDbLine
 10
129.853404
 20
194.286741
 30
0.0
 11
131.853404
 21
196.286741
 31
0.0
  0
LINE
  5
554
100
AcDbEntity
  8
0
 62
     0
100
AcDbLine
 10
130.07791
 20
194.286741
 30
0.0
 11
132.07791
 21
196.286741
 31
0.0
  0
LINE
  5
555
100
AcDbEntity
  8
0
 62
     0
100
AcDbLine
 10
130.302416
 20
194.286741
 30
0.0
 11
132.302416
 21
196.286741
 31
0.0
  0
LINE
  5
556
100
AcDbEntity
  8
0
 62
     0
100
AcDbLine
 10
130.526923
 20
194.286741
 30
0.0
 11
132.526923
 21
196.286741
 31
0.0
  0
LINE
  5
557
100
AcDbEntity
  8
0
 62
     0
100
AcDbLine
 10
130.751429
 20
194.286741
 30
0.0
 11
132.751429
 21
196.286741
 31
0.0
  0
LINE
  5
558
100
AcDbEntity
  8
0
 62
     0
100
AcDbLine
 10
130.975936
 20
194.286741
 30
0.0
 11
132.975936
 21
196.286741
 31
0.0
  0
LINE
  5
559
100
AcDbEntity
  8
0
 62
     0
100
AcDbLine
 10
131.200442
 20
194.286741
 30
0.0
 11
133.200442
 21
196.286741
 31
0.0
  0
LINE
  5
55A
100
AcDbEntity
  8
0
 62
     0
100
AcDbLine
 10
131.424948
 20
194.286741
 30
0.0
 11
133.424948
 21
196.286741
 31
0.0
  0
LINE
  5
55B
100
AcDbEntity
  8
0
 62
     0
100
AcDbLine
 10
131.649455
 20
194.286741
 30
0.0
 11
133.649455
 21
196.286741
 31
0.0
  0
LINE
  5
55C
100
AcDbEntity
  8
0
 62
     0
100
AcDbLine
 10
131.873961
 20
194.286741
 30
0.0
 11
133.873961
 21
196.286741
 31
0.0
  0
LINE
  5
55D
100
AcDbEntity
  8
0
 62
     0
100
AcDbLine
 10
132.098468
 20
194.286741
 30
0.0
 11
134.098468
 21
196.286741
 31
0.0
  0
LINE
  5
55E
100
AcDbEntity
  8
0
 62
     0
100
AcDbLine
 10
132.322974
 20
194.286741
 30
0.0
 11
134.322974
 21
196.286741
 31
0.0
  0
LINE
  5
55F
100
AcDbEntity
  8
0
 62
     0
100
AcDbLine
 10
132.54748
 20
194.286741
 30
0.0
 11
134.48043
 21
196.21969
 31
0.0
  0
LINE
  5
560
100
AcDbEntity
  8
0
 62
     0
100
AcDbLine
 10
132.771987
 20
194.286741
 30
0.0
 11
134.592683
 21
196.107437
 31
0.0
  0
LINE
  5
561
100
AcDbEntity
  8
0
 62
     0
100
AcDbLine
 10
132.996493
 20
194.286741
 30
0.0
 11
134.704936
 21
195.995184
 31
0.0
  0
LINE
  5
562
100
AcDbEntity
  8
0
 62
     0
100
AcDbLine
 10
133.221
 20
194.286741
 30
0.0
 11
134.817189
 21
195.882931
 31
0.0
  0
LINE
  5
563
100
AcDbEntity
  8
0
 62
     0
100
AcDbLine
 10
133.413379
 20
194.254614
 30
0.0
 11
134.929442
 21
195.770678
 31
0.0
  0
LINE
  5
564
100
AcDbEntity
  8
0
 62
     0
100
AcDbLine
 10
133.413379
 20
194.030108
 30
0.0
 11
135.041696
 21
195.658424
 31
0.0
  0
LINE
  5
565
100
AcDbEntity
  8
0
 62
     0
100
AcDbLine
 10
133.413379
 20
193.805601
 30
0.0
 11
135.153949
 21
195.546171
 31
0.0
  0
LINE
  5
566
100
AcDbEntity
  8
0
 62
     0
100
AcDbLine
 10
133.413379
 20
193.581095
 30
0.0
 11
135.266202
 21
195.433918
 31
0.0
  0
LINE
  5
567
100
AcDbEntity
  8
0
 62
     0
100
AcDbLine
 10
133.413379
 20
193.356588
 30
0.0
 11
135.378455
 21
195.321665
 31
0.0
  0
LINE
  5
568
100
AcDbEntity
  8
0
 62
     0
100
AcDbLine
 10
133.413379
 20
193.132082
 30
0.0
 11
135.413379
 21
195.132082
 31
0.0
  0
LINE
  5
569
100
AcDbEntity
  8
0
 62
     0
100
AcDbLine
 10
133.413379
 20
192.907576
 30
0.0
 11
135.413379
 21
194.907576
 31
0.0
  0
LINE
  5
56A
100
AcDbEntity
  8
0
 62
     0
100
AcDbLine
 10
133.413379
 20
192.683069
 30
0.0
 11
135.413379
 21
194.683069
 31
0.0
  0
LINE
  5
56B
100
AcDbEntity
  8
0
 62
     0
100
AcDbLine
 10
133.413379
 20
192.458563
 30
0.0
 11
135.413379
 21
194.458563
 31
0.0
  0
LINE
  5
56C
100
AcDbEntity
  8
0
 62
     0
100
AcDbLine
 10
133.413379
 20
192.234056
 30
0.0
 11
135.413379
 21
194.234056
 31
0.0
  0
LINE
  5
56D
100
AcDbEntity
  8
0
 62
     0
100
AcDbLine
 10
133.413379
 20
192.00955
 30
0.0
 11
135.413379
 21
194.00955
 31
0.0
  0
LINE
  5
56E
100
AcDbEntity
  8
0
 62
     0
100
AcDbLine
 10
133.413379
 20
191.785044
 30
0.0
 11
135.413379
 21
193.785044
 31
0.0
  0
LINE
  5
56F
100
AcDbEntity
  8
0
 62
     0
100
AcDbLine
 10
133.413379
 20
191.560537
 30
0.0
 11
135.413379
 21
193.560537
 31
0.0
  0
LINE
  5
570
100
AcDbEntity
  8
0
 62
     0
100
AcDbLine
 10
133.413379
 20
191.336031
 30
0.0
 11
135.413379
 21
193.336031
 31
0.0
  0
LINE
  5
571
100
AcDbEntity
  8
0
 62
     0
100
AcDbLine
 10
133.413379
 20
191.111524
 30
0.0
 11
135.413379
 21
193.111524
 31
0.0
  0
LINE
  5
572
100
AcDbEntity
  8
0
 62
     0
100
AcDbLine
 10
133.413379
 20
190.887018
 30
0.0
 11
135.413379
 21
192.887018
 31
0.0
  0
LINE
  5
573
100
AcDbEntity
  8
0
 62
     0
100
AcDbLine
 10
133.413379
 20
190.662512
 30
0.0
 11
135.413379
 21
192.662512
 31
0.0
  0
LINE
  5
574
100
AcDbEntity
  8
0
 62
     0
100
AcDbLine
 10
133.413379
 20
190.438005
 30
0.0
 11
135.413379
 21
192.438005
 31
0.0
  0
LINE
  5
575
100
AcDbEntity
  8
0
 62
     0
100
AcDbLine
 10
133.413379
 20
190.213499
 30
0.0
 11
135.413379
 21
192.213499
 31
0.0
  0
LINE
  5
576
100
AcDbEntity
  8
0
 62
     0
100
AcDbLine
 10
133.413379
 20
189.988992
 30
0.0
 11
135.413379
 21
191.988992
 31
0.0
  0
LINE
  5
577
100
AcDbEntity
  8
0
 62
     0
100
AcDbLine
 10
133.413379
 20
189.764486
 30
0.0
 11
135.413379
 21
191.764486
 31
0.0
  0
LINE
  5
578
100
AcDbEntity
  8
0
 62
     0
100
AcDbLine
 10
133.413379
 20
189.53998
 30
0.0
 11
135.413379
 21
191.53998
 31
0.0
  0
LINE
  5
579
100
AcDbEntity
  8
0
 62
     0
100
AcDbLine
 10
133.413379
 20
189.315473
 30
0.0
 11
135.413379
 21
191.315473
 31
0.0
  0
LINE
  5
57A
100
AcDbEntity
  8
0
 62
     0
100
AcDbLine
 10
133.413379
 20
189.090967
 30
0.0
 11
135.413379
 21
191.090967
 31
0.0
  0
LINE
  5
57B
100
AcDbEntity
  8
0
 62
     0
100
AcDbLine
 10
133.413379
 20
188.86646
 30
0.0
 11
135.413379
 21
190.86646
 31
0.0
  0
LINE
  5
57C
100
AcDbEntity
  8
0
 62
     0
100
AcDbLine
 10
133.413379
 20
188.641954
 30
0.0
 11
135.413379
 21
190.641954
 31
0.0
  0
LINE
  5
57D
100
AcDbEntity
  8
0
 62
     0
100
AcDbLine
 10
133.413379
 20
188.417448
 30
0.0
 11
135.413379
 21
190.417448
 31
0.0
  0
LINE
  5
57E
100
AcDbEntity
  8
0
 62
     0
100
AcDbLine
 10
133.413379
 20
188.192941
 30
0.0
 11
135.413379
 21
190.192941
 31
0.0
  0
LINE
  5
57F
100
AcDbEntity
  8
0
 62
     0
100
AcDbLine
 10
133.413379
 20
187.968435
 30
0.0
 11
135.413379
 21
189.968435
 31
0.0
  0
LINE
  5
580
100
AcDbEntity
  8
0
 62
     0
100
AcDbLine
 10
133.413379
 20
187.743928
 30
0.0
 11
135.413379
 21
189.743928
 31
0.0
  0
LINE
  5
581
100
AcDbEntity
  8
0
 62
     0
100
AcDbLine
 10
133.413379
 20
187.519422
 30
0.0
 11
135.413379
 21
189.519422
 31
0.0
  0
LINE
  5
582
100
AcDbEntity
  8
0
 62
     0
100
AcDbLine
 10
133.413379
 20
187.294915
 30
0.0
 11
135.413379
 21
189.294915
 31
0.0
  0
LINE
  5
583
100
AcDbEntity
  8
0
 62
     0
100
AcDbLine
 10
133.413379
 20
187.070409
 30
0.0
 11
135.413379
 21
189.070409
 31
0.0
  0
LINE
  5
584
100
AcDbEntity
  8
0
 62
     0
100
AcDbLine
 10
133.413379
 20
186.845903
 30
0.0
 11
135.413379
 21
188.845903
 31
0.0
  0
LINE
  5
585
100
AcDbEntity
  8
0
 62
     0
100
AcDbLine
 10
133.413379
 20
186.621396
 30
0.0
 11
135.413379
 21
188.621396
 31
0.0
  0
LINE
  5
586
100
AcDbEntity
  8
0
 62
     0
100
AcDbLine
 10
133.413379
 20
186.39689
 30
0.0
 11
135.413379
 21
188.39689
 31
0.0
  0
LINE
  5
587
100
AcDbEntity
  8
0
 62
     0
100
AcDbLine
 10
122.527737
 20
175.286741
 30
0.0
 11
122.606171
 21
175.365176
 31
0.0
  0
LINE
  5
588
100
AcDbEntity
  8
0
 62
     0
100
AcDbLine
 10
133.413379
 20
186.172383
 30
0.0
 11
135.413379
 21
188.172383
 31
0.0
  0
LINE
  5
589
100
AcDbEntity
  8
0
 62
     0
100
AcDbLine
 10
122.752243
 20
175.286741
 30
0.0
 11
122.913855
 21
175.448353
 31
0.0
  0
LINE
  5
58A
100
AcDbEntity
  8
0
 62
     0
100
AcDbLine
 10
133.413379
 20
185.947877
 30
0.0
 11
135.413379
 21
187.947877
 31
0.0
  0
LINE
  5
58B
100
AcDbEntity
  8
0
 62
     0
100
AcDbLine
 10
122.976749
 20
175.286741
 30
0.0
 11
123.221539
 21
175.531531
 31
0.0
  0
LINE
  5
58C
100
AcDbEntity
  8
0
 62
     0
100
AcDbLine
 10
133.413379
 20
185.723371
 30
0.0
 11
135.413379
 21
187.723371
 31
0.0
  0
LINE
  5
58D
100
AcDbEntity
  8
0
 62
     0
100
AcDbLine
 10
123.201256
 20
175.286741
 30
0.0
 11
123.529223
 21
175.614709
 31
0.0
  0
LINE
  5
58E
100
AcDbEntity
  8
0
 62
     0
100
AcDbLine
 10
133.413379
 20
185.498864
 30
0.0
 11
135.413379
 21
187.498864
 31
0.0
  0
LINE
  5
58F
100
AcDbEntity
  8
0
 62
     0
100
AcDbLine
 10
123.425762
 20
175.286741
 30
0.0
 11
123.836908
 21
175.697887
 31
0.0
  0
LINE
  5
590
100
AcDbEntity
  8
0
 62
     0
100
AcDbLine
 10
133.413379
 20
185.274358
 30
0.0
 11
135.413379
 21
187.274358
 31
0.0
  0
LINE
  5
591
100
AcDbEntity
  8
0
 62
     0
100
AcDbLine
 10
123.650269
 20
175.286741
 30
0.0
 11
124.144592
 21
175.781064
 31
0.0
  0
LINE
  5
592
100
AcDbEntity
  8
0
 62
     0
100
AcDbLine
 10
133.413379
 20
185.049851
 30
0.0
 11
135.413379
 21
187.049851
 31
0.0
  0
LINE
  5
593
100
AcDbEntity
  8
0
 62
     0
100
AcDbLine
 10
123.874775
 20
175.286741
 30
0.0
 11
124.452276
 21
175.864242
 31
0.0
  0
LINE
  5
594
100
AcDbEntity
  8
0
 62
     0
100
AcDbLine
 10
133.413379
 20
184.825345
 30
0.0
 11
135.413379
 21
186.825345
 31
0.0
  0
LINE
  5
595
100
AcDbEntity
  8
0
 62
     0
100
AcDbLine
 10
124.099281
 20
175.286741
 30
0.0
 11
124.75996
 21
175.94742
 31
0.0
  0
LINE
  5
596
100
AcDbEntity
  8
0
 62
     0
100
AcDbLine
 10
133.413379
 20
184.600839
 30
0.0
 11
135.413379
 21
186.600839
 31
0.0
  0
LINE
  5
597
100
AcDbEntity
  8
0
 62
     0
100
AcDbLine
 10
124.323788
 20
175.286741
 30
0.0
 11
125.067644
 21
176.030598
 31
0.0
  0
LINE
  5
598
100
AcDbEntity
  8
0
 62
     0
100
AcDbLine
 10
133.413379
 20
184.376332
 30
0.0
 11
135.413379
 21
186.376332
 31
0.0
  0
LINE
  5
599
100
AcDbEntity
  8
0
 62
     0
100
AcDbLine
 10
124.548294
 20
175.286741
 30
0.0
 11
125.375328
 21
176.113776
 31
0.0
  0
LINE
  5
59A
100
AcDbEntity
  8
0
 62
     0
100
AcDbLine
 10
133.413379
 20
184.151826
 30
0.0
 11
135.413379
 21
186.151826
 31
0.0
  0
LINE
  5
59B
100
AcDbEntity
  8
0
 62
     0
100
AcDbLine
 10
124.772801
 20
175.286741
 30
0.0
 11
125.683013
 21
176.196953
 31
0.0
  0
LINE
  5
59C
100
AcDbEntity
  8
0
 62
     0
100
AcDbLine
 10
133.413379
 20
183.927319
 30
0.0
 11
135.413379
 21
185.927319
 31
0.0
  0
LINE
  5
59D
100
AcDbEntity
  8
0
 62
     0
100
AcDbLine
 10
124.997307
 20
175.286741
 30
0.0
 11
125.990697
 21
176.280131
 31
0.0
  0
LINE
  5
59E
100
AcDbEntity
  8
0
 62
     0
100
AcDbLine
 10
133.413379
 20
183.702813
 30
0.0
 11
135.413379
 21
185.702813
 31
0.0
  0
LINE
  5
59F
100
AcDbEntity
  8
0
 62
     0
100
AcDbLine
 10
125.221813
 20
175.286741
 30
0.0
 11
126.298381
 21
176.363309
 31
0.0
  0
LINE
  5
5A0
100
AcDbEntity
  8
0
 62
     0
100
AcDbLine
 10
133.413379
 20
183.478307
 30
0.0
 11
135.413379
 21
185.478307
 31
0.0
  0
LINE
  5
5A1
100
AcDbEntity
  8
0
 62
     0
100
AcDbLine
 10
125.44632
 20
175.286741
 30
0.0
 11
126.606065
 21
176.446487
 31
0.0
  0
LINE
  5
5A2
100
AcDbEntity
  8
0
 62
     0
100
AcDbLine
 10
133.413379
 20
183.2538
 30
0.0
 11
135.413379
 21
185.2538
 31
0.0
  0
LINE
  5
5A3
100
AcDbEntity
  8
0
 62
     0
100
AcDbLine
 10
125.670826
 20
175.286741
 30
0.0
 11
126.913749
 21
176.529664
 31
0.0
  0
LINE
  5
5A4
100
AcDbEntity
  8
0
 62
     0
100
AcDbLine
 10
133.413379
 20
183.029294
 30
0.0
 11
135.413379
 21
185.029294
 31
0.0
  0
LINE
  5
5A5
100
AcDbEntity
  8
0
 62
     0
100
AcDbLine
 10
125.895333
 20
175.286741
 30
0.0
 11
127.221434
 21
176.612842
 31
0.0
  0
LINE
  5
5A6
100
AcDbEntity
  8
0
 62
     0
100
AcDbLine
 10
133.413379
 20
182.804787
 30
0.0
 11
135.413379
 21
184.804787
 31
0.0
  0
LINE
  5
5A7
100
AcDbEntity
  8
0
 62
     0
100
AcDbLine
 10
126.119839
 20
175.286741
 30
0.0
 11
127.529118
 21
176.69602
 31
0.0
  0
LINE
  5
5A8
100
AcDbEntity
  8
0
 62
     0
100
AcDbLine
 10
133.413379
 20
182.580281
 30
0.0
 11
135.413379
 21
184.580281
 31
0.0
  0
LINE
  5
5A9
100
AcDbEntity
  8
0
 62
     0
100
AcDbLine
 10
126.344345
 20
175.286741
 30
0.0
 11
127.836802
 21
176.779198
 31
0.0
  0
LINE
  5
5AA
100
AcDbEntity
  8
0
 62
     0
100
AcDbLine
 10
133.413379
 20
182.355775
 30
0.0
 11
135.413379
 21
184.355775
 31
0.0
  0
LINE
  5
5AB
100
AcDbEntity
  8
0
 62
     0
100
AcDbLine
 10
126.568852
 20
175.286741
 30
0.0
 11
128.144486
 21
176.862376
 31
0.0
  0
LINE
  5
5AC
100
AcDbEntity
  8
0
 62
     0
100
AcDbLine
 10
133.413379
 20
182.131268
 30
0.0
 11
135.413379
 21
184.131268
 31
0.0
  0
LINE
  5
5AD
100
AcDbEntity
  8
0
 62
     0
100
AcDbLine
 10
126.793358
 20
175.286741
 30
0.0
 11
128.45217
 21
176.945553
 31
0.0
  0
LINE
  5
5AE
100
AcDbEntity
  8
0
 62
     0
100
AcDbLine
 10
133.413379
 20
181.906762
 30
0.0
 11
135.413379
 21
183.906762
 31
0.0
  0
LINE
  5
5AF
100
AcDbEntity
  8
0
 62
     0
100
AcDbLine
 10
127.017865
 20
175.286741
 30
0.0
 11
128.759854
 21
177.028731
 31
0.0
  0
LINE
  5
5B0
100
AcDbEntity
  8
0
 62
     0
100
AcDbLine
 10
133.413379
 20
181.682255
 30
0.0
 11
135.413379
 21
183.682255
 31
0.0
  0
LINE
  5
5B1
100
AcDbEntity
  8
0
 62
     0
100
AcDbLine
 10
127.242371
 20
175.286741
 30
0.0
 11
129.067539
 21
177.111909
 31
0.0
  0
LINE
  5
5B2
100
AcDbEntity
  8
0
 62
     0
100
AcDbLine
 10
133.413379
 20
181.457749
 30
0.0
 11
135.413379
 21
183.457749
 31
0.0
  0
LINE
  5
5B3
100
AcDbEntity
  8
0
 62
     0
100
AcDbLine
 10
127.466877
 20
175.286741
 30
0.0
 11
129.375223
 21
177.195087
 31
0.0
  0
LINE
  5
5B4
100
AcDbEntity
  8
0
 62
     0
100
AcDbLine
 10
133.413379
 20
181.233243
 30
0.0
 11
135.413379
 21
183.233243
 31
0.0
  0
LINE
  5
5B5
100
AcDbEntity
  8
0
 62
     0
100
AcDbLine
 10
127.691384
 20
175.286741
 30
0.0
 11
129.682907
 21
177.278264
 31
0.0
  0
LINE
  5
5B6
100
AcDbEntity
  8
0
 62
     0
100
AcDbLine
 10
133.413379
 20
181.008736
 30
0.0
 11
135.413379
 21
183.008736
 31
0.0
  0
LINE
  5
5B7
100
AcDbEntity
  8
0
 62
     0
100
AcDbLine
 10
127.91589
 20
175.286741
 30
0.0
 11
129.990591
 21
177.361442
 31
0.0
  0
LINE
  5
5B8
100
AcDbEntity
  8
0
 62
     0
100
AcDbLine
 10
133.413379
 20
180.78423
 30
0.0
 11
135.413379
 21
182.78423
 31
0.0
  0
LINE
  5
5B9
100
AcDbEntity
  8
0
 62
     0
100
AcDbLine
 10
128.140397
 20
175.286741
 30
0.0
 11
130.298275
 21
177.44462
 31
0.0
  0
LINE
  5
5BA
100
AcDbEntity
  8
0
 62
     0
100
AcDbLine
 10
133.413379
 20
180.559723
 30
0.0
 11
135.413379
 21
182.559723
 31
0.0
  0
LINE
  5
5BB
100
AcDbEntity
  8
0
 62
     0
100
AcDbLine
 10
128.364903
 20
175.286741
 30
0.0
 11
130.60596
 21
177.527798
 31
0.0
  0
LINE
  5
5BC
100
AcDbEntity
  8
0
 62
     0
100
AcDbLine
 10
133.413379
 20
180.335217
 30
0.0
 11
135.413379
 21
182.335217
 31
0.0
  0
LINE
  5
5BD
100
AcDbEntity
  8
0
 62
     0
100
AcDbLine
 10
128.589409
 20
175.286741
 30
0.0
 11
130.913644
 21
177.610976
 31
0.0
  0
LINE
  5
5BE
100
AcDbEntity
  8
0
 62
     0
100
AcDbLine
 10
133.413379
 20
180.110711
 30
0.0
 11
135.413379
 21
182.110711
 31
0.0
  0
LINE
  5
5BF
100
AcDbEntity
  8
0
 62
     0
100
AcDbLine
 10
128.813916
 20
175.286741
 30
0.0
 11
131.221328
 21
177.694153
 31
0.0
  0
LINE
  5
5C0
100
AcDbEntity
  8
0
 62
     0
100
AcDbLine
 10
133.413379
 20
179.886204
 30
0.0
 11
135.413379
 21
181.886204
 31
0.0
  0
LINE
  5
5C1
100
AcDbEntity
  8
0
 62
     0
100
AcDbLine
 10
129.038422
 20
175.286741
 30
0.0
 11
131.529012
 21
177.777331
 31
0.0
  0
LINE
  5
5C2
100
AcDbEntity
  8
0
 62
     0
100
AcDbLine
 10
133.413379
 20
179.661698
 30
0.0
 11
135.413379
 21
181.661698
 31
0.0
  0
LINE
  5
5C3
100
AcDbEntity
  8
0
 62
     0
100
AcDbLine
 10
129.262929
 20
175.286741
 30
0.0
 11
131.836696
 21
177.860509
 31
0.0
  0
LINE
  5
5C4
100
AcDbEntity
  8
0
 62
     0
100
AcDbLine
 10
133.413379
 20
179.437191
 30
0.0
 11
135.413379
 21
181.437191
 31
0.0
  0
LINE
  5
5C5
100
AcDbEntity
  8
0
 62
     0
100
AcDbLine
 10
129.487435
 20
175.286741
 30
0.0
 11
132.14438
 21
177.943687
 31
0.0
  0
LINE
  5
5C6
100
AcDbEntity
  8
0
 62
     0
100
AcDbLine
 10
133.413379
 20
179.212685
 30
0.0
 11
135.413379
 21
181.212685
 31
0.0
  0
LINE
  5
5C7
100
AcDbEntity
  8
0
 62
     0
100
AcDbLine
 10
129.711941
 20
175.286741
 30
0.0
 11
132.452065
 21
178.026864
 31
0.0
  0
LINE
  5
5C8
100
AcDbEntity
  8
0
 62
     0
100
AcDbLine
 10
133.413379
 20
178.988179
 30
0.0
 11
135.413379
 21
180.988179
 31
0.0
  0
LINE
  5
5C9
100
AcDbEntity
  8
0
 62
     0
100
AcDbLine
 10
129.936448
 20
175.286741
 30
0.0
 11
132.759749
 21
178.110042
 31
0.0
  0
LINE
  5
5CA
100
AcDbEntity
  8
0
 62
     0
100
AcDbLine
 10
133.413379
 20
178.763672
 30
0.0
 11
135.413379
 21
180.763672
 31
0.0
  0
LINE
  5
5CB
100
AcDbEntity
  8
0
 62
     0
100
AcDbLine
 10
130.160954
 20
175.286741
 30
0.0
 11
133.067433
 21
178.19322
 31
0.0
  0
LINE
  5
5CC
100
AcDbEntity
  8
0
 62
     0
100
AcDbLine
 10
133.413379
 20
178.539166
 30
0.0
 11
135.413379
 21
180.539166
 31
0.0
  0
LINE
  5
5CD
100
AcDbEntity
  8
0
 62
     0
100
AcDbLine
 10
130.385461
 20
175.286741
 30
0.0
 11
133.375117
 21
178.276398
 31
0.0
  0
LINE
  5
5CE
100
AcDbEntity
  8
0
 62
     0
100
AcDbLine
 10
133.413379
 20
178.314659
 30
0.0
 11
135.413379
 21
180.314659
 31
0.0
  0
LINE
  5
5CF
100
AcDbEntity
  8
0
 62
     0
100
AcDbLine
 10
130.609967
 20
175.286741
 30
0.0
 11
135.413379
 21
180.090153
 31
0.0
  0
LINE
  5
5D0
100
AcDbEntity
  8
0
 62
     0
100
AcDbLine
 10
130.834473
 20
175.286741
 30
0.0
 11
135.413379
 21
179.865647
 31
0.0
  0
LINE
  5
5D1
100
AcDbEntity
  8
0
 62
     0
100
AcDbLine
 10
131.05898
 20
175.286741
 30
0.0
 11
135.413379
 21
179.64114
 31
0.0
  0
LINE
  5
5D2
100
AcDbEntity
  8
0
 62
     0
100
AcDbLine
 10
131.283486
 20
175.286741
 30
0.0
 11
135.413379
 21
179.416634
 31
0.0
  0
LINE
  5
5D3
100
AcDbEntity
  8
0
 62
     0
100
AcDbLine
 10
131.507993
 20
175.286741
 30
0.0
 11
135.413379
 21
179.192127
 31
0.0
  0
LINE
  5
5D4
100
AcDbEntity
  8
0
 62
     0
100
AcDbLine
 10
131.732499
 20
175.286741
 30
0.0
 11
135.413379
 21
178.967621
 31
0.0
  0
LINE
  5
5D5
100
AcDbEntity
  8
0
 62
     0
100
AcDbLine
 10
131.957005
 20
175.286741
 30
0.0
 11
135.413379
 21
178.743115
 31
0.0
  0
LINE
  5
5D6
100
AcDbEntity
  8
0
 62
     0
100
AcDbLine
 10
132.181512
 20
175.286741
 30
0.0
 11
135.413379
 21
178.518608
 31
0.0
  0
LINE
  5
5D7
100
AcDbEntity
  8
0
 62
     0
100
AcDbLine
 10
132.406018
 20
175.286741
 30
0.0
 11
135.413379
 21
178.294102
 31
0.0
  0
LINE
  5
5D8
100
AcDbEntity
  8
0
 62
     0
100
AcDbLine
 10
132.639023
 20
175.295239
 30
0.0
 11
135.404881
 21
178.061097
 31
0.0
  0
LINE
  5
5D9
100
AcDbEntity
  8
0
 62
     0
100
AcDbLine
 10
132.893738
 20
175.325448
 30
0.0
 11
135.374672
 21
177.806382
 31
0.0
  0
LINE
  5
5DA
100
AcDbEntity
  8
0
 62
     0
100
AcDbLine
 10
133.178835
 20
175.386038
 30
0.0
 11
135.314082
 21
177.521285
 31
0.0
  0
LINE
  5
5DB
100
AcDbEntity
  8
0
 62
     0
100
AcDbLine
 10
133.512732
 20
175.495429
 30
0.0
 11
135.204691
 21
177.187388
 31
0.0
  0
LINE
  5
5DC
100
AcDbEntity
  8
0
 62
     0
100
AcDbLine
 10
133.954882
 20
175.713073
 30
0.0
 11
134.987047
 21
176.745238
 31
0.0
  0
ENDBLK
  5
5DD
100
AcDbEntity
  8
0
100
AcDbBlockEnd
  0
BLOCK
  5
607
100
AcDbEntity
  8
0
100
AcDbBlockBegin
  2
*X12
 70
    65
 10
0.0
 20
0.0
 30
0.0
  3
*X12
  1

  0
LINE
  5
609
100
AcDbEntity
  8
0
 62
     0
100
AcDbLine
 10
92.957005
 20
136.286741
 30
0.0
 11
94.957005
 21
138.286741
 31
0.0
  0
LINE
  5
60A
100
AcDbEntity
  8
0
 62
     0
100
AcDbLine
 10
92.732499
 20
136.286741
 30
0.0
 11
94.732499
 21
138.286741
 31
0.0
  0
LINE
  5
60B
100
AcDbEntity
  8
0
 62
     0
100
AcDbLine
 10
92.507993
 20
136.286741
 30
0.0
 11
94.507993
 21
138.286741
 31
0.0
  0
LINE
  5
60C
100
AcDbEntity
  8
0
 62
     0
100
AcDbLine
 10
92.283486
 20
136.286741
 30
0.0
 11
94.283486
 21
138.286741
 31
0.0
  0
LINE
  5
60D
100
AcDbEntity
  8
0
 62
     0
100
AcDbLine
 10
92.05898
 20
136.286741
 30
0.0
 11
94.05898
 21
138.286741
 31
0.0
  0
LINE
  5
60E
100
AcDbEntity
  8
0
 62
     0
100
AcDbLine
 10
91.834473
 20
136.286741
 30
0.0
 11
93.834473
 21
138.286741
 31
0.0
  0
LINE
  5
60F
100
AcDbEntity
  8
0
 62
     0
100
AcDbLine
 10
91.609967
 20
136.286741
 30
0.0
 11
93.609967
 21
138.286741
 31
0.0
  0
LINE
  5
610
100
AcDbEntity
  8
0
 62
     0
100
AcDbLine
 10
91.385461
 20
136.286741
 30
0.0
 11
93.385461
 21
138.286741
 31
0.0
  0
LINE
  5
611
100
AcDbEntity
  8
0
 62
     0
100
AcDbLine
 10
91.160954
 20
136.286741
 30
0.0
 11
93.160954
 21
138.286741
 31
0.0
  0
LINE
  5
612
100
AcDbEntity
  8
0
 62
     0
100
AcDbLine
 10
90.936448
 20
136.286741
 30
0.0
 11
92.936448
 21
138.286741
 31
0.0
  0
LINE
  5
613
100
AcDbEntity
  8
0
 62
     0
100
AcDbLine
 10
90.711941
 20
136.286741
 30
0.0
 11
92.711941
 21
138.286741
 31
0.0
  0
LINE
  5
614
100
AcDbEntity
  8
0
 62
     0
100
AcDbLine
 10
90.487435
 20
136.286741
 30
0.0
 11
92.487435
 21
138.286741
 31
0.0
  0
LINE
  5
615
100
AcDbEntity
  8
0
 62
     0
100
AcDbLine
 10
90.262929
 20
136.286741
 30
0.0
 11
92.262929
 21
138.286741
 31
0.0
  0
LINE
  5
616
100
AcDbEntity
  8
0
 62
     0
100
AcDbLine
 10
90.038422
 20
136.286741
 30
0.0
 11
92.038422
 21
138.286741
 31
0.0
  0
LINE
  5
617
100
AcDbEntity
  8
0
 62
     0
100
AcDbLine
 10
89.813916
 20
136.286741
 30
0.0
 11
91.813916
 21
138.286741
 31
0.0
  0
LINE
  5
618
100
AcDbEntity
  8
0
 62
     0
100
AcDbLine
 10
89.589409
 20
136.286741
 30
0.0
 11
91.589409
 21
138.286741
 31
0.0
  0
LINE
  5
619
100
AcDbEntity
  8
0
 62
     0
100
AcDbLine
 10
89.364903
 20
136.286741
 30
0.0
 11
91.364903
 21
138.286741
 31
0.0
  0
LINE
  5
61A
100
AcDbEntity
  8
0
 62
     0
100
AcDbLine
 10
89.140397
 20
136.286741
 30
0.0
 11
91.140397
 21
138.286741
 31
0.0
  0
LINE
  5
61B
100
AcDbEntity
  8
0
 62
     0
100
AcDbLine
 10
88.91589
 20
136.286741
 30
0.0
 11
90.91589
 21
138.286741
 31
0.0
  0
LINE
  5
61C
100
AcDbEntity
  8
0
 62
     0
100
AcDbLine
 10
88.691384
 20
136.286741
 30
0.0
 11
90.691384
 21
138.286741
 31
0.0
  0
LINE
  5
61D
100
AcDbEntity
  8
0
 62
     0
100
AcDbLine
 10
88.466877
 20
136.286741
 30
0.0
 11
90.466877
 21
138.286741
 31
0.0
  0
LINE
  5
61E
100
AcDbEntity
  8
0
 62
     0
100
AcDbLine
 10
88.242371
 20
136.286741
 30
0.0
 11
90.242371
 21
138.286741
 31
0.0
  0
LINE
  5
61F
100
AcDbEntity
  8
0
 62
     0
100
AcDbLine
 10
88.017865
 20
136.286741
 30
0.0
 11
90.017865
 21
138.286741
 31
0.0
  0
LINE
  5
620
100
AcDbEntity
  8
0
 62
     0
100
AcDbLine
 10
87.793358
 20
136.286741
 30
0.0
 11
89.793358
 21
138.286741
 31
0.0
  0
LINE
  5
621
100
AcDbEntity
  8
0
 62
     0
100
AcDbLine
 10
87.568852
 20
136.286741
 30
0.0
 11
89.568852
 21
138.286741
 31
0.0
  0
LINE
  5
622
100
AcDbEntity
  8
0
 62
     0
100
AcDbLine
 10
87.344345
 20
136.286741
 30
0.0
 11
89.344345
 21
138.286741
 31
0.0
  0
LINE
  5
623
100
AcDbEntity
  8
0
 62
     0
100
AcDbLine
 10
87.119839
 20
136.286741
 30
0.0
 11
89.119839
 21
138.286741
 31
0.0
  0
LINE
  5
624
100
AcDbEntity
  8
0
 62
     0
100
AcDbLine
 10
86.895333
 20
136.286741
 30
0.0
 11
88.895333
 21
138.286741
 31
0.0
  0
LINE
  5
625
100
AcDbEntity
  8
0
 62
     0
100
AcDbLine
 10
86.670826
 20
136.286741
 30
0.0
 11
88.670826
 21
138.286741
 31
0.0
  0
LINE
  5
626
100
AcDbEntity
  8
0
 62
     0
100
AcDbLine
 10
86.44632
 20
136.286741
 30
0.0
 11
88.44632
 21
138.286741
 31
0.0
  0
LINE
  5
627
100
AcDbEntity
  8
0
 62
     0
100
AcDbLine
 10
86.221813
 20
136.286741
 30
0.0
 11
88.221813
 21
138.286741
 31
0.0
  0
LINE
  5
628
100
AcDbEntity
  8
0
 62
     0
100
AcDbLine
 10
85.997307
 20
136.286741
 30
0.0
 11
87.997307
 21
138.286741
 31
0.0
  0
LINE
  5
629
100
AcDbEntity
  8
0
 62
     0
100
AcDbLine
 10
85.772801
 20
136.286741
 30
0.0
 11
87.772801
 21
138.286741
 31
0.0
  0
LINE
  5
62A
100
AcDbEntity
  8
0
 62
     0
100
AcDbLine
 10
85.548294
 20
136.286741
 30
0.0
 11
87.548294
 21
138.286741
 31
0.0
  0
LINE
  5
62B
100
AcDbEntity
  8
0
 62
     0
100
AcDbLine
 10
85.323788
 20
136.286741
 30
0.0
 11
87.323788
 21
138.286741
 31
0.0
  0
LINE
  5
62C
100
AcDbEntity
  8
0
 62
     0
100
AcDbLine
 10
85.099281
 20
136.286741
 30
0.0
 11
87.099281
 21
138.286741
 31
0.0
  0
LINE
  5
62D
100
AcDbEntity
  8
0
 62
     0
100
AcDbLine
 10
84.874775
 20
136.286741
 30
0.0
 11
86.874775
 21
138.286741
 31
0.0
  0
LINE
  5
62E
100
AcDbEntity
  8
0
 62
     0
100
AcDbLine
 10
84.650269
 20
136.286741
 30
0.0
 11
86.650269
 21
138.286741
 31
0.0
  0
LINE
  5
62F
100
AcDbEntity
  8
0
 62
     0
100
AcDbLine
 10
84.425762
 20
136.286741
 30
0.0
 11
86.425762
 21
138.286741
 31
0.0
  0
LINE
  5
630
100
AcDbEntity
  8
0
 62
     0
100
AcDbLine
 10
84.201256
 20
136.286741
 30
0.0
 11
86.201256
 21
138.286741
 31
0.0
  0
LINE
  5
631
100
AcDbEntity
  8
0
 62
     0
100
AcDbLine
 10
83.976749
 20
136.286741
 30
0.0
 11
85.976749
 21
138.286741
 31
0.0
  0
LINE
  5
632
100
AcDbEntity
  8
0
 62
     0
100
AcDbLine
 10
83.752243
 20
136.286741
 30
0.0
 11
85.752243
 21
138.286741
 31
0.0
  0
LINE
  5
633
100
AcDbEntity
  8
0
 62
     0
100
AcDbLine
 10
83.527737
 20
136.286741
 30
0.0
 11
85.527737
 21
138.286741
 31
0.0
  0
LINE
  5
634
100
AcDbEntity
  8
0
 62
     0
100
AcDbLine
 10
83.30323
 20
136.286741
 30
0.0
 11
85.30323
 21
138.286741
 31
0.0
  0
LINE
  5
635
100
AcDbEntity
  8
0
 62
     0
100
AcDbLine
 10
83.078724
 20
136.286741
 30
0.0
 11
85.078724
 21
138.286741
 31
0.0
  0
LINE
  5
636
100
AcDbEntity
  8
0
 62
     0
100
AcDbLine
 10
82.854217
 20
136.286741
 30
0.0
 11
84.854217
 21
138.286741
 31
0.0
  0
LINE
  5
637
100
AcDbEntity
  8
0
 62
     0
100
AcDbLine
 10
82.629711
 20
136.286741
 30
0.0
 11
84.629711
 21
138.286741
 31
0.0
  0
LINE
  5
638
100
AcDbEntity
  8
0
 62
     0
100
AcDbLine
 10
82.405205
 20
136.286741
 30
0.0
 11
84.405205
 21
138.286741
 31
0.0
  0
LINE
  5
639
100
AcDbEntity
  8
0
 62
     0
100
AcDbLine
 10
82.180698
 20
136.286741
 30
0.0
 11
84.180698
 21
138.286741
 31
0.0
  0
LINE
  5
63A
100
AcDbEntity
  8
0
 62
     0
100
AcDbLine
 10
81.956192
 20
136.286741
 30
0.0
 11
83.956192
 21
138.286741
 31
0.0
  0
LINE
  5
63B
100
AcDbEntity
  8
0
 62
     0
100
AcDbLine
 10
81.731685
 20
136.286741
 30
0.0
 11
83.731685
 21
138.286741
 31
0.0
  0
LINE
  5
63C
100
AcDbEntity
  8
0
 62
     0
100
AcDbLine
 10
81.507179
 20
136.286741
 30
0.0
 11
83.507179
 21
138.286741
 31
0.0
  0
LINE
  5
63D
100
AcDbEntity
  8
0
 62
     0
100
AcDbLine
 10
81.282672
 20
136.286741
 30
0.0
 11
83.282672
 21
138.286741
 31
0.0
  0
LINE
  5
63E
100
AcDbEntity
  8
0
 62
     0
100
AcDbLine
 10
81.058166
 20
136.286741
 30
0.0
 11
83.058166
 21
138.286741
 31
0.0
  0
LINE
  5
63F
100
AcDbEntity
  8
0
 62
     0
100
AcDbLine
 10
80.83366
 20
136.286741
 30
0.0
 11
82.83366
 21
138.286741
 31
0.0
  0
LINE
  5
640
100
AcDbEntity
  8
0
 62
     0
100
AcDbLine
 10
80.609153
 20
136.286741
 30
0.0
 11
82.609153
 21
138.286741
 31
0.0
  0
LINE
  5
641
100
AcDbEntity
  8
0
 62
     0
100
AcDbLine
 10
80.384647
 20
136.286741
 30
0.0
 11
82.384647
 21
138.286741
 31
0.0
  0
LINE
  5
642
100
AcDbEntity
  8
0
 62
     0
100
AcDbLine
 10
80.16014
 20
136.286741
 30
0.0
 11
82.16014
 21
138.286741
 31
0.0
  0
LINE
  5
643
100
AcDbEntity
  8
0
 62
     0
100
AcDbLine
 10
79.935634
 20
136.286741
 30
0.0
 11
81.935634
 21
138.286741
 31
0.0
  0
LINE
  5
644
100
AcDbEntity
  8
0
 62
     0
100
AcDbLine
 10
79.711128
 20
136.286741
 30
0.0
 11
81.711128
 21
138.286741
 31
0.0
  0
LINE
  5
645
100
AcDbEntity
  8
0
 62
     0
100
AcDbLine
 10
79.486621
 20
136.286741
 30
0.0
 11
81.486621
 21
138.286741
 31
0.0
  0
LINE
  5
646
100
AcDbEntity
  8
0
 62
     0
100
AcDbLine
 10
79.262115
 20
136.286741
 30
0.0
 11
81.262115
 21
138.286741
 31
0.0
  0
LINE
  5
647
100
AcDbEntity
  8
0
 62
     0
100
AcDbLine
 10
79.037608
 20
136.286741
 30
0.0
 11
81.037608
 21
138.286741
 31
0.0
  0
LINE
  5
648
100
AcDbEntity
  8
0
 62
     0
100
AcDbLine
 10
78.813102
 20
136.286741
 30
0.0
 11
80.813102
 21
138.286741
 31
0.0
  0
LINE
  5
649
100
AcDbEntity
  8
0
 62
     0
100
AcDbLine
 10
78.588596
 20
136.286741
 30
0.0
 11
80.588596
 21
138.286741
 31
0.0
  0
LINE
  5
64A
100
AcDbEntity
  8
0
 62
     0
100
AcDbLine
 10
78.364089
 20
136.286741
 30
0.0
 11
80.364089
 21
138.286741
 31
0.0
  0
LINE
  5
64B
100
AcDbEntity
  8
0
 62
     0
100
AcDbLine
 10
78.139583
 20
136.286741
 30
0.0
 11
80.139583
 21
138.286741
 31
0.0
  0
LINE
  5
64C
100
AcDbEntity
  8
0
 62
     0
100
AcDbLine
 10
77.915076
 20
136.286741
 30
0.0
 11
79.915076
 21
138.286741
 31
0.0
  0
LINE
  5
64D
100
AcDbEntity
  8
0
 62
     0
100
AcDbLine
 10
77.69057
 20
136.286741
 30
0.0
 11
79.69057
 21
138.286741
 31
0.0
  0
LINE
  5
64E
100
AcDbEntity
  8
0
 62
     0
100
AcDbLine
 10
77.466064
 20
136.286741
 30
0.0
 11
79.466064
 21
138.286741
 31
0.0
  0
LINE
  5
64F
100
AcDbEntity
  8
0
 62
     0
100
AcDbLine
 10
77.241557
 20
136.286741
 30
0.0
 11
79.241557
 21
138.286741
 31
0.0
  0
LINE
  5
650
100
AcDbEntity
  8
0
 62
     0
100
AcDbLine
 10
77.017051
 20
136.286741
 30
0.0
 11
79.017051
 21
138.286741
 31
0.0
  0
LINE
  5
651
100
AcDbEntity
  8
0
 62
     0
100
AcDbLine
 10
76.792544
 20
136.286741
 30
0.0
 11
78.792544
 21
138.286741
 31
0.0
  0
LINE
  5
652
100
AcDbEntity
  8
0
 62
     0
100
AcDbLine
 10
76.568038
 20
136.286741
 30
0.0
 11
78.568038
 21
138.286741
 31
0.0
  0
LINE
  5
653
100
AcDbEntity
  8
0
 62
     0
100
AcDbLine
 10
76.378455
 20
136.321665
 30
0.0
 11
78.343532
 21
138.286741
 31
0.0
  0
LINE
  5
654
100
AcDbEntity
  8
0
 62
     0
100
AcDbLine
 10
76.266202
 20
136.433918
 30
0.0
 11
78.119025
 21
138.286741
 31
0.0
  0
LINE
  5
655
100
AcDbEntity
  8
0
 62
     0
100
AcDbLine
 10
76.153949
 20
136.546171
 30
0.0
 11
77.894519
 21
138.286741
 31
0.0
  0
LINE
  5
656
100
AcDbEntity
  8
0
 62
     0
100
AcDbLine
 10
76.041696
 20
136.658424
 30
0.0
 11
77.670012
 21
138.286741
 31
0.0
  0
LINE
  5
657
100
AcDbEntity
  8
0
 62
     0
100
AcDbLine
 10
75.929442
 20
136.770678
 30
0.0
 11
77.445506
 21
138.286741
 31
0.0
  0
LINE
  5
658
100
AcDbEntity
  8
0
 62
     0
100
AcDbLine
 10
75.817189
 20
136.882931
 30
0.0
 11
77.413379
 21
138.47912
 31
0.0
  0
LINE
  5
659
100
AcDbEntity
  8
0
 62
     0
100
AcDbLine
 10
75.704936
 20
136.995184
 30
0.0
 11
77.413379
 21
138.703627
 31
0.0
  0
LINE
  5
65A
100
AcDbEntity
  8
0
 62
     0
100
AcDbLine
 10
75.592683
 20
137.107437
 30
0.0
 11
77.413379
 21
138.928133
 31
0.0
  0
LINE
  5
65B
100
AcDbEntity
  8
0
 62
     0
100
AcDbLine
 10
75.48043
 20
137.21969
 30
0.0
 11
77.413379
 21
139.15264
 31
0.0
  0
LINE
  5
65C
100
AcDbEntity
  8
0
 62
     0
100
AcDbLine
 10
75.413379
 20
137.377146
 30
0.0
 11
77.413379
 21
139.377146
 31
0.0
  0
LINE
  5
65D
100
AcDbEntity
  8
0
 62
     0
100
AcDbLine
 10
75.413379
 20
137.601652
 30
0.0
 11
77.413379
 21
139.601652
 31
0.0
  0
LINE
  5
65E
100
AcDbEntity
  8
0
 62
     0
100
AcDbLine
 10
75.413379
 20
137.826159
 30
0.0
 11
77.413379
 21
139.826159
 31
0.0
  0
LINE
  5
65F
100
AcDbEntity
  8
0
 62
     0
100
AcDbLine
 10
75.413379
 20
138.050665
 30
0.0
 11
77.413379
 21
140.050665
 31
0.0
  0
LINE
  5
660
100
AcDbEntity
  8
0
 62
     0
100
AcDbLine
 10
75.413379
 20
138.275172
 30
0.0
 11
77.413379
 21
140.275172
 31
0.0
  0
LINE
  5
661
100
AcDbEntity
  8
0
 62
     0
100
AcDbLine
 10
75.413379
 20
138.499678
 30
0.0
 11
77.413379
 21
140.499678
 31
0.0
  0
LINE
  5
662
100
AcDbEntity
  8
0
 62
     0
100
AcDbLine
 10
75.413379
 20
138.724184
 30
0.0
 11
77.413379
 21
140.724184
 31
0.0
  0
LINE
  5
663
100
AcDbEntity
  8
0
 62
     0
100
AcDbLine
 10
75.413379
 20
138.948691
 30
0.0
 11
77.413379
 21
140.948691
 31
0.0
  0
LINE
  5
664
100
AcDbEntity
  8
0
 62
     0
100
AcDbLine
 10
75.413379
 20
139.173197
 30
0.0
 11
77.413379
 21
141.173197
 31
0.0
  0
LINE
  5
665
100
AcDbEntity
  8
0
 62
     0
100
AcDbLine
 10
75.413379
 20
139.397704
 30
0.0
 11
77.413379
 21
141.397704
 31
0.0
  0
LINE
  5
666
100
AcDbEntity
  8
0
 62
     0
100
AcDbLine
 10
75.413379
 20
139.62221
 30
0.0
 11
77.413379
 21
141.62221
 31
0.0
  0
LINE
  5
667
100
AcDbEntity
  8
0
 62
     0
100
AcDbLine
 10
75.413379
 20
139.846716
 30
0.0
 11
77.413379
 21
141.846716
 31
0.0
  0
LINE
  5
668
100
AcDbEntity
  8
0
 62
     0
100
AcDbLine
 10
75.413379
 20
140.071223
 30
0.0
 11
77.413379
 21
142.071223
 31
0.0
  0
LINE
  5
669
100
AcDbEntity
  8
0
 62
     0
100
AcDbLine
 10
75.413379
 20
140.295729
 30
0.0
 11
77.413379
 21
142.295729
 31
0.0
  0
LINE
  5
66A
100
AcDbEntity
  8
0
 62
     0
100
AcDbLine
 10
75.413379
 20
140.520236
 30
0.0
 11
77.413379
 21
142.520236
 31
0.0
  0
LINE
  5
66B
100
AcDbEntity
  8
0
 62
     0
100
AcDbLine
 10
75.413379
 20
140.744742
 30
0.0
 11
77.413379
 21
142.744742
 31
0.0
  0
LINE
  5
66C
100
AcDbEntity
  8
0
 62
     0
100
AcDbLine
 10
75.413379
 20
140.969248
 30
0.0
 11
77.413379
 21
142.969248
 31
0.0
  0
LINE
  5
66D
100
AcDbEntity
  8
0
 62
     0
100
AcDbLine
 10
75.413379
 20
141.193755
 30
0.0
 11
77.413379
 21
143.193755
 31
0.0
  0
LINE
  5
66E
100
AcDbEntity
  8
0
 62
     0
100
AcDbLine
 10
75.413379
 20
141.418261
 30
0.0
 11
77.413379
 21
143.418261
 31
0.0
  0
LINE
  5
66F
100
AcDbEntity
  8
0
 62
     0
100
AcDbLine
 10
75.413379
 20
141.642768
 30
0.0
 11
77.413379
 21
143.642768
 31
0.0
  0
LINE
  5
670
100
AcDbEntity
  8
0
 62
     0
100
AcDbLine
 10
75.413379
 20
141.867274
 30
0.0
 11
77.413379
 21
143.867274
 31
0.0
  0
LINE
  5
671
100
AcDbEntity
  8
0
 62
     0
100
AcDbLine
 10
75.413379
 20
142.09178
 30
0.0
 11
77.413379
 21
144.09178
 31
0.0
  0
LINE
  5
672
100
AcDbEntity
  8
0
 62
     0
100
AcDbLine
 10
75.413379
 20
142.316287
 30
0.0
 11
77.413379
 21
144.316287
 31
0.0
  0
LINE
  5
673
100
AcDbEntity
  8
0
 62
     0
100
AcDbLine
 10
75.413379
 20
142.540793
 30
0.0
 11
77.413379
 21
144.540793
 31
0.0
  0
LINE
  5
674
100
AcDbEntity
  8
0
 62
     0
100
AcDbLine
 10
75.413379
 20
142.7653
 30
0.0
 11
77.413379
 21
144.7653
 31
0.0
  0
LINE
  5
675
100
AcDbEntity
  8
0
 62
     0
100
AcDbLine
 10
75.413379
 20
142.989806
 30
0.0
 11
77.413379
 21
144.989806
 31
0.0
  0
LINE
  5
676
100
AcDbEntity
  8
0
 62
     0
100
AcDbLine
 10
75.413379
 20
143.214312
 30
0.0
 11
77.413379
 21
145.214312
 31
0.0
  0
LINE
  5
677
100
AcDbEntity
  8
0
 62
     0
100
AcDbLine
 10
75.413379
 20
143.438819
 30
0.0
 11
77.413379
 21
145.438819
 31
0.0
  0
LINE
  5
678
100
AcDbEntity
  8
0
 62
     0
100
AcDbLine
 10
75.413379
 20
143.663325
 30
0.0
 11
77.413379
 21
145.663325
 31
0.0
  0
LINE
  5
679
100
AcDbEntity
  8
0
 62
     0
100
AcDbLine
 10
75.413379
 20
143.887832
 30
0.0
 11
77.413379
 21
145.887832
 31
0.0
  0
LINE
  5
67A
100
AcDbEntity
  8
0
 62
     0
100
AcDbLine
 10
75.413379
 20
144.112338
 30
0.0
 11
77.413379
 21
146.112338
 31
0.0
  0
LINE
  5
67B
100
AcDbEntity
  8
0
 62
     0
100
AcDbLine
 10
75.413379
 20
144.336845
 30
0.0
 11
77.413379
 21
146.336845
 31
0.0
  0
LINE
  5
67C
100
AcDbEntity
  8
0
 62
     0
100
AcDbLine
 10
75.413379
 20
144.561351
 30
0.0
 11
77.413379
 21
146.561351
 31
0.0
  0
LINE
  5
67D
100
AcDbEntity
  8
0
 62
     0
100
AcDbLine
 10
75.413379
 20
144.785857
 30
0.0
 11
77.413379
 21
146.785857
 31
0.0
  0
LINE
  5
67E
100
AcDbEntity
  8
0
 62
     0
100
AcDbLine
 10
75.413379
 20
145.010364
 30
0.0
 11
77.413379
 21
147.010364
 31
0.0
  0
LINE
  5
67F
100
AcDbEntity
  8
0
 62
     0
100
AcDbLine
 10
75.413379
 20
145.23487
 30
0.0
 11
77.413379
 21
147.23487
 31
0.0
  0
LINE
  5
680
100
AcDbEntity
  8
0
 62
     0
100
AcDbLine
 10
75.413379
 20
145.459377
 30
0.0
 11
77.413379
 21
147.459377
 31
0.0
  0
LINE
  5
681
100
AcDbEntity
  8
0
 62
     0
100
AcDbLine
 10
75.413379
 20
145.683883
 30
0.0
 11
77.413379
 21
147.683883
 31
0.0
  0
LINE
  5
682
100
AcDbEntity
  8
0
 62
     0
100
AcDbLine
 10
75.413379
 20
145.908389
 30
0.0
 11
77.413379
 21
147.908389
 31
0.0
  0
LINE
  5
683
100
AcDbEntity
  8
0
 62
     0
100
AcDbLine
 10
75.413379
 20
146.132896
 30
0.0
 11
77.413379
 21
148.132896
 31
0.0
  0
LINE
  5
684
100
AcDbEntity
  8
0
 62
     0
100
AcDbLine
 10
75.413379
 20
146.357402
 30
0.0
 11
77.413379
 21
148.357402
 31
0.0
  0
LINE
  5
685
100
AcDbEntity
  8
0
 62
     0
100
AcDbLine
 10
75.413379
 20
146.581909
 30
0.0
 11
77.413379
 21
148.581909
 31
0.0
  0
LINE
  5
686
100
AcDbEntity
  8
0
 62
     0
100
AcDbLine
 10
75.413379
 20
146.806415
 30
0.0
 11
77.413379
 21
148.806415
 31
0.0
  0
LINE
  5
687
100
AcDbEntity
  8
0
 62
     0
100
AcDbLine
 10
75.413379
 20
147.030921
 30
0.0
 11
77.413379
 21
149.030921
 31
0.0
  0
LINE
  5
688
100
AcDbEntity
  8
0
 62
     0
100
AcDbLine
 10
75.413379
 20
147.255428
 30
0.0
 11
77.413379
 21
149.255428
 31
0.0
  0
LINE
  5
689
100
AcDbEntity
  8
0
 62
     0
100
AcDbLine
 10
75.413379
 20
147.479934
 30
0.0
 11
77.413379
 21
149.479934
 31
0.0
  0
LINE
  5
68A
100
AcDbEntity
  8
0
 62
     0
100
AcDbLine
 10
75.413379
 20
147.704441
 30
0.0
 11
77.413379
 21
149.704441
 31
0.0
  0
LINE
  5
68B
100
AcDbEntity
  8
0
 62
     0
100
AcDbLine
 10
75.413379
 20
147.928947
 30
0.0
 11
77.413379
 21
149.928947
 31
0.0
  0
LINE
  5
68C
100
AcDbEntity
  8
0
 62
     0
100
AcDbLine
 10
75.413379
 20
148.153453
 30
0.0
 11
77.413379
 21
150.153453
 31
0.0
  0
LINE
  5
68D
100
AcDbEntity
  8
0
 62
     0
100
AcDbLine
 10
75.413379
 20
148.37796
 30
0.0
 11
77.413379
 21
150.37796
 31
0.0
  0
LINE
  5
68E
100
AcDbEntity
  8
0
 62
     0
100
AcDbLine
 10
75.413379
 20
148.602466
 30
0.0
 11
77.413379
 21
150.602466
 31
0.0
  0
LINE
  5
68F
100
AcDbEntity
  8
0
 62
     0
100
AcDbLine
 10
75.413379
 20
148.826973
 30
0.0
 11
77.413379
 21
150.826973
 31
0.0
  0
LINE
  5
690
100
AcDbEntity
  8
0
 62
     0
100
AcDbLine
 10
75.413379
 20
149.051479
 30
0.0
 11
77.413379
 21
151.051479
 31
0.0
  0
LINE
  5
691
100
AcDbEntity
  8
0
 62
     0
100
AcDbLine
 10
75.413379
 20
149.275985
 30
0.0
 11
77.413379
 21
151.275985
 31
0.0
  0
LINE
  5
692
100
AcDbEntity
  8
0
 62
     0
100
AcDbLine
 10
75.413379
 20
149.500492
 30
0.0
 11
77.413379
 21
151.500492
 31
0.0
  0
LINE
  5
693
100
AcDbEntity
  8
0
 62
     0
100
AcDbLine
 10
75.413379
 20
149.724998
 30
0.0
 11
77.413379
 21
151.724998
 31
0.0
  0
LINE
  5
694
100
AcDbEntity
  8
0
 62
     0
100
AcDbLine
 10
75.413379
 20
149.949505
 30
0.0
 11
77.413379
 21
151.949505
 31
0.0
  0
LINE
  5
695
100
AcDbEntity
  8
0
 62
     0
100
AcDbLine
 10
75.413379
 20
150.174011
 30
0.0
 11
77.413379
 21
152.174011
 31
0.0
  0
LINE
  5
696
100
AcDbEntity
  8
0
 62
     0
100
AcDbLine
 10
75.413379
 20
150.398517
 30
0.0
 11
77.413379
 21
152.398517
 31
0.0
  0
LINE
  5
697
100
AcDbEntity
  8
0
 62
     0
100
AcDbLine
 10
75.413379
 20
150.623024
 30
0.0
 11
77.413379
 21
152.623024
 31
0.0
  0
LINE
  5
698
100
AcDbEntity
  8
0
 62
     0
100
AcDbLine
 10
75.413379
 20
150.84753
 30
0.0
 11
77.413379
 21
152.84753
 31
0.0
  0
LINE
  5
699
100
AcDbEntity
  8
0
 62
     0
100
AcDbLine
 10
75.413379
 20
151.072037
 30
0.0
 11
77.413379
 21
153.072037
 31
0.0
  0
LINE
  5
69A
100
AcDbEntity
  8
0
 62
     0
100
AcDbLine
 10
75.413379
 20
151.296543
 30
0.0
 11
77.413379
 21
153.296543
 31
0.0
  0
LINE
  5
69B
100
AcDbEntity
  8
0
 62
     0
100
AcDbLine
 10
75.413379
 20
151.521049
 30
0.0
 11
77.413379
 21
153.521049
 31
0.0
  0
LINE
  5
69C
100
AcDbEntity
  8
0
 62
     0
100
AcDbLine
 10
75.413379
 20
151.745556
 30
0.0
 11
77.413379
 21
153.745556
 31
0.0
  0
LINE
  5
69D
100
AcDbEntity
  8
0
 62
     0
100
AcDbLine
 10
75.413379
 20
151.970062
 30
0.0
 11
77.413379
 21
153.970062
 31
0.0
  0
LINE
  5
69E
100
AcDbEntity
  8
0
 62
     0
100
AcDbLine
 10
75.413379
 20
152.194569
 30
0.0
 11
77.413379
 21
154.194569
 31
0.0
  0
LINE
  5
69F
100
AcDbEntity
  8
0
 62
     0
100
AcDbLine
 10
75.413379
 20
152.419075
 30
0.0
 11
77.413379
 21
154.419075
 31
0.0
  0
LINE
  5
6A0
100
AcDbEntity
  8
0
 62
     0
100
AcDbLine
 10
75.413379
 20
152.643581
 30
0.0
 11
77.413379
 21
154.643581
 31
0.0
  0
LINE
  5
6A1
100
AcDbEntity
  8
0
 62
     0
100
AcDbLine
 10
75.413379
 20
152.868088
 30
0.0
 11
77.413379
 21
154.868088
 31
0.0
  0
LINE
  5
6A2
100
AcDbEntity
  8
0
 62
     0
100
AcDbLine
 10
75.413379
 20
153.092594
 30
0.0
 11
77.413379
 21
155.092594
 31
0.0
  0
LINE
  5
6A3
100
AcDbEntity
  8
0
 62
     0
100
AcDbLine
 10
75.413379
 20
153.317101
 30
0.0
 11
77.413379
 21
155.317101
 31
0.0
  0
LINE
  5
6A4
100
AcDbEntity
  8
0
 62
     0
100
AcDbLine
 10
75.413379
 20
153.541607
 30
0.0
 11
77.413379
 21
155.541607
 31
0.0
  0
LINE
  5
6A5
100
AcDbEntity
  8
0
 62
     0
100
AcDbLine
 10
75.413379
 20
153.766113
 30
0.0
 11
77.413379
 21
155.766113
 31
0.0
  0
LINE
  5
6A6
100
AcDbEntity
  8
0
 62
     0
100
AcDbLine
 10
75.413379
 20
153.99062
 30
0.0
 11
77.413379
 21
155.99062
 31
0.0
  0
LINE
  5
6A7
100
AcDbEntity
  8
0
 62
     0
100
AcDbLine
 10
75.413379
 20
154.215126
 30
0.0
 11
77.413379
 21
156.215126
 31
0.0
  0
LINE
  5
6A8
100
AcDbEntity
  8
0
 62
     0
100
AcDbLine
 10
75.413379
 20
154.439633
 30
0.0
 11
77.413379
 21
156.439633
 31
0.0
  0
LINE
  5
6A9
100
AcDbEntity
  8
0
 62
     0
100
AcDbLine
 10
82.150047
 20
161.176301
 30
0.0
 11
82.260487
 21
161.286741
 31
0.0
  0
LINE
  5
6AA
100
AcDbEntity
  8
0
 62
     0
100
AcDbLine
 10
75.413379
 20
154.664139
 30
0.0
 11
77.413379
 21
156.664139
 31
0.0
  0
LINE
  5
6AB
100
AcDbEntity
  8
0
 62
     0
100
AcDbLine
 10
81.776541
 20
161.027302
 30
0.0
 11
82.035981
 21
161.286741
 31
0.0
  0
LINE
  5
6AC
100
AcDbEntity
  8
0
 62
     0
100
AcDbLine
 10
75.413379
 20
154.888645
 30
0.0
 11
77.413379
 21
156.888645
 31
0.0
  0
LINE
  5
6AD
100
AcDbEntity
  8
0
 62
     0
100
AcDbLine
 10
81.403035
 20
160.878302
 30
0.0
 11
81.811475
 21
161.286741
 31
0.0
  0
LINE
  5
6AE
100
AcDbEntity
  8
0
 62
     0
100
AcDbLine
 10
75.413379
 20
155.113152
 30
0.0
 11
77.413379
 21
157.113152
 31
0.0
  0
LINE
  5
6AF
100
AcDbEntity
  8
0
 62
     0
100
AcDbLine
 10
81.029529
 20
160.729302
 30
0.0
 11
81.586968
 21
161.286741
 31
0.0
  0
LINE
  5
6B0
100
AcDbEntity
  8
0
 62
     0
100
AcDbLine
 10
75.413379
 20
155.337658
 30
0.0
 11
77.413379
 21
157.337658
 31
0.0
  0
LINE
  5
6B1
100
AcDbEntity
  8
0
 62
     0
100
AcDbLine
 10
80.656023
 20
160.580303
 30
0.0
 11
81.362462
 21
161.286741
 31
0.0
  0
LINE
  5
6B2
100
AcDbEntity
  8
0
 62
     0
100
AcDbLine
 10
75.413379
 20
155.562165
 30
0.0
 11
77.413379
 21
157.562165
 31
0.0
  0
LINE
  5
6B3
100
AcDbEntity
  8
0
 62
     0
100
AcDbLine
 10
80.282517
 20
160.431303
 30
0.0
 11
81.137955
 21
161.286741
 31
0.0
  0
LINE
  5
6B4
100
AcDbEntity
  8
0
 62
     0
100
AcDbLine
 10
75.413379
 20
155.786671
 30
0.0
 11
77.413379
 21
157.786671
 31
0.0
  0
LINE
  5
6B5
100
AcDbEntity
  8
0
 62
     0
100
AcDbLine
 10
79.909011
 20
160.282303
 30
0.0
 11
80.913449
 21
161.286741
 31
0.0
  0
LINE
  5
6B6
100
AcDbEntity
  8
0
 62
     0
100
AcDbLine
 10
75.413379
 20
156.011177
 30
0.0
 11
77.413379
 21
158.011177
 31
0.0
  0
LINE
  5
6B7
100
AcDbEntity
  8
0
 62
     0
100
AcDbLine
 10
79.535505
 20
160.133303
 30
0.0
 11
80.688943
 21
161.286741
 31
0.0
  0
LINE
  5
6B8
100
AcDbEntity
  8
0
 62
     0
100
AcDbLine
 10
75.413379
 20
156.235684
 30
0.0
 11
77.413379
 21
158.235684
 31
0.0
  0
LINE
  5
6B9
100
AcDbEntity
  8
0
 62
     0
100
AcDbLine
 10
79.161999
 20
159.984304
 30
0.0
 11
80.464436
 21
161.286741
 31
0.0
  0
LINE
  5
6BA
100
AcDbEntity
  8
0
 62
     0
100
AcDbLine
 10
75.413379
 20
156.46019
 30
0.0
 11
77.413379
 21
158.46019
 31
0.0
  0
LINE
  5
6BB
100
AcDbEntity
  8
0
 62
     0
100
AcDbLine
 10
78.788492
 20
159.835304
 30
0.0
 11
80.23993
 21
161.286741
 31
0.0
  0
LINE
  5
6BC
100
AcDbEntity
  8
0
 62
     0
100
AcDbLine
 10
75.413379
 20
156.684697
 30
0.0
 11
77.413379
 21
158.684697
 31
0.0
  0
LINE
  5
6BD
100
AcDbEntity
  8
0
 62
     0
100
AcDbLine
 10
78.414986
 20
159.686304
 30
0.0
 11
80.015423
 21
161.286741
 31
0.0
  0
LINE
  5
6BE
100
AcDbEntity
  8
0
 62
     0
100
AcDbLine
 10
75.413379
 20
156.909203
 30
0.0
 11
77.413379
 21
158.909203
 31
0.0
  0
LINE
  5
6BF
100
AcDbEntity
  8
0
 62
     0
100
AcDbLine
 10
78.04148
 20
159.537305
 30
0.0
 11
79.790917
 21
161.286741
 31
0.0
  0
LINE
  5
6C0
100
AcDbEntity
  8
0
 62
     0
100
AcDbLine
 10
75.413379
 20
157.133709
 30
0.0
 11
77.413379
 21
159.133709
 31
0.0
  0
LINE
  5
6C1
100
AcDbEntity
  8
0
 62
     0
100
AcDbLine
 10
77.667974
 20
159.388305
 30
0.0
 11
79.566411
 21
161.286741
 31
0.0
  0
LINE
  5
6C2
100
AcDbEntity
  8
0
 62
     0
100
AcDbLine
 10
75.413379
 20
157.358216
 30
0.0
 11
79.341904
 21
161.286741
 31
0.0
  0
LINE
  5
6C3
100
AcDbEntity
  8
0
 62
     0
100
AcDbLine
 10
75.413379
 20
157.582722
 30
0.0
 11
79.117398
 21
161.286741
 31
0.0
  0
LINE
  5
6C4
100
AcDbEntity
  8
0
 62
     0
100
AcDbLine
 10
75.413379
 20
157.807229
 30
0.0
 11
78.892891
 21
161.286741
 31
0.0
  0
LINE
  5
6C5
100
AcDbEntity
  8
0
 62
     0
100
AcDbLine
 10
75.413379
 20
158.031735
 30
0.0
 11
78.668385
 21
161.286741
 31
0.0
  0
LINE
  5
6C6
100
AcDbEntity
  8
0
 62
     0
100
AcDbLine
 10
75.413379
 20
158.256241
 30
0.0
 11
78.443879
 21
161.286741
 31
0.0
  0
LINE
  5
6C7
100
AcDbEntity
  8
0
 62
     0
100
AcDbLine
 10
75.413379
 20
158.480748
 30
0.0
 11
78.219372
 21
161.286741
 31
0.0
  0
LINE
  5
6C8
100
AcDbEntity
  8
0
 62
     0
100
AcDbLine
 10
75.413379
 20
158.705254
 30
0.0
 11
77.994866
 21
161.286741
 31
0.0
  0
LINE
  5
6C9
100
AcDbEntity
  8
0
 62
     0
100
AcDbLine
 10
75.413379
 20
158.929761
 30
0.0
 11
77.770359
 21
161.286741
 31
0.0
  0
LINE
  5
6CA
100
AcDbEntity
  8
0
 62
     0
100
AcDbLine
 10
75.413379
 20
159.154267
 30
0.0
 11
77.545853
 21
161.286741
 31
0.0
  0
LINE
  5
6CB
100
AcDbEntity
  8
0
 62
     0
100
AcDbLine
 10
75.415601
 20
159.380996
 30
0.0
 11
77.319124
 21
161.284519
 31
0.0
  0
LINE
  5
6CC
100
AcDbEntity
  8
0
 62
     0
100
AcDbLine
 10
75.443683
 20
159.633585
 30
0.0
 11
77.066535
 21
161.256437
 31
0.0
  0
LINE
  5
6CD
100
AcDbEntity
  8
0
 62
     0
100
AcDbLine
 10
75.52175
 20
159.936158
 30
0.0
 11
76.763962
 21
161.17837
 31
0.0
  0
LINE
  5
6CE
100
AcDbEntity
  8
0
 62
     0
100
AcDbLine
 10
75.734071
 20
160.372985
 30
0.0
 11
76.327135
 21
160.966049
 31
0.0
  0
LINE
  5
6CF
100
AcDbEntity
  8
0
 62
     0
100
AcDbLine
 10
93.181512
 20
136.286741
 30
0.0
 11
95.181512
 21
138.286741
 31
0.0
  0
LINE
  5
6D0
100
AcDbEntity
  8
0
 62
     0
100
AcDbLine
 10
93.406018
 20
136.286741
 30
0.0
 11
95.406018
 21
138.286741
 31
0.0
  0
LINE
  5
6D1
100
AcDbEntity
  8
0
 62
     0
100
AcDbLine
 10
93.630525
 20
136.286741
 30
0.0
 11
95.630525
 21
138.286741
 31
0.0
  0
LINE
  5
6D2
100
AcDbEntity
  8
0
 62
     0
100
AcDbLine
 10
93.855031
 20
136.286741
 30
0.0
 11
95.855031
 21
138.286741
 31
0.0
  0
LINE
  5
6D3
100
AcDbEntity
  8
0
 62
     0
100
AcDbLine
 10
94.079537
 20
136.286741
 30
0.0
 11
96.079537
 21
138.286741
 31
0.0
  0
LINE
  5
6D4
100
AcDbEntity
  8
0
 62
     0
100
AcDbLine
 10
94.304044
 20
136.286741
 30
0.0
 11
96.304044
 21
138.286741
 31
0.0
  0
LINE
  5
6D5
100
AcDbEntity
  8
0
 62
     0
100
AcDbLine
 10
94.52855
 20
136.286741
 30
0.0
 11
96.52855
 21
138.286741
 31
0.0
  0
LINE
  5
6D6
100
AcDbEntity
  8
0
 62
     0
100
AcDbLine
 10
94.753057
 20
136.286741
 30
0.0
 11
96.753057
 21
138.286741
 31
0.0
  0
LINE
  5
6D7
100
AcDbEntity
  8
0
 62
     0
100
AcDbLine
 10
94.977563
 20
136.286741
 30
0.0
 11
96.977563
 21
138.286741
 31
0.0
  0
LINE
  5
6D8
100
AcDbEntity
  8
0
 62
     0
100
AcDbLine
 10
95.202069
 20
136.286741
 30
0.0
 11
97.202069
 21
138.286741
 31
0.0
  0
LINE
  5
6D9
100
AcDbEntity
  8
0
 62
     0
100
AcDbLine
 10
95.426576
 20
136.286741
 30
0.0
 11
97.426576
 21
138.286741
 31
0.0
  0
LINE
  5
6DA
100
AcDbEntity
  8
0
 62
     0
100
AcDbLine
 10
95.651082
 20
136.286741
 30
0.0
 11
97.651082
 21
138.286741
 31
0.0
  0
LINE
  5
6DB
100
AcDbEntity
  8
0
 62
     0
100
AcDbLine
 10
95.875589
 20
136.286741
 30
0.0
 11
97.875589
 21
138.286741
 31
0.0
  0
LINE
  5
6DC
100
AcDbEntity
  8
0
 62
     0
100
AcDbLine
 10
96.100095
 20
136.286741
 30
0.0
 11
98.100095
 21
138.286741
 31
0.0
  0
LINE
  5
6DD
100
AcDbEntity
  8
0
 62
     0
100
AcDbLine
 10
96.324601
 20
136.286741
 30
0.0
 11
98.324601
 21
138.286741
 31
0.0
  0
LINE
  5
6DE
100
AcDbEntity
  8
0
 62
     0
100
AcDbLine
 10
96.549108
 20
136.286741
 30
0.0
 11
98.549108
 21
138.286741
 31
0.0
  0
LINE
  5
6DF
100
AcDbEntity
  8
0
 62
     0
100
AcDbLine
 10
96.773614
 20
136.286741
 30
0.0
 11
98.773614
 21
138.286741
 31
0.0
  0
LINE
  5
6E0
100
AcDbEntity
  8
0
 62
     0
100
AcDbLine
 10
96.998121
 20
136.286741
 30
0.0
 11
98.998121
 21
138.286741
 31
0.0
  0
LINE
  5
6E1
100
AcDbEntity
  8
0
 62
     0
100
AcDbLine
 10
97.222627
 20
136.286741
 30
0.0
 11
99.222627
 21
138.286741
 31
0.0
  0
LINE
  5
6E2
100
AcDbEntity
  8
0
 62
     0
100
AcDbLine
 10
97.447134
 20
136.286741
 30
0.0
 11
99.447134
 21
138.286741
 31
0.0
  0
LINE
  5
6E3
100
AcDbEntity
  8
0
 62
     0
100
AcDbLine
 10
97.67164
 20
136.286741
 30
0.0
 11
99.67164
 21
138.286741
 31
0.0
  0
LINE
  5
6E4
100
AcDbEntity
  8
0
 62
     0
100
AcDbLine
 10
97.896146
 20
136.286741
 30
0.0
 11
99.896146
 21
138.286741
 31
0.0
  0
LINE
  5
6E5
100
AcDbEntity
  8
0
 62
     0
100
AcDbLine
 10
98.120653
 20
136.286741
 30
0.0
 11
100.120653
 21
138.286741
 31
0.0
  0
LINE
  5
6E6
100
AcDbEntity
  8
0
 62
     0
100
AcDbLine
 10
98.345159
 20
136.286741
 30
0.0
 11
100.345159
 21
138.286741
 31
0.0
  0
LINE
  5
6E7
100
AcDbEntity
  8
0
 62
     0
100
AcDbLine
 10
98.569666
 20
136.286741
 30
0.0
 11
100.569666
 21
138.286741
 31
0.0
  0
LINE
  5
6E8
100
AcDbEntity
  8
0
 62
     0
100
AcDbLine
 10
98.794172
 20
136.286741
 30
0.0
 11
100.794172
 21
138.286741
 31
0.0
  0
LINE
  5
6E9
100
AcDbEntity
  8
0
 62
     0
100
AcDbLine
 10
99.018678
 20
136.286741
 30
0.0
 11
101.018678
 21
138.286741
 31
0.0
  0
LINE
  5
6EA
100
AcDbEntity
  8
0
 62
     0
100
AcDbLine
 10
99.243185
 20
136.286741
 30
0.0
 11
101.243185
 21
138.286741
 31
0.0
  0
LINE
  5
6EB
100
AcDbEntity
  8
0
 62
     0
100
AcDbLine
 10
99.467691
 20
136.286741
 30
0.0
 11
101.467691
 21
138.286741
 31
0.0
  0
LINE
  5
6EC
100
AcDbEntity
  8
0
 62
     0
100
AcDbLine
 10
99.692198
 20
136.286741
 30
0.0
 11
101.692198
 21
138.286741
 31
0.0
  0
LINE
  5
6ED
100
AcDbEntity
  8
0
 62
     0
100
AcDbLine
 10
99.916704
 20
136.286741
 30
0.0
 11
101.916704
 21
138.286741
 31
0.0
  0
LINE
  5
6EE
100
AcDbEntity
  8
0
 62
     0
100
AcDbLine
 10
100.14121
 20
136.286741
 30
0.0
 11
102.14121
 21
138.286741
 31
0.0
  0
LINE
  5
6EF
100
AcDbEntity
  8
0
 62
     0
100
AcDbLine
 10
100.365717
 20
136.286741
 30
0.0
 11
102.365717
 21
138.286741
 31
0.0
  0
LINE
  5
6F0
100
AcDbEntity
  8
0
 62
     0
100
AcDbLine
 10
100.590223
 20
136.286741
 30
0.0
 11
102.590223
 21
138.286741
 31
0.0
  0
LINE
  5
6F1
100
AcDbEntity
  8
0
 62
     0
100
AcDbLine
 10
121.559036
 20
157.255554
 30
0.0
 11
121.590223
 21
157.286741
 31
0.0
  0
LINE
  5
6F2
100
AcDbEntity
  8
0
 62
     0
100
AcDbLine
 10
100.81473
 20
136.286741
 30
0.0
 11
102.81473
 21
138.286741
 31
0.0
  0
LINE
  5
6F3
100
AcDbEntity
  8
0
 62
     0
100
AcDbLine
 10
121.738577
 20
157.210589
 30
0.0
 11
121.81473
 21
157.286741
 31
0.0
  0
LINE
  5
6F4
100
AcDbEntity
  8
0
 62
     0
100
AcDbLine
 10
101.039236
 20
136.286741
 30
0.0
 11
103.039236
 21
138.286741
 31
0.0
  0
LINE
  5
6F5
100
AcDbEntity
  8
0
 62
     0
100
AcDbLine
 10
121.918119
 20
157.165625
 30
0.0
 11
122.039236
 21
157.286741
 31
0.0
  0
LINE
  5
6F6
100
AcDbEntity
  8
0
 62
     0
100
AcDbLine
 10
101.263742
 20
136.286741
 30
0.0
 11
103.263742
 21
138.286741
 31
0.0
  0
LINE
  5
6F7
100
AcDbEntity
  8
0
 62
     0
100
AcDbLine
 10
122.097661
 20
157.12066
 30
0.0
 11
122.263742
 21
157.286741
 31
0.0
  0
LINE
  5
6F8
100
AcDbEntity
  8
0
 62
     0
100
AcDbLine
 10
101.488249
 20
136.286741
 30
0.0
 11
103.488249
 21
138.286741
 31
0.0
  0
LINE
  5
6F9
100
AcDbEntity
  8
0
 62
     0
100
AcDbLine
 10
122.277203
 20
157.075695
 30
0.0
 11
122.488249
 21
157.286741
 31
0.0
  0
LINE
  5
6FA
100
AcDbEntity
  8
0
 62
     0
100
AcDbLine
 10
101.712755
 20
136.286741
 30
0.0
 11
103.712755
 21
138.286741
 31
0.0
  0
LINE
  5
6FB
100
AcDbEntity
  8
0
 62
     0
100
AcDbLine
 10
122.456745
 20
157.030731
 30
0.0
 11
122.712755
 21
157.286741
 31
0.0
  0
LINE
  5
6FC
100
AcDbEntity
  8
0
 62
     0
100
AcDbLine
 10
101.937262
 20
136.286741
 30
0.0
 11
103.937262
 21
138.286741
 31
0.0
  0
LINE
  5
6FD
100
AcDbEntity
  8
0
 62
     0
100
AcDbLine
 10
122.636286
 20
156.985766
 30
0.0
 11
122.937262
 21
157.286741
 31
0.0
  0
LINE
  5
6FE
100
AcDbEntity
  8
0
 62
     0
100
AcDbLine
 10
102.161768
 20
136.286741
 30
0.0
 11
104.161768
 21
138.286741
 31
0.0
  0
LINE
  5
6FF
100
AcDbEntity
  8
0
 62
     0
100
AcDbLine
 10
122.815828
 20
156.940801
 30
0.0
 11
123.161768
 21
157.286741
 31
0.0
  0
LINE
  5
700
100
AcDbEntity
  8
0
 62
     0
100
AcDbLine
 10
102.386274
 20
136.286741
 30
0.0
 11
104.386274
 21
138.286741
 31
0.0
  0
LINE
  5
701
100
AcDbEntity
  8
0
 62
     0
100
AcDbLine
 10
122.99537
 20
156.895837
 30
0.0
 11
123.386274
 21
157.286741
 31
0.0
  0
LINE
  5
702
100
AcDbEntity
  8
0
 62
     0
100
AcDbLine
 10
102.610781
 20
136.286741
 30
0.0
 11
104.610781
 21
138.286741
 31
0.0
  0
LINE
  5
703
100
AcDbEntity
  8
0
 62
     0
100
AcDbLine
 10
123.174912
 20
156.850872
 30
0.0
 11
123.610781
 21
157.286741
 31
0.0
  0
LINE
  5
704
100
AcDbEntity
  8
0
 62
     0
100
AcDbLine
 10
102.835287
 20
136.286741
 30
0.0
 11
104.835287
 21
138.286741
 31
0.0
  0
LINE
  5
705
100
AcDbEntity
  8
0
 62
     0
100
AcDbLine
 10
123.354454
 20
156.805908
 30
0.0
 11
123.835287
 21
157.286741
 31
0.0
  0
LINE
  5
706
100
AcDbEntity
  8
0
 62
     0
100
AcDbLine
 10
103.059794
 20
136.286741
 30
0.0
 11
105.059794
 21
138.286741
 31
0.0
  0
LINE
  5
707
100
AcDbEntity
  8
0
 62
     0
100
AcDbLine
 10
123.533995
 20
156.760943
 30
0.0
 11
124.059794
 21
157.286741
 31
0.0
  0
LINE
  5
708
100
AcDbEntity
  8
0
 62
     0
100
AcDbLine
 10
103.2843
 20
136.286741
 30
0.0
 11
105.2843
 21
138.286741
 31
0.0
  0
LINE
  5
709
100
AcDbEntity
  8
0
 62
     0
100
AcDbLine
 10
123.713537
 20
156.715978
 30
0.0
 11
124.2843
 21
157.286741
 31
0.0
  0
LINE
  5
70A
100
AcDbEntity
  8
0
 62
     0
100
AcDbLine
 10
103.508806
 20
136.286741
 30
0.0
 11
105.413379
 21
138.191314
 31
0.0
  0
LINE
  5
70B
100
AcDbEntity
  8
0
 62
     0
100
AcDbLine
 10
123.893079
 20
156.671014
 30
0.0
 11
124.508806
 21
157.286741
 31
0.0
  0
LINE
  5
70C
100
AcDbEntity
  8
0
 62
     0
100
AcDbLine
 10
105.413379
 20
138.191314
 30
0.0
 11
105.508806
 21
138.286741
 31
0.0
  0
LINE
  5
70D
100
AcDbEntity
  8
0
 62
     0
100
AcDbLine
 10
103.733313
 20
136.286741
 30
0.0
 11
105.413379
 21
137.966807
 31
0.0
  0
LINE
  5
70E
100
AcDbEntity
  8
0
 62
     0
100
AcDbLine
 10
124.072621
 20
156.626049
 30
0.0
 11
124.733313
 21
157.286741
 31
0.0
  0
LINE
  5
70F
100
AcDbEntity
  8
0
 62
     0
100
AcDbLine
 10
105.413379
 20
137.966807
 30
0.0
 11
105.733313
 21
138.286741
 31
0.0
  0
LINE
  5
710
100
AcDbEntity
  8
0
 62
     0
100
AcDbLine
 10
103.957819
 20
136.286741
 30
0.0
 11
105.413379
 21
137.742301
 31
0.0
  0
LINE
  5
711
100
AcDbEntity
  8
0
 62
     0
100
AcDbLine
 10
124.252163
 20
156.581085
 30
0.0
 11
124.957819
 21
157.286741
 31
0.0
  0
LINE
  5
712
100
AcDbEntity
  8
0
 62
     0
100
AcDbLine
 10
105.413379
 20
137.742301
 30
0.0
 11
105.957819
 21
138.286741
 31
0.0
  0
LINE
  5
713
100
AcDbEntity
  8
0
 62
     0
100
AcDbLine
 10
104.182326
 20
136.286741
 30
0.0
 11
105.413379
 21
137.517794
 31
0.0
  0
LINE
  5
714
100
AcDbEntity
  8
0
 62
     0
100
AcDbLine
 10
124.431704
 20
156.53612
 30
0.0
 11
125.182326
 21
157.286741
 31
0.0
  0
LINE
  5
715
100
AcDbEntity
  8
0
 62
     0
100
AcDbLine
 10
105.413379
 20
137.517794
 30
0.0
 11
106.182326
 21
138.286741
 31
0.0
  0
LINE
  5
716
100
AcDbEntity
  8
0
 62
     0
100
AcDbLine
 10
104.406832
 20
136.286741
 30
0.0
 11
105.413379
 21
137.293288
 31
0.0
  0
LINE
  5
717
100
AcDbEntity
  8
0
 62
     0
100
AcDbLine
 10
124.611246
 20
156.491155
 30
0.0
 11
125.406832
 21
157.286741
 31
0.0
  0
LINE
  5
718
100
AcDbEntity
  8
0
 62
     0
100
AcDbLine
 10
105.413379
 20
137.293288
 30
0.0
 11
106.406832
 21
138.286741
 31
0.0
  0
LINE
  5
719
100
AcDbEntity
  8
0
 62
     0
100
AcDbLine
 10
104.631338
 20
136.286741
 30
0.0
 11
105.413379
 21
137.068782
 31
0.0
  0
LINE
  5
71A
100
AcDbEntity
  8
0
 62
     0
100
AcDbLine
 10
124.790788
 20
156.446191
 30
0.0
 11
125.631338
 21
157.286741
 31
0.0
  0
LINE
  5
71B
100
AcDbEntity
  8
0
 62
     0
100
AcDbLine
 10
105.413379
 20
137.068782
 30
0.0
 11
106.631338
 21
138.286741
 31
0.0
  0
LINE
  5
71C
100
AcDbEntity
  8
0
 62
     0
100
AcDbLine
 10
104.855845
 20
136.286741
 30
0.0
 11
105.413379
 21
136.844275
 31
0.0
  0
LINE
  5
71D
100
AcDbEntity
  8
0
 62
     0
100
AcDbLine
 10
124.97033
 20
156.401226
 30
0.0
 11
125.855845
 21
157.286741
 31
0.0
  0
LINE
  5
71E
100
AcDbEntity
  8
0
 62
     0
100
AcDbLine
 10
105.413379
 20
136.844275
 30
0.0
 11
106.855845
 21
138.286741
 31
0.0
  0
LINE
  5
71F
100
AcDbEntity
  8
0
 62
     0
100
AcDbLine
 10
105.080351
 20
136.286741
 30
0.0
 11
105.413379
 21
136.619769
 31
0.0
  0
LINE
  5
720
100
AcDbEntity
  8
0
 62
     0
100
AcDbLine
 10
125.149872
 20
156.356262
 30
0.0
 11
126.080351
 21
157.286741
 31
0.0
  0
LINE
  5
721
100
AcDbEntity
  8
0
 62
     0
100
AcDbLine
 10
105.413379
 20
136.619769
 30
0.0
 11
107.080351
 21
138.286741
 31
0.0
  0
LINE
  5
722
100
AcDbEntity
  8
0
 62
     0
100
AcDbLine
 10
105.304858
 20
136.286741
 30
0.0
 11
105.413379
 21
136.395262
 31
0.0
  0
LINE
  5
723
100
AcDbEntity
  8
0
 62
     0
100
AcDbLine
 10
125.329413
 20
156.311297
 30
0.0
 11
126.304858
 21
157.286741
 31
0.0
  0
LINE
  5
724
100
AcDbEntity
  8
0
 62
     0
100
AcDbLine
 10
105.413379
 20
136.395262
 30
0.0
 11
107.304858
 21
138.286741
 31
0.0
  0
LINE
  5
725
100
AcDbEntity
  8
0
 62
     0
100
AcDbLine
 10
105.529364
 20
136.286741
 30
0.0
 11
107.529364
 21
138.286741
 31
0.0
  0
LINE
  5
726
100
AcDbEntity
  8
0
 62
     0
100
AcDbLine
 10
125.508955
 20
156.266332
 30
0.0
 11
126.529364
 21
157.286741
 31
0.0
  0
LINE
  5
727
100
AcDbEntity
  8
0
 62
     0
100
AcDbLine
 10
105.75387
 20
136.286741
 30
0.0
 11
107.75387
 21
138.286741
 31
0.0
  0
LINE
  5
728
100
AcDbEntity
  8
0
 62
     0
100
AcDbLine
 10
125.688497
 20
156.221368
 30
0.0
 11
126.75387
 21
157.286741
 31
0.0
  0
LINE
  5
729
100
AcDbEntity
  8
0
 62
     0
100
AcDbLine
 10
105.978377
 20
136.286741
 30
0.0
 11
107.978377
 21
138.286741
 31
0.0
  0
LINE
  5
72A
100
AcDbEntity
  8
0
 62
     0
100
AcDbLine
 10
125.868039
 20
156.176403
 30
0.0
 11
126.978377
 21
157.286741
 31
0.0
  0
LINE
  5
72B
100
AcDbEntity
  8
0
 62
     0
100
AcDbLine
 10
106.202883
 20
136.286741
 30
0.0
 11
108.202883
 21
138.286741
 31
0.0
  0
LINE
  5
72C
100
AcDbEntity
  8
0
 62
     0
100
AcDbLine
 10
126.04758
 20
156.131438
 30
0.0
 11
127.202883
 21
157.286741
 31
0.0
  0
LINE
  5
72D
100
AcDbEntity
  8
0
 62
     0
100
AcDbLine
 10
106.42739
 20
136.286741
 30
0.0
 11
108.42739
 21
138.286741
 31
0.0
  0
LINE
  5
72E
100
AcDbEntity
  8
0
 62
     0
100
AcDbLine
 10
126.227122
 20
156.086474
 30
0.0
 11
127.42739
 21
157.286741
 31
0.0
  0
LINE
  5
72F
100
AcDbEntity
  8
0
 62
     0
100
AcDbLine
 10
106.651896
 20
136.286741
 30
0.0
 11
108.651896
 21
138.286741
 31
0.0
  0
LINE
  5
730
100
AcDbEntity
  8
0
 62
     0
100
AcDbLine
 10
126.406664
 20
156.041509
 30
0.0
 11
127.651896
 21
157.286741
 31
0.0
  0
LINE
  5
731
100
AcDbEntity
  8
0
 62
     0
100
AcDbLine
 10
106.876402
 20
136.286741
 30
0.0
 11
108.876402
 21
138.286741
 31
0.0
  0
LINE
  5
732
100
AcDbEntity
  8
0
 62
     0
100
AcDbLine
 10
126.586206
 20
155.996545
 30
0.0
 11
127.876402
 21
157.286741
 31
0.0
  0
LINE
  5
733
100
AcDbEntity
  8
0
 62
     0
100
AcDbLine
 10
107.100909
 20
136.286741
 30
0.0
 11
109.100909
 21
138.286741
 31
0.0
  0
LINE
  5
734
100
AcDbEntity
  8
0
 62
     0
100
AcDbLine
 10
126.765748
 20
155.95158
 30
0.0
 11
128.100909
 21
157.286741
 31
0.0
  0
LINE
  5
735
100
AcDbEntity
  8
0
 62
     0
100
AcDbLine
 10
107.325415
 20
136.286741
 30
0.0
 11
109.325415
 21
138.286741
 31
0.0
  0
LINE
  5
736
100
AcDbEntity
  8
0
 62
     0
100
AcDbLine
 10
126.945289
 20
155.906615
 30
0.0
 11
128.325415
 21
157.286741
 31
0.0
  0
LINE
  5
737
100
AcDbEntity
  8
0
 62
     0
100
AcDbLine
 10
107.549922
 20
136.286741
 30
0.0
 11
109.549922
 21
138.286741
 31
0.0
  0
LINE
  5
738
100
AcDbEntity
  8
0
 62
     0
100
AcDbLine
 10
127.124831
 20
155.861651
 30
0.0
 11
128.549922
 21
157.286741
 31
0.0
  0
LINE
  5
739
100
AcDbEntity
  8
0
 62
     0
100
AcDbLine
 10
107.774428
 20
136.286741
 30
0.0
 11
109.774428
 21
138.286741
 31
0.0
  0
LINE
  5
73A
100
AcDbEntity
  8
0
 62
     0
100
AcDbLine
 10
127.304373
 20
155.816686
 30
0.0
 11
128.774428
 21
157.286741
 31
0.0
  0
LINE
  5
73B
100
AcDbEntity
  8
0
 62
     0
100
AcDbLine
 10
107.998934
 20
136.286741
 30
0.0
 11
109.998934
 21
138.286741
 31
0.0
  0
LINE
  5
73C
100
AcDbEntity
  8
0
 62
     0
100
AcDbLine
 10
127.483915
 20
155.771722
 30
0.0
 11
128.998934
 21
157.286741
 31
0.0
  0
LINE
  5
73D
100
AcDbEntity
  8
0
 62
     0
100
AcDbLine
 10
108.223441
 20
136.286741
 30
0.0
 11
110.223441
 21
138.286741
 31
0.0
  0
LINE
  5
73E
100
AcDbEntity
  8
0
 62
     0
100
AcDbLine
 10
127.663457
 20
155.726757
 30
0.0
 11
129.223441
 21
157.286741
 31
0.0
  0
LINE
  5
73F
100
AcDbEntity
  8
0
 62
     0
100
AcDbLine
 10
108.447947
 20
136.286741
 30
0.0
 11
110.447947
 21
138.286741
 31
0.0
  0
LINE
  5
740
100
AcDbEntity
  8
0
 62
     0
100
AcDbLine
 10
127.842998
 20
155.681792
 30
0.0
 11
129.447947
 21
157.286741
 31
0.0
  0
LINE
  5
741
100
AcDbEntity
  8
0
 62
     0
100
AcDbLine
 10
108.672454
 20
136.286741
 30
0.0
 11
110.672454
 21
138.286741
 31
0.0
  0
LINE
  5
742
100
AcDbEntity
  8
0
 62
     0
100
AcDbLine
 10
128.02254
 20
155.636828
 30
0.0
 11
129.672454
 21
157.286741
 31
0.0
  0
LINE
  5
743
100
AcDbEntity
  8
0
 62
     0
100
AcDbLine
 10
108.89696
 20
136.286741
 30
0.0
 11
110.89696
 21
138.286741
 31
0.0
  0
LINE
  5
744
100
AcDbEntity
  8
0
 62
     0
100
AcDbLine
 10
128.202082
 20
155.591863
 30
0.0
 11
129.89696
 21
157.286741
 31
0.0
  0
LINE
  5
745
100
AcDbEntity
  8
0
 62
     0
100
AcDbLine
 10
109.121466
 20
136.286741
 30
0.0
 11
111.121466
 21
138.286741
 31
0.0
  0
LINE
  5
746
100
AcDbEntity
  8
0
 62
     0
100
AcDbLine
 10
128.381624
 20
155.546899
 30
0.0
 11
130.121466
 21
157.286741
 31
0.0
  0
LINE
  5
747
100
AcDbEntity
  8
0
 62
     0
100
AcDbLine
 10
109.345973
 20
136.286741
 30
0.0
 11
111.345973
 21
138.286741
 31
0.0
  0
LINE
  5
748
100
AcDbEntity
  8
0
 62
     0
100
AcDbLine
 10
128.561166
 20
155.501934
 30
0.0
 11
130.345973
 21
157.286741
 31
0.0
  0
LINE
  5
749
100
AcDbEntity
  8
0
 62
     0
100
AcDbLine
 10
109.570479
 20
136.286741
 30
0.0
 11
111.570479
 21
138.286741
 31
0.0
  0
LINE
  5
74A
100
AcDbEntity
  8
0
 62
     0
100
AcDbLine
 10
128.740707
 20
155.456969
 30
0.0
 11
130.570479
 21
157.286741
 31
0.0
  0
LINE
  5
74B
100
AcDbEntity
  8
0
 62
     0
100
AcDbLine
 10
109.794986
 20
136.286741
 30
0.0
 11
111.794986
 21
138.286741
 31
0.0
  0
LINE
  5
74C
100
AcDbEntity
  8
0
 62
     0
100
AcDbLine
 10
128.920249
 20
155.412005
 30
0.0
 11
130.794986
 21
157.286741
 31
0.0
  0
LINE
  5
74D
100
AcDbEntity
  8
0
 62
     0
100
AcDbLine
 10
110.019492
 20
136.286741
 30
0.0
 11
112.019492
 21
138.286741
 31
0.0
  0
LINE
  5
74E
100
AcDbEntity
  8
0
 62
     0
100
AcDbLine
 10
129.099791
 20
155.36704
 30
0.0
 11
131.019492
 21
157.286741
 31
0.0
  0
LINE
  5
74F
100
AcDbEntity
  8
0
 62
     0
100
AcDbLine
 10
110.243998
 20
136.286741
 30
0.0
 11
112.243998
 21
138.286741
 31
0.0
  0
LINE
  5
750
100
AcDbEntity
  8
0
 62
     0
100
AcDbLine
 10
129.279333
 20
155.322075
 30
0.0
 11
131.243998
 21
157.286741
 31
0.0
  0
LINE
  5
751
100
AcDbEntity
  8
0
 62
     0
100
AcDbLine
 10
110.468505
 20
136.286741
 30
0.0
 11
112.468505
 21
138.286741
 31
0.0
  0
LINE
  5
752
100
AcDbEntity
  8
0
 62
     0
100
AcDbLine
 10
129.458875
 20
155.277111
 30
0.0
 11
131.468505
 21
157.286741
 31
0.0
  0
LINE
  5
753
100
AcDbEntity
  8
0
 62
     0
100
AcDbLine
 10
110.693011
 20
136.286741
 30
0.0
 11
112.693011
 21
138.286741
 31
0.0
  0
LINE
  5
754
100
AcDbEntity
  8
0
 62
     0
100
AcDbLine
 10
129.638416
 20
155.232146
 30
0.0
 11
131.693011
 21
157.286741
 31
0.0
  0
LINE
  5
755
100
AcDbEntity
  8
0
 62
     0
100
AcDbLine
 10
110.917518
 20
136.286741
 30
0.0
 11
112.917518
 21
138.286741
 31
0.0
  0
LINE
  5
756
100
AcDbEntity
  8
0
 62
     0
100
AcDbLine
 10
129.817958
 20
155.187182
 30
0.0
 11
131.917518
 21
157.286741
 31
0.0
  0
LINE
  5
757
100
AcDbEntity
  8
0
 62
     0
100
AcDbLine
 10
111.142024
 20
136.286741
 30
0.0
 11
113.142024
 21
138.286741
 31
0.0
  0
LINE
  5
758
100
AcDbEntity
  8
0
 62
     0
100
AcDbLine
 10
129.9975
 20
155.142217
 30
0.0
 11
132.142024
 21
157.286741
 31
0.0
  0
LINE
  5
759
100
AcDbEntity
  8
0
 62
     0
100
AcDbLine
 10
111.36653
 20
136.286741
 30
0.0
 11
113.36653
 21
138.286741
 31
0.0
  0
LINE
  5
75A
100
AcDbEntity
  8
0
 62
     0
100
AcDbLine
 10
130.177042
 20
155.097252
 30
0.0
 11
132.36653
 21
157.286741
 31
0.0
  0
LINE
  5
75B
100
AcDbEntity
  8
0
 62
     0
100
AcDbLine
 10
111.591037
 20
136.286741
 30
0.0
 11
113.591037
 21
138.286741
 31
0.0
  0
LINE
  5
75C
100
AcDbEntity
  8
0
 62
     0
100
AcDbLine
 10
130.356583
 20
155.052288
 30
0.0
 11
132.586063
 21
157.281767
 31
0.0
  0
LINE
  5
75D
100
AcDbEntity
  8
0
 62
     0
100
AcDbLine
 10
111.815543
 20
136.286741
 30
0.0
 11
113.815543
 21
138.286741
 31
0.0
  0
LINE
  5
75E
100
AcDbEntity
  8
0
 62
     0
100
AcDbLine
 10
130.536125
 20
155.007323
 30
0.0
 11
132.791605
 21
157.262803
 31
0.0
  0
LINE
  5
75F
100
AcDbEntity
  8
0
 62
     0
100
AcDbLine
 10
112.04005
 20
136.286741
 30
0.0
 11
114.04005
 21
138.286741
 31
0.0
  0
LINE
  5
760
100
AcDbEntity
  8
0
 62
     0
100
AcDbLine
 10
130.715667
 20
154.962359
 30
0.0
 11
132.985073
 21
157.231765
 31
0.0
  0
LINE
  5
761
100
AcDbEntity
  8
0
 62
     0
100
AcDbLine
 10
112.264556
 20
136.286741
 30
0.0
 11
114.264556
 21
138.286741
 31
0.0
  0
LINE
  5
762
100
AcDbEntity
  8
0
 62
     0
100
AcDbLine
 10
130.895209
 20
154.917394
 30
0.0
 11
133.168077
 21
157.190262
 31
0.0
  0
LINE
  5
763
100
AcDbEntity
  8
0
 62
     0
100
AcDbLine
 10
112.489063
 20
136.286741
 30
0.0
 11
114.489063
 21
138.286741
 31
0.0
  0
LINE
  5
764
100
AcDbEntity
  8
0
 62
     0
100
AcDbLine
 10
131.074751
 20
154.872429
 30
0.0
 11
133.34179
 21
157.139469
 31
0.0
  0
LINE
  5
765
100
AcDbEntity
  8
0
 62
     0
100
AcDbLine
 10
112.713569
 20
136.286741
 30
0.0
 11
114.713569
 21
138.286741
 31
0.0
  0
LINE
  5
766
100
AcDbEntity
  8
0
 62
     0
100
AcDbLine
 10
131.254292
 20
154.827465
 30
0.0
 11
133.507095
 21
157.080267
 31
0.0
  0
LINE
  5
767
100
AcDbEntity
  8
0
 62
     0
100
AcDbLine
 10
112.938075
 20
136.286741
 30
0.0
 11
114.938075
 21
138.286741
 31
0.0
  0
LINE
  5
768
100
AcDbEntity
  8
0
 62
     0
100
AcDbLine
 10
131.433834
 20
154.7825
 30
0.0
 11
133.664664
 21
157.01333
 31
0.0
  0
LINE
  5
769
100
AcDbEntity
  8
0
 62
     0
100
AcDbLine
 10
113.162582
 20
136.286741
 30
0.0
 11
115.162582
 21
138.286741
 31
0.0
  0
LINE
  5
76A
100
AcDbEntity
  8
0
 62
     0
100
AcDbLine
 10
131.613376
 20
154.737536
 30
0.0
 11
133.815017
 21
156.939176
 31
0.0
  0
LINE
  5
76B
100
AcDbEntity
  8
0
 62
     0
100
AcDbLine
 10
113.387088
 20
136.286741
 30
0.0
 11
115.387088
 21
138.286741
 31
0.0
  0
LINE
  5
76C
100
AcDbEntity
  8
0
 62
     0
100
AcDbLine
 10
131.792918
 20
154.692571
 30
0.0
 11
133.958554
 21
156.858207
 31
0.0
  0
LINE
  5
76D
100
AcDbEntity
  8
0
 62
     0
100
AcDbLine
 10
113.611595
 20
136.286741
 30
0.0
 11
115.611595
 21
138.286741
 31
0.0
  0
LINE
  5
76E
100
AcDbEntity
  8
0
 62
     0
100
AcDbLine
 10
131.97246
 20
154.647606
 30
0.0
 11
134.095582
 21
156.770729
 31
0.0
  0
LINE
  5
76F
100
AcDbEntity
  8
0
 62
     0
100
AcDbLine
 10
113.836101
 20
136.286741
 30
0.0
 11
115.836101
 21
138.286741
 31
0.0
  0
LINE
  5
770
100
AcDbEntity
  8
0
 62
     0
100
AcDbLine
 10
132.152001
 20
154.602642
 30
0.0
 11
134.226332
 21
156.676972
 31
0.0
  0
LINE
  5
771
100
AcDbEntity
  8
0
 62
     0
100
AcDbLine
 10
114.060607
 20
136.286741
 30
0.0
 11
116.060607
 21
138.286741
 31
0.0
  0
LINE
  5
772
100
AcDbEntity
  8
0
 62
     0
100
AcDbLine
 10
132.331543
 20
154.557677
 30
0.0
 11
134.350968
 21
156.577101
 31
0.0
  0
LINE
  5
773
100
AcDbEntity
  8
0
 62
     0
100
AcDbLine
 10
114.285114
 20
136.286741
 30
0.0
 11
116.285114
 21
138.286741
 31
0.0
  0
LINE
  5
774
100
AcDbEntity
  8
0
 62
     0
100
AcDbLine
 10
132.511085
 20
154.512713
 30
0.0
 11
134.469597
 21
156.471224
 31
0.0
  0
LINE
  5
775
100
AcDbEntity
  8
0
 62
     0
100
AcDbLine
 10
114.50962
 20
136.286741
 30
0.0
 11
116.50962
 21
138.286741
 31
0.0
  0
LINE
  5
776
100
AcDbEntity
  8
0
 62
     0
100
AcDbLine
 10
132.690627
 20
154.467748
 30
0.0
 11
134.582274
 21
156.359395
 31
0.0
  0
LINE
  5
777
100
AcDbEntity
  8
0
 62
     0
100
AcDbLine
 10
114.734127
 20
136.286741
 30
0.0
 11
116.734127
 21
138.286741
 31
0.0
  0
LINE
  5
778
100
AcDbEntity
  8
0
 62
     0
100
AcDbLine
 10
132.870169
 20
154.422783
 30
0.0
 11
134.689002
 21
156.241617
 31
0.0
  0
LINE
  5
779
100
AcDbEntity
  8
0
 62
     0
100
AcDbLine
 10
114.958633
 20
136.286741
 30
0.0
 11
116.958633
 21
138.286741
 31
0.0
  0
LINE
  5
77A
100
AcDbEntity
  8
0
 62
     0
100
AcDbLine
 10
133.04971
 20
154.377819
 30
0.0
 11
134.789735
 21
156.117843
 31
0.0
  0
LINE
  5
77B
100
AcDbEntity
  8
0
 62
     0
100
AcDbLine
 10
115.183139
 20
136.286741
 30
0.0
 11
117.183139
 21
138.286741
 31
0.0
  0
LINE
  5
77C
100
AcDbEntity
  8
0
 62
     0
100
AcDbLine
 10
133.229252
 20
154.332854
 30
0.0
 11
134.884372
 21
155.987974
 31
0.0
  0
LINE
  5
77D
100
AcDbEntity
  8
0
 62
     0
100
AcDbLine
 10
115.407646
 20
136.286741
 30
0.0
 11
117.407646
 21
138.286741
 31
0.0
  0
LINE
  5
77E
100
AcDbEntity
  8
0
 62
     0
100
AcDbLine
 10
133.408794
 20
154.287889
 30
0.0
 11
134.972758
 21
155.851854
 31
0.0
  0
LINE
  5
77F
100
AcDbEntity
  8
0
 62
     0
100
AcDbLine
 10
115.632152
 20
136.286741
 30
0.0
 11
117.632152
 21
138.286741
 31
0.0
  0
LINE
  5
780
100
AcDbEntity
  8
0
 62
     0
100
AcDbLine
 10
133.413379
 20
154.067968
 30
0.0
 11
135.054673
 21
155.709262
 31
0.0
  0
LINE
  5
781
100
AcDbEntity
  8
0
 62
     0
100
AcDbLine
 10
115.856659
 20
136.286741
 30
0.0
 11
117.856659
 21
138.286741
 31
0.0
  0
LINE
  5
782
100
AcDbEntity
  8
0
 62
     0
100
AcDbLine
 10
133.413379
 20
153.843461
 30
0.0
 11
135.129821
 21
155.559904
 31
0.0
  0
LINE
  5
783
100
AcDbEntity
  8
0
 62
     0
100
AcDbLine
 10
116.081165
 20
136.286741
 30
0.0
 11
118.081165
 21
138.286741
 31
0.0
  0
LINE
  5
784
100
AcDbEntity
  8
0
 62
     0
100
AcDbLine
 10
133.413379
 20
153.618955
 30
0.0
 11
135.197816
 21
155.403392
 31
0.0
  0
LINE
  5
785
100
AcDbEntity
  8
0
 62
     0
100
AcDbLine
 10
116.305671
 20
136.286741
 30
0.0
 11
118.305671
 21
138.286741
 31
0.0
  0
LINE
  5
786
100
AcDbEntity
  8
0
 62
     0
100
AcDbLine
 10
133.413379
 20
153.394449
 30
0.0
 11
135.258158
 21
155.239228
 31
0.0
  0
LINE
  5
787
100
AcDbEntity
  8
0
 62
     0
100
AcDbLine
 10
116.530178
 20
136.286741
 30
0.0
 11
118.530178
 21
138.286741
 31
0.0
  0
LINE
  5
788
100
AcDbEntity
  8
0
 62
     0
100
AcDbLine
 10
133.413379
 20
153.169942
 30
0.0
 11
135.310199
 21
155.066762
 31
0.0
  0
LINE
  5
789
100
AcDbEntity
  8
0
 62
     0
100
AcDbLine
 10
116.754684
 20
136.286741
 30
0.0
 11
118.754684
 21
138.286741
 31
0.0
  0
LINE
  5
78A
100
AcDbEntity
  8
0
 62
     0
100
AcDbLine
 10
133.413379
 20
152.945436
 30
0.0
 11
135.353091
 21
154.885148
 31
0.0
  0
LINE
  5
78B
100
AcDbEntity
  8
0
 62
     0
100
AcDbLine
 10
116.979191
 20
136.286741
 30
0.0
 11
118.979191
 21
138.286741
 31
0.0
  0
LINE
  5
78C
100
AcDbEntity
  8
0
 62
     0
100
AcDbLine
 10
133.413379
 20
152.720929
 30
0.0
 11
135.385708
 21
154.693259
 31
0.0
  0
LINE
  5
78D
100
AcDbEntity
  8
0
 62
     0
100
AcDbLine
 10
117.203697
 20
136.286741
 30
0.0
 11
119.203697
 21
138.286741
 31
0.0
  0
LINE
  5
78E
100
AcDbEntity
  8
0
 62
     0
100
AcDbLine
 10
133.413379
 20
152.496423
 30
0.0
 11
135.406515
 21
154.489559
 31
0.0
  0
LINE
  5
78F
100
AcDbEntity
  8
0
 62
     0
100
AcDbLine
 10
117.428203
 20
136.286741
 30
0.0
 11
119.428203
 21
138.286741
 31
0.0
  0
LINE
  5
790
100
AcDbEntity
  8
0
 62
     0
100
AcDbLine
 10
133.413379
 20
152.271917
 30
0.0
 11
135.413379
 21
154.271917
 31
0.0
  0
LINE
  5
791
100
AcDbEntity
  8
0
 62
     0
100
AcDbLine
 10
117.65271
 20
136.286741
 30
0.0
 11
119.65271
 21
138.286741
 31
0.0
  0
LINE
  5
792
100
AcDbEntity
  8
0
 62
     0
100
AcDbLine
 10
133.413379
 20
152.04741
 30
0.0
 11
135.413379
 21
154.04741
 31
0.0
  0
LINE
  5
793
100
AcDbEntity
  8
0
 62
     0
100
AcDbLine
 10
117.877216
 20
136.286741
 30
0.0
 11
119.877216
 21
138.286741
 31
0.0
  0
LINE
  5
794
100
AcDbEntity
  8
0
 62
     0
100
AcDbLine
 10
133.413379
 20
151.822904
 30
0.0
 11
135.413379
 21
153.822904
 31
0.0
  0
LINE
  5
795
100
AcDbEntity
  8
0
 62
     0
100
AcDbLine
 10
118.101723
 20
136.286741
 30
0.0
 11
120.101723
 21
138.286741
 31
0.0
  0
LINE
  5
796
100
AcDbEntity
  8
0
 62
     0
100
AcDbLine
 10
133.413379
 20
151.598397
 30
0.0
 11
135.413379
 21
153.598397
 31
0.0
  0
LINE
  5
797
100
AcDbEntity
  8
0
 62
     0
100
AcDbLine
 10
118.326229
 20
136.286741
 30
0.0
 11
120.326229
 21
138.286741
 31
0.0
  0
LINE
  5
798
100
AcDbEntity
  8
0
 62
     0
100
AcDbLine
 10
133.413379
 20
151.373891
 30
0.0
 11
135.413379
 21
153.373891
 31
0.0
  0
LINE
  5
799
100
AcDbEntity
  8
0
 62
     0
100
AcDbLine
 10
118.550735
 20
136.286741
 30
0.0
 11
120.550735
 21
138.286741
 31
0.0
  0
LINE
  5
79A
100
AcDbEntity
  8
0
 62
     0
100
AcDbLine
 10
133.413379
 20
151.149385
 30
0.0
 11
135.413379
 21
153.149385
 31
0.0
  0
LINE
  5
79B
100
AcDbEntity
  8
0
 62
     0
100
AcDbLine
 10
118.775242
 20
136.286741
 30
0.0
 11
120.775242
 21
138.286741
 31
0.0
  0
LINE
  5
79C
100
AcDbEntity
  8
0
 62
     0
100
AcDbLine
 10
133.413379
 20
150.924878
 30
0.0
 11
135.413379
 21
152.924878
 31
0.0
  0
LINE
  5
79D
100
AcDbEntity
  8
0
 62
     0
100
AcDbLine
 10
118.999748
 20
136.286741
 30
0.0
 11
120.999748
 21
138.286741
 31
0.0
  0
LINE
  5
79E
100
AcDbEntity
  8
0
 62
     0
100
AcDbLine
 10
133.413379
 20
150.700372
 30
0.0
 11
135.413379
 21
152.700372
 31
0.0
  0
LINE
  5
79F
100
AcDbEntity
  8
0
 62
     0
100
AcDbLine
 10
119.224255
 20
136.286741
 30
0.0
 11
121.224255
 21
138.286741
 31
0.0
  0
LINE
  5
7A0
100
AcDbEntity
  8
0
 62
     0
100
AcDbLine
 10
133.413379
 20
150.475865
 30
0.0
 11
135.413379
 21
152.475865
 31
0.0
  0
LINE
  5
7A1
100
AcDbEntity
  8
0
 62
     0
100
AcDbLine
 10
119.448761
 20
136.286741
 30
0.0
 11
121.448761
 21
138.286741
 31
0.0
  0
LINE
  5
7A2
100
AcDbEntity
  8
0
 62
     0
100
AcDbLine
 10
133.413379
 20
150.251359
 30
0.0
 11
135.413379
 21
152.251359
 31
0.0
  0
LINE
  5
7A3
100
AcDbEntity
  8
0
 62
     0
100
AcDbLine
 10
119.673267
 20
136.286741
 30
0.0
 11
121.673267
 21
138.286741
 31
0.0
  0
LINE
  5
7A4
100
AcDbEntity
  8
0
 62
     0
100
AcDbLine
 10
133.413379
 20
150.026853
 30
0.0
 11
135.413379
 21
152.026853
 31
0.0
  0
LINE
  5
7A5
100
AcDbEntity
  8
0
 62
     0
100
AcDbLine
 10
119.897774
 20
136.286741
 30
0.0
 11
121.897774
 21
138.286741
 31
0.0
  0
LINE
  5
7A6
100
AcDbEntity
  8
0
 62
     0
100
AcDbLine
 10
133.413379
 20
149.802346
 30
0.0
 11
135.413379
 21
151.802346
 31
0.0
  0
LINE
  5
7A7
100
AcDbEntity
  8
0
 62
     0
100
AcDbLine
 10
120.12228
 20
136.286741
 30
0.0
 11
122.12228
 21
138.286741
 31
0.0
  0
LINE
  5
7A8
100
AcDbEntity
  8
0
 62
     0
100
AcDbLine
 10
133.413379
 20
149.57784
 30
0.0
 11
135.413379
 21
151.57784
 31
0.0
  0
LINE
  5
7A9
100
AcDbEntity
  8
0
 62
     0
100
AcDbLine
 10
120.346787
 20
136.286741
 30
0.0
 11
122.346787
 21
138.286741
 31
0.0
  0
LINE
  5
7AA
100
AcDbEntity
  8
0
 62
     0
100
AcDbLine
 10
133.413379
 20
149.353333
 30
0.0
 11
135.413379
 21
151.353333
 31
0.0
  0
LINE
  5
7AB
100
AcDbEntity
  8
0
 62
     0
100
AcDbLine
 10
120.571293
 20
136.286741
 30
0.0
 11
122.571293
 21
138.286741
 31
0.0
  0
LINE
  5
7AC
100
AcDbEntity
  8
0
 62
     0
100
AcDbLine
 10
133.413379
 20
149.128827
 30
0.0
 11
135.413379
 21
151.128827
 31
0.0
  0
LINE
  5
7AD
100
AcDbEntity
  8
0
 62
     0
100
AcDbLine
 10
120.795799
 20
136.286741
 30
0.0
 11
122.795799
 21
138.286741
 31
0.0
  0
LINE
  5
7AE
100
AcDbEntity
  8
0
 62
     0
100
AcDbLine
 10
133.413379
 20
148.904321
 30
0.0
 11
135.413379
 21
150.904321
 31
0.0
  0
LINE
  5
7AF
100
AcDbEntity
  8
0
 62
     0
100
AcDbLine
 10
121.020306
 20
136.286741
 30
0.0
 11
123.020306
 21
138.286741
 31
0.0
  0
LINE
  5
7B0
100
AcDbEntity
  8
0
 62
     0
100
AcDbLine
 10
133.413379
 20
148.679814
 30
0.0
 11
135.413379
 21
150.679814
 31
0.0
  0
LINE
  5
7B1
100
AcDbEntity
  8
0
 62
     0
100
AcDbLine
 10
121.244812
 20
136.286741
 30
0.0
 11
123.244812
 21
138.286741
 31
0.0
  0
LINE
  5
7B2
100
AcDbEntity
  8
0
 62
     0
100
AcDbLine
 10
133.413379
 20
148.455308
 30
0.0
 11
135.413379
 21
150.455308
 31
0.0
  0
LINE
  5
7B3
100
AcDbEntity
  8
0
 62
     0
100
AcDbLine
 10
121.469319
 20
136.286741
 30
0.0
 11
123.469319
 21
138.286741
 31
0.0
  0
LINE
  5
7B4
100
AcDbEntity
  8
0
 62
     0
100
AcDbLine
 10
133.413379
 20
148.230801
 30
0.0
 11
135.413379
 21
150.230801
 31
0.0
  0
LINE
  5
7B5
100
AcDbEntity
  8
0
 62
     0
100
AcDbLine
 10
121.693825
 20
136.286741
 30
0.0
 11
123.693825
 21
138.286741
 31
0.0
  0
LINE
  5
7B6
100
AcDbEntity
  8
0
 62
     0
100
AcDbLine
 10
133.413379
 20
148.006295
 30
0.0
 11
135.413379
 21
150.006295
 31
0.0
  0
LINE
  5
7B7
100
AcDbEntity
  8
0
 62
     0
100
AcDbLine
 10
121.918331
 20
136.286741
 30
0.0
 11
123.918331
 21
138.286741
 31
0.0
  0
LINE
  5
7B8
100
AcDbEntity
  8
0
 62
     0
100
AcDbLine
 10
133.413379
 20
147.781789
 30
0.0
 11
135.413379
 21
149.781789
 31
0.0
  0
LINE
  5
7B9
100
AcDbEntity
  8
0
 62
     0
100
AcDbLine
 10
122.142838
 20
136.286741
 30
0.0
 11
124.142838
 21
138.286741
 31
0.0
  0
LINE
  5
7BA
100
AcDbEntity
  8
0
 62
     0
100
AcDbLine
 10
133.413379
 20
147.557282
 30
0.0
 11
135.413379
 21
149.557282
 31
0.0
  0
LINE
  5
7BB
100
AcDbEntity
  8
0
 62
     0
100
AcDbLine
 10
122.367344
 20
136.286741
 30
0.0
 11
124.367344
 21
138.286741
 31
0.0
  0
LINE
  5
7BC
100
AcDbEntity
  8
0
 62
     0
100
AcDbLine
 10
133.413379
 20
147.332776
 30
0.0
 11
135.413379
 21
149.332776
 31
0.0
  0
LINE
  5
7BD
100
AcDbEntity
  8
0
 62
     0
100
AcDbLine
 10
122.591851
 20
136.286741
 30
0.0
 11
124.591851
 21
138.286741
 31
0.0
  0
LINE
  5
7BE
100
AcDbEntity
  8
0
 62
     0
100
AcDbLine
 10
133.413379
 20
147.108269
 30
0.0
 11
135.413379
 21
149.108269
 31
0.0
  0
LINE
  5
7BF
100
AcDbEntity
  8
0
 62
     0
100
AcDbLine
 10
122.816357
 20
136.286741
 30
0.0
 11
124.816357
 21
138.286741
 31
0.0
  0
LINE
  5
7C0
100
AcDbEntity
  8
0
 62
     0
100
AcDbLine
 10
133.413379
 20
146.883763
 30
0.0
 11
135.413379
 21
148.883763
 31
0.0
  0
LINE
  5
7C1
100
AcDbEntity
  8
0
 62
     0
100
AcDbLine
 10
123.040863
 20
136.286741
 30
0.0
 11
125.040863
 21
138.286741
 31
0.0
  0
LINE
  5
7C2
100
AcDbEntity
  8
0
 62
     0
100
AcDbLine
 10
133.413379
 20
146.659257
 30
0.0
 11
135.413379
 21
148.659257
 31
0.0
  0
LINE
  5
7C3
100
AcDbEntity
  8
0
 62
     0
100
AcDbLine
 10
123.26537
 20
136.286741
 30
0.0
 11
125.26537
 21
138.286741
 31
0.0
  0
LINE
  5
7C4
100
AcDbEntity
  8
0
 62
     0
100
AcDbLine
 10
133.413379
 20
146.43475
 30
0.0
 11
135.413379
 21
148.43475
 31
0.0
  0
LINE
  5
7C5
100
AcDbEntity
  8
0
 62
     0
100
AcDbLine
 10
123.489876
 20
136.286741
 30
0.0
 11
125.489876
 21
138.286741
 31
0.0
  0
LINE
  5
7C6
100
AcDbEntity
  8
0
 62
     0
100
AcDbLine
 10
133.413379
 20
146.210244
 30
0.0
 11
135.413379
 21
148.210244
 31
0.0
  0
LINE
  5
7C7
100
AcDbEntity
  8
0
 62
     0
100
AcDbLine
 10
123.714383
 20
136.286741
 30
0.0
 11
125.714383
 21
138.286741
 31
0.0
  0
LINE
  5
7C8
100
AcDbEntity
  8
0
 62
     0
100
AcDbLine
 10
133.413379
 20
145.985737
 30
0.0
 11
135.413379
 21
147.985737
 31
0.0
  0
LINE
  5
7C9
100
AcDbEntity
  8
0
 62
     0
100
AcDbLine
 10
123.938889
 20
136.286741
 30
0.0
 11
125.938889
 21
138.286741
 31
0.0
  0
LINE
  5
7CA
100
AcDbEntity
  8
0
 62
     0
100
AcDbLine
 10
133.413379
 20
145.761231
 30
0.0
 11
135.413379
 21
147.761231
 31
0.0
  0
LINE
  5
7CB
100
AcDbEntity
  8
0
 62
     0
100
AcDbLine
 10
124.163395
 20
136.286741
 30
0.0
 11
126.163395
 21
138.286741
 31
0.0
  0
LINE
  5
7CC
100
AcDbEntity
  8
0
 62
     0
100
AcDbLine
 10
133.413379
 20
145.536725
 30
0.0
 11
135.413379
 21
147.536725
 31
0.0
  0
LINE
  5
7CD
100
AcDbEntity
  8
0
 62
     0
100
AcDbLine
 10
124.387902
 20
136.286741
 30
0.0
 11
126.387902
 21
138.286741
 31
0.0
  0
LINE
  5
7CE
100
AcDbEntity
  8
0
 62
     0
100
AcDbLine
 10
133.413379
 20
145.312218
 30
0.0
 11
135.413379
 21
147.312218
 31
0.0
  0
LINE
  5
7CF
100
AcDbEntity
  8
0
 62
     0
100
AcDbLine
 10
124.612408
 20
136.286741
 30
0.0
 11
126.612408
 21
138.286741
 31
0.0
  0
LINE
  5
7D0
100
AcDbEntity
  8
0
 62
     0
100
AcDbLine
 10
133.413379
 20
145.087712
 30
0.0
 11
135.413379
 21
147.087712
 31
0.0
  0
LINE
  5
7D1
100
AcDbEntity
  8
0
 62
     0
100
AcDbLine
 10
124.836915
 20
136.286741
 30
0.0
 11
126.836915
 21
138.286741
 31
0.0
  0
LINE
  5
7D2
100
AcDbEntity
  8
0
 62
     0
100
AcDbLine
 10
133.413379
 20
144.863205
 30
0.0
 11
135.413379
 21
146.863205
 31
0.0
  0
LINE
  5
7D3
100
AcDbEntity
  8
0
 62
     0
100
AcDbLine
 10
125.061421
 20
136.286741
 30
0.0
 11
127.061421
 21
138.286741
 31
0.0
  0
LINE
  5
7D4
100
AcDbEntity
  8
0
 62
     0
100
AcDbLine
 10
133.413379
 20
144.638699
 30
0.0
 11
135.413379
 21
146.638699
 31
0.0
  0
LINE
  5
7D5
100
AcDbEntity
  8
0
 62
     0
100
AcDbLine
 10
125.285927
 20
136.286741
 30
0.0
 11
127.285927
 21
138.286741
 31
0.0
  0
LINE
  5
7D6
100
AcDbEntity
  8
0
 62
     0
100
AcDbLine
 10
133.413379
 20
144.414193
 30
0.0
 11
135.413379
 21
146.414193
 31
0.0
  0
LINE
  5
7D7
100
AcDbEntity
  8
0
 62
     0
100
AcDbLine
 10
125.510434
 20
136.286741
 30
0.0
 11
127.510434
 21
138.286741
 31
0.0
  0
LINE
  5
7D8
100
AcDbEntity
  8
0
 62
     0
100
AcDbLine
 10
133.413379
 20
144.189686
 30
0.0
 11
135.413379
 21
146.189686
 31
0.0
  0
LINE
  5
7D9
100
AcDbEntity
  8
0
 62
     0
100
AcDbLine
 10
125.73494
 20
136.286741
 30
0.0
 11
127.73494
 21
138.286741
 31
0.0
  0
LINE
  5
7DA
100
AcDbEntity
  8
0
 62
     0
100
AcDbLine
 10
133.413379
 20
143.96518
 30
0.0
 11
135.413379
 21
145.96518
 31
0.0
  0
LINE
  5
7DB
100
AcDbEntity
  8
0
 62
     0
100
AcDbLine
 10
125.959447
 20
136.286741
 30
0.0
 11
127.959447
 21
138.286741
 31
0.0
  0
LINE
  5
7DC
100
AcDbEntity
  8
0
 62
     0
100
AcDbLine
 10
133.413379
 20
143.740673
 30
0.0
 11
135.413379
 21
145.740673
 31
0.0
  0
LINE
  5
7DD
100
AcDbEntity
  8
0
 62
     0
100
AcDbLine
 10
126.183953
 20
136.286741
 30
0.0
 11
128.183953
 21
138.286741
 31
0.0
  0
LINE
  5
7DE
100
AcDbEntity
  8
0
 62
     0
100
AcDbLine
 10
133.413379
 20
143.516167
 30
0.0
 11
135.413379
 21
145.516167
 31
0.0
  0
LINE
  5
7DF
100
AcDbEntity
  8
0
 62
     0
100
AcDbLine
 10
126.408459
 20
136.286741
 30
0.0
 11
128.408459
 21
138.286741
 31
0.0
  0
LINE
  5
7E0
100
AcDbEntity
  8
0
 62
     0
100
AcDbLine
 10
133.413379
 20
143.291661
 30
0.0
 11
135.413379
 21
145.291661
 31
0.0
  0
LINE
  5
7E1
100
AcDbEntity
  8
0
 62
     0
100
AcDbLine
 10
126.632966
 20
136.286741
 30
0.0
 11
128.632966
 21
138.286741
 31
0.0
  0
LINE
  5
7E2
100
AcDbEntity
  8
0
 62
     0
100
AcDbLine
 10
133.413379
 20
143.067154
 30
0.0
 11
135.413379
 21
145.067154
 31
0.0
  0
LINE
  5
7E3
100
AcDbEntity
  8
0
 62
     0
100
AcDbLine
 10
126.857472
 20
136.286741
 30
0.0
 11
128.857472
 21
138.286741
 31
0.0
  0
LINE
  5
7E4
100
AcDbEntity
  8
0
 62
     0
100
AcDbLine
 10
133.413379
 20
142.842648
 30
0.0
 11
135.413379
 21
144.842648
 31
0.0
  0
LINE
  5
7E5
100
AcDbEntity
  8
0
 62
     0
100
AcDbLine
 10
127.081979
 20
136.286741
 30
0.0
 11
129.081979
 21
138.286741
 31
0.0
  0
LINE
  5
7E6
100
AcDbEntity
  8
0
 62
     0
100
AcDbLine
 10
133.413379
 20
142.618141
 30
0.0
 11
135.413379
 21
144.618141
 31
0.0
  0
LINE
  5
7E7
100
AcDbEntity
  8
0
 62
     0
100
AcDbLine
 10
127.306485
 20
136.286741
 30
0.0
 11
129.306485
 21
138.286741
 31
0.0
  0
LINE
  5
7E8
100
AcDbEntity
  8
0
 62
     0
100
AcDbLine
 10
133.413379
 20
142.393635
 30
0.0
 11
135.413379
 21
144.393635
 31
0.0
  0
LINE
  5
7E9
100
AcDbEntity
  8
0
 62
     0
100
AcDbLine
 10
127.530992
 20
136.286741
 30
0.0
 11
129.530992
 21
138.286741
 31
0.0
  0
LINE
  5
7EA
100
AcDbEntity
  8
0
 62
     0
100
AcDbLine
 10
133.413379
 20
142.169128
 30
0.0
 11
135.413379
 21
144.169128
 31
0.0
  0
LINE
  5
7EB
100
AcDbEntity
  8
0
 62
     0
100
AcDbLine
 10
127.755498
 20
136.286741
 30
0.0
 11
129.755498
 21
138.286741
 31
0.0
  0
LINE
  5
7EC
100
AcDbEntity
  8
0
 62
     0
100
AcDbLine
 10
133.413379
 20
141.944622
 30
0.0
 11
135.413379
 21
143.944622
 31
0.0
  0
LINE
  5
7ED
100
AcDbEntity
  8
0
 62
     0
100
AcDbLine
 10
127.980004
 20
136.286741
 30
0.0
 11
129.980004
 21
138.286741
 31
0.0
  0
LINE
  5
7EE
100
AcDbEntity
  8
0
 62
     0
100
AcDbLine
 10
133.413379
 20
141.720116
 30
0.0
 11
135.413379
 21
143.720116
 31
0.0
  0
LINE
  5
7EF
100
AcDbEntity
  8
0
 62
     0
100
AcDbLine
 10
128.204511
 20
136.286741
 30
0.0
 11
130.204511
 21
138.286741
 31
0.0
  0
LINE
  5
7F0
100
AcDbEntity
  8
0
 62
     0
100
AcDbLine
 10
133.413379
 20
141.495609
 30
0.0
 11
135.413379
 21
143.495609
 31
0.0
  0
LINE
  5
7F1
100
AcDbEntity
  8
0
 62
     0
100
AcDbLine
 10
128.429017
 20
136.286741
 30
0.0
 11
130.429017
 21
138.286741
 31
0.0
  0
LINE
  5
7F2
100
AcDbEntity
  8
0
 62
     0
100
AcDbLine
 10
133.413379
 20
141.271103
 30
0.0
 11
135.413379
 21
143.271103
 31
0.0
  0
LINE
  5
7F3
100
AcDbEntity
  8
0
 62
     0
100
AcDbLine
 10
128.653524
 20
136.286741
 30
0.0
 11
130.653524
 21
138.286741
 31
0.0
  0
LINE
  5
7F4
100
AcDbEntity
  8
0
 62
     0
100
AcDbLine
 10
133.413379
 20
141.046596
 30
0.0
 11
135.413379
 21
143.046596
 31
0.0
  0
LINE
  5
7F5
100
AcDbEntity
  8
0
 62
     0
100
AcDbLine
 10
128.87803
 20
136.286741
 30
0.0
 11
130.87803
 21
138.286741
 31
0.0
  0
LINE
  5
7F6
100
AcDbEntity
  8
0
 62
     0
100
AcDbLine
 10
133.413379
 20
140.82209
 30
0.0
 11
135.413379
 21
142.82209
 31
0.0
  0
LINE
  5
7F7
100
AcDbEntity
  8
0
 62
     0
100
AcDbLine
 10
129.102536
 20
136.286741
 30
0.0
 11
131.102536
 21
138.286741
 31
0.0
  0
LINE
  5
7F8
100
AcDbEntity
  8
0
 62
     0
100
AcDbLine
 10
133.413379
 20
140.597584
 30
0.0
 11
135.413379
 21
142.597584
 31
0.0
  0
LINE
  5
7F9
100
AcDbEntity
  8
0
 62
     0
100
AcDbLine
 10
129.327043
 20
136.286741
 30
0.0
 11
131.327043
 21
138.286741
 31
0.0
  0
LINE
  5
7FA
100
AcDbEntity
  8
0
 62
     0
100
AcDbLine
 10
133.413379
 20
140.373077
 30
0.0
 11
135.413379
 21
142.373077
 31
0.0
  0
LINE
  5
7FB
100
AcDbEntity
  8
0
 62
     0
100
AcDbLine
 10
129.551549
 20
136.286741
 30
0.0
 11
131.551549
 21
138.286741
 31
0.0
  0
LINE
  5
7FC
100
AcDbEntity
  8
0
 62
     0
100
AcDbLine
 10
133.413379
 20
140.148571
 30
0.0
 11
135.413379
 21
142.148571
 31
0.0
  0
LINE
  5
7FD
100
AcDbEntity
  8
0
 62
     0
100
AcDbLine
 10
129.776056
 20
136.286741
 30
0.0
 11
131.776056
 21
138.286741
 31
0.0
  0
LINE
  5
7FE
100
AcDbEntity
  8
0
 62
     0
100
AcDbLine
 10
133.413379
 20
139.924064
 30
0.0
 11
135.413379
 21
141.924064
 31
0.0
  0
LINE
  5
7FF
100
AcDbEntity
  8
0
 62
     0
100
AcDbLine
 10
130.000562
 20
136.286741
 30
0.0
 11
132.000562
 21
138.286741
 31
0.0
  0
LINE
  5
800
100
AcDbEntity
  8
0
 62
     0
100
AcDbLine
 10
133.413379
 20
139.699558
 30
0.0
 11
135.413379
 21
141.699558
 31
0.0
  0
LINE
  5
801
100
AcDbEntity
  8
0
 62
     0
100
AcDbLine
 10
130.225068
 20
136.286741
 30
0.0
 11
132.225068
 21
138.286741
 31
0.0
  0
LINE
  5
802
100
AcDbEntity
  8
0
 62
     0
100
AcDbLine
 10
133.413379
 20
139.475052
 30
0.0
 11
135.413379
 21
141.475052
 31
0.0
  0
LINE
  5
803
100
AcDbEntity
  8
0
 62
     0
100
AcDbLine
 10
130.449575
 20
136.286741
 30
0.0
 11
132.449575
 21
138.286741
 31
0.0
  0
LINE
  5
804
100
AcDbEntity
  8
0
 62
     0
100
AcDbLine
 10
133.413379
 20
139.250545
 30
0.0
 11
135.413379
 21
141.250545
 31
0.0
  0
LINE
  5
805
100
AcDbEntity
  8
0
 62
     0
100
AcDbLine
 10
130.674081
 20
136.286741
 30
0.0
 11
132.674081
 21
138.286741
 31
0.0
  0
LINE
  5
806
100
AcDbEntity
  8
0
 62
     0
100
AcDbLine
 10
133.413379
 20
139.026039
 30
0.0
 11
135.413379
 21
141.026039
 31
0.0
  0
LINE
  5
807
100
AcDbEntity
  8
0
 62
     0
100
AcDbLine
 10
130.898588
 20
136.286741
 30
0.0
 11
132.898588
 21
138.286741
 31
0.0
  0
LINE
  5
808
100
AcDbEntity
  8
0
 62
     0
100
AcDbLine
 10
133.413379
 20
138.801532
 30
0.0
 11
135.413379
 21
140.801532
 31
0.0
  0
LINE
  5
809
100
AcDbEntity
  8
0
 62
     0
100
AcDbLine
 10
131.123094
 20
136.286741
 30
0.0
 11
133.123094
 21
138.286741
 31
0.0
  0
LINE
  5
80A
100
AcDbEntity
  8
0
 62
     0
100
AcDbLine
 10
133.413379
 20
138.577026
 30
0.0
 11
135.413379
 21
140.577026
 31
0.0
  0
LINE
  5
80B
100
AcDbEntity
  8
0
 62
     0
100
AcDbLine
 10
131.3476
 20
136.286741
 30
0.0
 11
133.3476
 21
138.286741
 31
0.0
  0
LINE
  5
80C
100
AcDbEntity
  8
0
 62
     0
100
AcDbLine
 10
133.413379
 20
138.35252
 30
0.0
 11
135.413379
 21
140.35252
 31
0.0
  0
LINE
  5
80D
100
AcDbEntity
  8
0
 62
     0
100
AcDbLine
 10
131.572107
 20
136.286741
 30
0.0
 11
135.413379
 21
140.128013
 31
0.0
  0
LINE
  5
80E
100
AcDbEntity
  8
0
 62
     0
100
AcDbLine
 10
131.796613
 20
136.286741
 30
0.0
 11
135.413379
 21
139.903507
 31
0.0
  0
LINE
  5
80F
100
AcDbEntity
  8
0
 62
     0
100
AcDbLine
 10
132.02112
 20
136.286741
 30
0.0
 11
135.413379
 21
139.679
 31
0.0
  0
LINE
  5
810
100
AcDbEntity
  8
0
 62
     0
100
AcDbLine
 10
132.245626
 20
136.286741
 30
0.0
 11
135.413379
 21
139.454494
 31
0.0
  0
LINE
  5
811
100
AcDbEntity
  8
0
 62
     0
100
AcDbLine
 10
132.470132
 20
136.286741
 30
0.0
 11
135.413379
 21
139.229988
 31
0.0
  0
LINE
  5
812
100
AcDbEntity
  8
0
 62
     0
100
AcDbLine
 10
132.694639
 20
136.286741
 30
0.0
 11
135.413379
 21
139.005481
 31
0.0
  0
LINE
  5
813
100
AcDbEntity
  8
0
 62
     0
100
AcDbLine
 10
132.919145
 20
136.286741
 30
0.0
 11
135.413379
 21
138.780975
 31
0.0
  0
LINE
  5
814
100
AcDbEntity
  8
0
 62
     0
100
AcDbLine
 10
133.143652
 20
136.286741
 30
0.0
 11
135.413379
 21
138.556468
 31
0.0
  0
LINE
  5
815
100
AcDbEntity
  8
0
 62
     0
100
AcDbLine
 10
133.368158
 20
136.286741
 30
0.0
 11
135.413379
 21
138.331962
 31
0.0
  0
LINE
  5
816
100
AcDbEntity
  8
0
 62
     0
100
AcDbLine
 10
133.592664
 20
136.286741
 30
0.0
 11
135.413379
 21
138.107456
 31
0.0
  0
LINE
  5
817
100
AcDbEntity
  8
0
 62
     0
100
AcDbLine
 10
133.817171
 20
136.286741
 30
0.0
 11
135.413379
 21
137.882949
 31
0.0
  0
LINE
  5
818
100
AcDbEntity
  8
0
 62
     0
100
AcDbLine
 10
134.041677
 20
136.286741
 30
0.0
 11
135.413379
 21
137.658443
 31
0.0
  0
LINE
  5
819
100
AcDbEntity
  8
0
 62
     0
100
AcDbLine
 10
134.266184
 20
136.286741
 30
0.0
 11
135.413379
 21
137.433936
 31
0.0
  0
ENDBLK
  5
81A
100
AcDbEntity
  8
0
100
AcDbBlockEnd
  0
BLOCK
  5
822
100
AcDbEntity
  8
DISEGNO
100
AcDbBlockBegin
  2
RUGOSITA
 70
     2
 10
0.0
 20
0.0
 30
0.0
  3
RUGOSITA
  1

  0
ATTDEF
  5
81E
100
AcDbEntity
  8
QUOTE
100
AcDbText
 10
-1.071886
 20
3.214106
 30
0.0
 40
1.5
  1
0.8
100
AcDbAttributeDefinition
  3
CHE RUGOSITA ?
  2
RUGOSITA
 70
     0
  0
LINE
  5
81F
100
AcDbEntity
  8
QUOTE
100
AcDbLine
 10
0.0
 20
0.0
 30
0.0
 11
4.0
 21
6.928203
 31
0.0
  0
LINE
  5
820
100
AcDbEntity
  8
QUOTE
100
AcDbLine
 10
0.0
 20
0.0
 30
0.0
 11
-1.75
 21
3.031089
 31
0.0
  0
LINE
  5
821
100
AcDbEntity
  8
QUOTE
100
AcDbLine
 10
-1.75
 20
3.031089
 30
0.0
 11
1.75
 21
3.031089
 31
0.0
  0
ENDBLK
  5
823
100
AcDbEntity
  8
DISEGNO
100
AcDbBlockEnd
  0
BLOCK
  5
923
100
AcDbEntity
  8
0
100
AcDbBlockBegin
  2
*D16
 70
    65
 10
0.0
 20
0.0
 30
0.0
  3
*D16
  1

  0
LINE
  5
924
100
AcDbEntity
  8
0
  6
BYBLOCK
 62
     0
100
AcDbLine
 10
57.259354
 20
129.32884
 30
0.0
 11
68.077364
 21
140.664105
 31
0.0
  0
SOLID
  5
925
100
AcDbEntity
  8
0
  6
BYBLOCK
 62
     0
100
AcDbTrace
 10
56.957929
 20
129.616511
 30
0.0
 11
57.560779
 21
129.04117
 31
0.0
 12
55.533333
 22
127.520291
 32
0.0
 13
55.533333
 23
127.520291
 33
0.0
  0
MTEXT
  5
926
100
AcDbEntity
  8
0
  6
BYBLOCK
 62
     0
100
AcDbMText
 10
61.346844
 20
136.689659
 30
0.0
 40
3.0
 41
0.0
 71
     5
 72
     1
  1
\A2;\U+220510{\H2.400000;±0.01}
 11
0.690408
 21
0.72342
 31
0.0
  0
LINE
  5
927
100
AcDbEntity
  8
0
  6
BYBLOCK
 62
     0
100
AcDbLine
 10
51.307312
 20
125.711741
 30
0.0
 11
56.307312
 21
125.711741
 31
0.0
  0
LINE
  5
928
100
AcDbEntity
  8
0
  6
BYBLOCK
 62
     0
100
AcDbLine
 10
53.807312
 20
123.211741
 30
0.0
 11
53.807312
 21
128.211741
 31
0.0
  0
POINT
  5
929
100
AcDbEntity
  8
DEFPOINTS
  6
BYBLOCK
 62
     0
100
AcDbPoint
 10
55.533333
 20
127.520291
 30
0.0
  0
POINT
  5
92A
100
AcDbEntity
  8
DEFPOINTS
  6
BYBLOCK
 62
     0
100
AcDbPoint
 10
52.081291
 20
123.903192
 30
0.0
  0
ENDBLK
  5
92B
100
AcDbEntity
  8
0
100
AcDbBlockEnd
  0
BLOCK
  5
8C7
100
AcDbEntity
  8
0
100
AcDbBlockBegin
  2
*D17
 70
    65
 10
0.0
 20
0.0
 30
0.0
  3
*D17
  1

  0
LINE
  5
8C8
100
AcDbEntity
  8
0
  6
BYBLOCK
 62
     0
100
AcDbLine
 10
69.15029
 20
106.952197
 30
0.0
 11
75.275042
 21
111.28087
 31
0.0
  0
LINE
  5
8C9
100
AcDbEntity
  8
0
  6
BYBLOCK
 62
     0
100
AcDbLine
 10
77.316626
 20
112.723761
 30
0.0
 11
92.182624
 21
123.230318
 31
0.0
  0
SOLID
  5
8CA
100
AcDbEntity
  8
0
  6
BYBLOCK
 62
     0
100
AcDbTrace
 10
68.909808
 20
107.292461
 30
0.0
 11
69.390772
 21
106.611933
 31
0.0
 12
67.108706
 22
105.509306
 32
0.0
 13
67.108706
 23
105.509306
 33
0.0
  0
SOLID
  5
8CB
100
AcDbEntity
  8
0
  6
BYBLOCK
 62
     0
100
AcDbTrace
 10
75.03456
 20
111.621134
 30
0.0
 11
75.515524
 21
110.940606
 31
0.0
 12
77.316626
 22
112.723761
 32
0.0
 13
77.316626
 23
112.723761
 33
0.0
  0
MTEXT
  5
8CC
100
AcDbEntity
  8
0
  6
BYBLOCK
 62
     0
100
AcDbMText
 10
84.543959
 20
120.433832
 30
0.0
 40
3.0
 41
0.0
 71
     5
 72
     1
  1
\A2;\U+220525{\H2.400000;±0.01}
 11
0.816634
 21
0.577156
 31
0.0
  0
POINT
  5
8CD
100
AcDbEntity
  8
DEFPOINTS
  6
BYBLOCK
 62
     0
100
AcDbPoint
 10
77.316626
 20
112.723761
 30
0.0
  0
POINT
  5
8CE
100
AcDbEntity
  8
DEFPOINTS
  6
BYBLOCK
 62
     0
100
AcDbPoint
 10
67.108706
 20
105.509306
 30
0.0
  0
ENDBLK
  5
8CF
100
AcDbEntity
  8
0
100
AcDbBlockEnd
  0
BLOCK
  5
94D
100
AcDbEntity
  8
0
100
AcDbBlockBegin
  2
*D18
 70
    65
 10
0.0
 20
0.0
 30
0.0
  3
*D18
  1

  0
LINE
  5
94E
100
AcDbEntity
  8
0
  6
BYBLOCK
 62
     0
100
AcDbLine
 10
37.017248
 20
97.672196
 30
0.0
 11
34.574419
 21
99.413628
 31
0.0
  0
LINE
  5
94F
100
AcDbEntity
  8
0
  6
BYBLOCK
 62
     0
100
AcDbLine
 10
32.538728
 20
100.864822
 30
0.0
 11
13.367408
 21
114.531577
 31
0.0
  0
SOLID
  5
950
100
AcDbEntity
  8
0
  6
BYBLOCK
 62
     0
100
AcDbTrace
 10
37.259114
 20
98.011478
 30
0.0
 11
36.775383
 21
97.332915
 31
0.0
 12
39.052939
 22
96.221003
 32
0.0
 13
39.052939
 23
96.221003
 33
0.0
  0
SOLID
  5
951
100
AcDbEntity
  8
0
  6
BYBLOCK
 62
     0
100
AcDbTrace
 10
34.816285
 20
99.75291
 30
0.0
 11
34.332554
 21
99.074347
 31
0.0
 12
32.538728
 22
100.864822
 32
0.0
 13
32.538728
 23
100.864822
 33
0.0
  0
MTEXT
  5
952
100
AcDbEntity
  8
0
  6
BYBLOCK
 62
     0
100
AcDbMText
 10
20.72591
 20
111.895564
 30
0.0
 40
3.0
 41
0.0
 71
     5
 72
     1
  1
\A2;\U+220516{\H2.400000;±0.01}
 11
0.814276
 21
-0.580477
 31
0.0
  0
POINT
  5
953
100
AcDbEntity
  8
DEFPOINTS
  6
BYBLOCK
 62
     0
100
AcDbPoint
 10
32.538728
 20
100.864822
 30
0.0
  0
POINT
  5
954
100
AcDbEntity
  8
DEFPOINTS
  6
BYBLOCK
 62
     0
100
AcDbPoint
 10
39.052939
 20
96.221003
 30
0.0
  0
ENDBLK
  5
955
100
AcDbEntity
  8
0
100
AcDbBlockEnd
  0
BLOCK
  5
8E8
100
AcDbEntity
  8
0
100
AcDbBlockBegin
  2
*D19
 70
    65
 10
0.0
 20
0.0
 30
0.0
  3
*D19
  1

  0
LINE
  5
8E9
100
AcDbEntity
  8
0
  6
BYBLOCK
 62
     0
100
AcDbLine
 10
54.432312
 20
128.211741
 30
0.0
 11
97.50331
 21
128.211741
 31
0.0
  0
LINE
  5
8EA
100
AcDbEntity
  8
0
  6
BYBLOCK
 62
     0
100
AcDbLine
 10
68.932312
 20
94.116534
 30
0.0
 11
97.50331
 21
94.116534
 31
0.0
  0
LINE
  5
8EB
100
AcDbEntity
  8
0
  6
BYBLOCK
 62
     0
100
AcDbLine
 10
96.25331
 20
125.711741
 30
0.0
 11
96.25331
 21
96.616534
 31
0.0
  0
SOLID
  5
8EC
100
AcDbEntity
  8
0
  6
BYBLOCK
 62
     0
100
AcDbTrace
 10
95.836644
 20
125.711741
 30
0.0
 11
96.669977
 21
125.711741
 31
0.0
 12
96.25331
 22
128.211741
 32
0.0
 13
96.25331
 23
128.211741
 33
0.0
  0
SOLID
  5
8ED
100
AcDbEntity
  8
0
  6
BYBLOCK
 62
     0
100
AcDbTrace
 10
95.836644
 20
96.616534
 30
0.0
 11
96.669977
 21
96.616534
 31
0.0
 12
96.25331
 22
94.116534
 32
0.0
 13
96.25331
 23
94.116534
 33
0.0
  0
MTEXT
  5
8EE
100
AcDbEntity
  8
0
  6
BYBLOCK
 62
     0
100
AcDbMText
 10
92.887602
 20
111.164137
 30
0.0
 40
3.0
 41
0.0
 71
     5
 72
     1
  1
\A2;68.19{\H2.400000;\S+0.02^  0;}
 11
0.0
 21
1.0
 31
0.0
  0
POINT
  5
8EF
100
AcDbEntity
  8
DEFPOINTS
  6
BYBLOCK
 62
     0
100
AcDbPoint
 10
53.807312
 20
128.211741
 30
0.0
  0
POINT
  5
8F0
100
AcDbEntity
  8
DEFPOINTS
  6
BYBLOCK
 62
     0
100
AcDbPoint
 10
68.307312
 20
94.116534
 30
0.0
  0
POINT
  5
8F1
100
AcDbEntity
  8
DEFPOINTS
  6
BYBLOCK
 62
     0
100
AcDbPoint
 10
96.25331
 20
94.116534
 30
0.0
  0
ENDBLK
  5
8F2
100
AcDbEntity
  8
0
100
AcDbBlockEnd
  0
BLOCK
  5
90B
100
AcDbEntity
  8
0
100
AcDbBlockBegin
  2
*D20
 70
    65
 10
0.0
 20
0.0
 30
0.0
  3
*D20
  1

  0
LINE
  5
90C
100
AcDbEntity
  8
0
  6
BYBLOCK
 62
     0
100
AcDbLine
 10
78.462666
 20
108.491534
 30
0.0
 11
78.462666
 21
82.444139
 31
0.0
  0
LINE
  5
90D
100
AcDbEntity
  8
0
  6
BYBLOCK
 62
     0
100
AcDbLine
 10
38.807312
 20
93.991534
 30
0.0
 11
38.807312
 21
82.444139
 31
0.0
  0
LINE
  5
90E
100
AcDbEntity
  8
0
  6
BYBLOCK
 62
     0
100
AcDbLine
 10
75.962666
 20
83.694139
 30
0.0
 11
41.307312
 21
83.694139
 31
0.0
  0
SOLID
  5
90F
100
AcDbEntity
  8
0
  6
BYBLOCK
 62
     0
100
AcDbTrace
 10
75.962666
 20
84.110806
 30
0.0
 11
75.962666
 21
83.277473
 31
0.0
 12
78.462666
 22
83.694139
 32
0.0
 13
78.462666
 23
83.694139
 33
0.0
  0
SOLID
  5
910
100
AcDbEntity
  8
0
  6
BYBLOCK
 62
     0
100
AcDbTrace
 10
41.307312
 20
84.110806
 30
0.0
 11
41.307312
 21
83.277473
 31
0.0
 12
38.807312
 22
83.694139
 32
0.0
 13
38.807312
 23
83.694139
 33
0.0
  0
MTEXT
  5
911
100
AcDbEntity
  8
0
  6
BYBLOCK
 62
     0
100
AcDbMText
 10
58.634989
 20
87.059848
 30
0.0
 40
3.0
 41
0.0
 71
     5
 72
     1
  1
\A2;79.31{\H2.400000;\S+0.02^  0;}
  0
POINT
  5
912
100
AcDbEntity
  8
DEFPOINTS
  6
BYBLOCK
 62
     0
100
AcDbPoint
 10
78.462666
 20
109.116534
 30
0.0
  0
POINT
  5
913
100
AcDbEntity
  8
DEFPOINTS
  6
BYBLOCK
 62
     0
100
AcDbPoint
 10
38.807312
 20
94.616534
 30
0.0
  0
POINT
  5
914
100
AcDbEntity
  8
DEFPOINTS
  6
BYBLOCK
 62
     0
100
AcDbPoint
 10
38.807312
 20
83.694139
 30
0.0
  0
ENDBLK
  5
915
100
AcDbEntity
  8
0
100
AcDbBlockEnd
  0
BLOCK
  5
942
100
AcDbEntity
  8
0
100
AcDbBlockBegin
  2
*D21
 70
    65
 10
0.0
 20
0.0
 30
0.0
  3
*D21
  1

  0
LINE
  5
943
100
AcDbEntity
  8
0
  6
BYBLOCK
 62
     0
100
AcDbLine
 10
68.807312
 20
124.241534
 30
0.0
 11
68.807312
 21
146.660629
 31
0.0
  0
LINE
  5
944
100
AcDbEntity
  8
0
  6
BYBLOCK
 62
     0
100
AcDbLine
 10
32.236598
 20
109.741534
 30
0.0
 11
32.236598
 21
146.660629
 31
0.0
  0
LINE
  5
945
100
AcDbEntity
  8
0
  6
BYBLOCK
 62
     0
100
AcDbLine
 10
66.307312
 20
145.410629
 30
0.0
 11
34.736598
 21
145.410629
 31
0.0
  0
SOLID
  5
946
100
AcDbEntity
  8
0
  6
BYBLOCK
 62
     0
100
AcDbTrace
 10
66.307312
 20
145.827296
 30
0.0
 11
66.307312
 21
144.993962
 31
0.0
 12
68.807312
 22
145.410629
 32
0.0
 13
68.807312
 23
145.410629
 33
0.0
  0
SOLID
  5
947
100
AcDbEntity
  8
0
  6
BYBLOCK
 62
     0
100
AcDbTrace
 10
34.736598
 20
145.827296
 30
0.0
 11
34.736598
 21
144.993962
 31
0.0
 12
32.236598
 22
145.410629
 32
0.0
 13
32.236598
 23
145.410629
 33
0.0
  0
MTEXT
  5
948
100
AcDbEntity
  8
0
  6
BYBLOCK
 62
     0
100
AcDbMText
 10
50.521955
 20
148.776338
 30
0.0
 40
3.0
 41
0.0
 71
     5
 72
     1
  1
\A2;73.14{\H2.400000;\S+0.02^  0;}
  0
POINT
  5
949
100
AcDbEntity
  8
DEFPOINTS
  6
BYBLOCK
 62
     0
100
AcDbPoint
 10
68.807312
 20
123.616534
 30
0.0
  0
POINT
  5
94A
100
AcDbEntity
  8
DEFPOINTS
  6
BYBLOCK
 62
     0
100
AcDbPoint
 10
32.236598
 20
109.116534
 30
0.0
  0
POINT
  5
94B
100
AcDbEntity
  8
DEFPOINTS
  6
BYBLOCK
 62
     0
100
AcDbPoint
 10
32.236598
 20
145.410629
 30
0.0
  0
ENDBLK
  5
94C
100
AcDbEntity
  8
0
100
AcDbBlockEnd
  0
BLOCK
  5
989
100
AcDbEntity
  8
0
100
AcDbBlockBegin
  2
*D22
 70
    65
 10
0.0
 20
0.0
 30
0.0
  3
*D22
  1

  0
LINE
  5
98A
100
AcDbEntity
  8
0
  6
BYBLOCK
 62
     0
100
AcDbLine
 10
116.676941
 20
62.302935
 30
0.0
 11
116.676941
 21
53.086867
 31
0.0
  0
LINE
  5
98B
100
AcDbEntity
  8
0
  6
BYBLOCK
 62
     0
100
AcDbLine
 10
126.676941
 20
67.302935
 30
0.0
 11
126.676941
 21
53.086867
 31
0.0
  0
LINE
  5
98C
100
AcDbEntity
  8
0
  6
BYBLOCK
 62
     0
100
AcDbLine
 10
119.176941
 20
54.336867
 30
0.0
 11
124.176941
 21
54.336867
 31
0.0
  0
SOLID
  5
98D
100
AcDbEntity
  8
0
  6
BYBLOCK
 62
     0
100
AcDbTrace
 10
119.176941
 20
54.753533
 30
0.0
 11
119.176941
 21
53.9202
 31
0.0
 12
116.676941
 22
54.336867
 32
0.0
 13
116.676941
 23
54.336867
 33
0.0
  0
SOLID
  5
98E
100
AcDbEntity
  8
0
  6
BYBLOCK
 62
     0
100
AcDbTrace
 10
124.176941
 20
54.753533
 30
0.0
 11
124.176941
 21
53.9202
 31
0.0
 12
126.676941
 22
54.336867
 32
0.0
 13
126.676941
 23
54.336867
 33
0.0
  0
MTEXT
  5
98F
100
AcDbEntity
  8
0
  6
BYBLOCK
 62
     0
100
AcDbMText
 10
121.676941
 20
56.461867
 30
0.0
 40
3.0
 41
0.0
 71
     5
 72
     1
  1
\A1;{50}
  0
POINT
  5
990
100
AcDbEntity
  8
DEFPOINTS
  6
BYBLOCK
 62
     0
100
AcDbPoint
 10
116.676941
 20
62.927935
 30
0.0
  0
POINT
  5
991
100
AcDbEntity
  8
DEFPOINTS
  6
BYBLOCK
 62
     0
100
AcDbPoint
 10
126.676941
 20
67.927935
 30
0.0
  0
POINT
  5
992
100
AcDbEntity
  8
DEFPOINTS
  6
BYBLOCK
 62
     0
100
AcDbPoint
 10
126.676941
 20
54.336867
 30
0.0
  0
ENDBLK
  5
993
100
AcDbEntity
  8
0
100
AcDbBlockEnd
  0
BLOCK
  5
9C8
100
AcDbEntity
  8
0
100
AcDbBlockBegin
  2
*D23
 70
    65
 10
0.0
 20
0.0
 30
0.0
  3
*D23
  1

  0
LINE
  5
9C9
100
AcDbEntity
  8
0
  6
BYBLOCK
 62
     0
100
AcDbLine
 10
137.301941
 20
70.927935
 30
0.0
 11
143.711633
 21
70.927935
 31
0.0
  0
LINE
  5
9CA
100
AcDbEntity
  8
0
  6
BYBLOCK
 62
     0
100
AcDbLine
 10
141.543959
 20
75.927935
 30
0.0
 11
143.711633
 21
75.927935
 31
0.0
  0
LINE
  5
9CB
100
AcDbEntity
  8
0
  6
BYBLOCK
 62
     0
100
AcDbLine
 10
142.461633
 20
68.427935
 30
0.0
 11
142.461633
 21
65.927935
 31
0.0
  0
LINE
  5
9CC
100
AcDbEntity
  8
0
  6
BYBLOCK
 62
     0
100
AcDbLine
 10
142.461633
 20
78.427935
 30
0.0
 11
142.461633
 21
80.927935
 31
0.0
  0
SOLID
  5
9CD
100
AcDbEntity
  8
0
  6
BYBLOCK
 62
     0
100
AcDbTrace
 10
142.044967
 20
68.427935
 30
0.0
 11
142.8783
 21
68.427935
 31
0.0
 12
142.461633
 22
70.927935
 32
0.0
 13
142.461633
 23
70.927935
 33
0.0
  0
SOLID
  5
9CE
100
AcDbEntity
  8
0
  6
BYBLOCK
 62
     0
100
AcDbTrace
 10
142.044967
 20
78.427935
 30
0.0
 11
142.8783
 21
78.427935
 31
0.0
 12
142.461633
 22
75.927935
 32
0.0
 13
142.461633
 23
75.927935
 33
0.0
  0
MTEXT
  5
9CF
100
AcDbEntity
  8
0
  6
BYBLOCK
 62
     0
100
AcDbMText
 10
140.336633
 20
73.427935
 30
0.0
 40
3.0
 41
0.0
 71
     5
 72
     1
  1
\A1;{=}
 11
0.0
 21
1.0
 31
0.0
  0
POINT
  5
9D0
100
AcDbEntity
  8
DEFPOINTS
  6
BYBLOCK
 62
     0
100
AcDbPoint
 10
136.676941
 20
70.927935
 30
0.0
  0
POINT
  5
9D1
100
AcDbEntity
  8
DEFPOINTS
  6
BYBLOCK
 62
     0
100
AcDbPoint
 10
140.918959
 20
75.927935
 30
0.0
  0
POINT
  5
9D2
100
AcDbEntity
  8
DEFPOINTS
  6
BYBLOCK
 62
     0
100
AcDbPoint
 10
142.461633
 20
75.927935
 30
0.0
  0
ENDBLK
  5
9D3
100
AcDbEntity
  8
0
100
AcDbBlockEnd
  0
BLOCK
  5
9EC
100
AcDbEntity
  8
0
100
AcDbBlockBegin
  2
*D24
 70
    65
 10
0.0
 20
0.0
 30
0.0
  3
*D24
  1

  0
LINE
  5
9ED
100
AcDbEntity
  8
0
  6
BYBLOCK
 62
     0
100
AcDbLine
 10
137.301941
 20
67.927935
 30
0.0
 11
143.711633
 21
67.927935
 31
0.0
  0
LINE
  5
9EE
100
AcDbEntity
  8
0
  6
BYBLOCK
 62
     0
100
AcDbLine
 10
142.866251
 20
62.927935
 30
0.0
 11
143.711633
 21
62.927935
 31
0.0
  0
LINE
  5
9EF
100
AcDbEntity
  8
0
  6
BYBLOCK
 62
     0
100
AcDbLine
 10
142.461633
 20
70.427935
 30
0.0
 11
142.461633
 21
72.927935
 31
0.0
  0
LINE
  5
9F0
100
AcDbEntity
  8
0
  6
BYBLOCK
 62
     0
100
AcDbLine
 10
142.461633
 20
60.427935
 30
0.0
 11
142.461633
 21
57.927935
 31
0.0
  0
SOLID
  5
9F1
100
AcDbEntity
  8
0
  6
BYBLOCK
 62
     0
100
AcDbTrace
 10
142.044967
 20
70.427935
 30
0.0
 11
142.8783
 21
70.427935
 31
0.0
 12
142.461633
 22
67.927935
 32
0.0
 13
142.461633
 23
67.927935
 33
0.0
  0
SOLID
  5
9F2
100
AcDbEntity
  8
0
  6
BYBLOCK
 62
     0
100
AcDbTrace
 10
142.044967
 20
60.427935
 30
0.0
 11
142.8783
 21
60.427935
 31
0.0
 12
142.461633
 22
62.927935
 32
0.0
 13
142.461633
 23
62.927935
 33
0.0
  0
MTEXT
  5
9F3
100
AcDbEntity
  8
0
  6
BYBLOCK
 62
     0
100
AcDbMText
 10
140.336633
 20
65.427935
 30
0.0
 40
3.0
 41
0.0
 71
     5
 72
     1
  1
\A1;{=}
 11
0.0
 21
1.0
 31
0.0
  0
POINT
  5
9F4
100
AcDbEntity
  8
DEFPOINTS
  6
BYBLOCK
 62
     0
100
AcDbPoint
 10
136.676941
 20
67.927935
 30
0.0
  0
POINT
  5
9F5
100
AcDbEntity
  8
DEFPOINTS
  6
BYBLOCK
 62
     0
100
AcDbPoint
 10
142.241251
 20
62.927935
 30
0.0
  0
POINT
  5
9F6
100
AcDbEntity
  8
DEFPOINTS
  6
BYBLOCK
 62
     0
100
AcDbPoint
 10
142.461633
 20
62.927935
 30
0.0
  0
ENDBLK
  5
9F7
100
AcDbEntity
  8
0
100
AcDbBlockEnd
  0
ENDSEC
  0
SECTION
  2
ENTITIES
  0
LINE
  5
26A
100
AcDbEntity
  8
DISEGNO
100
AcDbLine
 10
73.768795
 20
178.581223
 30
0.0
 11
131.768795
 21
178.581223
 31
0.0
1001
ACAD
1000
ASC_BOUNDS
1002
{
1070
    19
1002
}
  0
LINE
  5
26B
100
AcDbEntity
  8
DISEGNO
100
AcDbLine
 10
132.768795
 20
179.581223
 30
0.0
 11
132.768795
 21
196.581223
 31
0.0
1001
ACAD
1000
ASC_BOUNDS
1002
{
1070
    19
1002
}
  0
LINE
  5
26C
100
AcDbEntity
  8
DISEGNO
100
AcDbLine
 10
131.768795
 20
238.581223
 30
0.0
 11
107.268795
 21
238.581223
 31
0.0
1001
ACAD
1000
ASC_BOUNDS
1002
{
1070
    19
1002
}
  0
LINE
  5
26D
100
AcDbEntity
  8
DISEGNO
100
AcDbLine
 10
72.768795
 20
237.581223
 30
0.0
 11
72.768795
 21
215.581223
 31
0.0
1001
ACAD
1000
ASC_BOUNDS
1002
{
1070
    19
1002
}
  0
LINE
  5
26F
100
AcDbEntity
  8
DISEGNO
100
AcDbLine
 10
129.768795
 20
217.581223
 30
0.0
 11
112.768795
 21
217.581223
 31
0.0
1001
ACAD
1000
ASC_BOUNDS
1002
{
1070
    19
1002
}
  0
LINE
  5
270
100
AcDbEntity
  8
DISEGNO
100
AcDbLine
 10
112.768795
 20
217.581223
 30
0.0
 11
112.768795
 21
199.581223
 31
0.0
  0
LINE
  5
271
100
AcDbEntity
  8
DISEGNO
100
AcDbLine
 10
112.768795
 20
199.581223
 30
0.0
 11
129.768795
 21
199.581223
 31
0.0
1001
ACAD
1000
ASC_BOUNDS
1002
{
1070
    19
1002
}
  0
LINE
  5
272
100
AcDbEntity
  8
DISEGNO
100
AcDbLine
 10
74.768795
 20
213.581223
 30
0.0
 11
84.768795
 21
213.581223
 31
0.0
1001
ACAD
1000
ASC_BOUNDS
1002
{
1070
    19
1002
}
  0
LINE
  5
273
100
AcDbEntity
  8
DISEGNO
100
AcDbLine
 10
84.768795
 20
213.581223
 30
0.0
 11
84.768795
 21
203.581223
 31
0.0
  0
LINE
  5
274
100
AcDbEntity
  8
DISEGNO
100
AcDbLine
 10
84.768795
 20
203.581223
 30
0.0
 11
74.768795
 21
203.581223
 31
0.0
1001
ACAD
1000
ASC_BOUNDS
1002
{
1070
    19
1002
}
  0
LINE
  5
275
100
AcDbEntity
  8
DISEGNO
100
AcDbLine
 10
105.768795
 20
237.081223
 30
0.0
 11
105.768795
 21
230.581223
 31
0.0
1001
ACAD
1000
ASC_BOUNDS
1002
{
1070
    19
1002
}
  0
LINE
  5
276
100
AcDbEntity
  8
DISEGNO
100
AcDbLine
 10
105.768795
 20
230.581223
 30
0.0
 11
99.768795
 21
230.581223
 31
0.0
  0
LINE
  5
277
100
AcDbEntity
  8
DISEGNO
100
AcDbLine
 10
99.768795
 20
230.581223
 30
0.0
 11
99.768795
 21
237.081223
 31
0.0
1001
ACAD
1000
ASC_BOUNDS
1002
{
1070
    19
1002
}
  0
LINE
  5
278
100
AcDbEntity
  8
DISEGNO
100
AcDbLine
 10
72.768795
 20
201.581223
 30
0.0
 11
72.768795
 21
179.581223
 31
0.0
1001
ACAD
1000
ASC_BOUNDS
1002
{
1070
    19
1002
}
  0
LINE
  5
279
100
AcDbEntity
  8
DISEGNO
100
AcDbLine
 10
132.768795
 20
220.581223
 30
0.0
 11
132.768795
 21
237.581223
 31
0.0
1001
ACAD
1000
ASC_BOUNDS
1002
{
1070
    19
1002
}
  0
LINE
  5
27A
100
AcDbEntity
  8
DISEGNO
100
AcDbLine
 10
98.268795
 20
238.581223
 30
0.0
 11
73.768795
 21
238.581223
 31
0.0
1001
ACAD
1000
ASC_BOUNDS
1002
{
1070
    19
1002
}
  0
LINE
  5
352
100
AcDbEntity
  8
DISEGNO
100
AcDbLine
 10
131.768795
 20
178.581223
 30
0.0
 11
132.768795
 21
179.581223
 31
0.0
1001
ACAD
1000
ASC_BOUNDS
1002
{
1070
    19
1002
}
  0
LINE
  5
353
100
AcDbEntity
  8
DISEGNO
100
AcDbLine
 10
131.768795
 20
238.581223
 30
0.0
 11
132.768795
 21
237.581223
 31
0.0
1001
ACAD
1000
ASC_BOUNDS
1002
{
1070
    19
1002
}
  0
LINE
  5
354
100
AcDbEntity
  8
DISEGNO
100
AcDbLine
 10
72.768795
 20
237.581223
 30
0.0
 11
73.768795
 21
238.581223
 31
0.0
1001
ACAD
1000
ASC_BOUNDS
1002
{
1070
    19
1002
}
  0
LINE
  5
355
100
AcDbEntity
  8
DISEGNO
100
AcDbLine
 10
72.768795
 20
179.581223
 30
0.0
 11
73.768795
 21
178.581223
 31
0.0
1001
ACAD
1000
ASC_BOUNDS
1002
{
1070
    19
1002
}
  0
ARC
  5
356
100
AcDbEntity
  8
DISEGNO
100
AcDbCircle
 10
98.268795
 20
237.081223
 30
0.0
 40
1.5
100
AcDbArc
 50
0.0
 51
90.0
1001
ACAD
1000
ASC_BOUNDS
1002
{
1070
    19
1002
}
  0
ARC
  5
357
100
AcDbEntity
  8
DISEGNO
100
AcDbCircle
 10
107.268795
 20
237.081223
 30
0.0
 40
1.5
100
AcDbArc
 50
90.0
 51
180.0
1001
ACAD
1000
ASC_BOUNDS
1002
{
1070
    19
1002
}
  0
ARC
  5
36C
100
AcDbEntity
  8
DISEGNO
100
AcDbCircle
 10
74.768795
 20
201.581223
 30
0.0
 40
2.0
100
AcDbArc
 50
90.0
 51
180.0
1001
ACAD
1000
ASC_BOUNDS
1002
{
1070
    19
1002
}
  0
ARC
  5
36D
100
AcDbEntity
  8
DISEGNO
100
AcDbCircle
 10
74.768795
 20
215.581223
 30
0.0
 40
2.0
100
AcDbArc
 50
180.0
 51
270.0
1001
ACAD
1000
ASC_BOUNDS
1002
{
1070
    19
1002
}
  0
ARC
  5
382
100
AcDbEntity
  8
DISEGNO
100
AcDbCircle
 10
129.768795
 20
220.581223
 30
0.0
 40
3.0
100
AcDbArc
 50
270.0
 51
0.0
1001
ACAD
1000
ASC_BOUNDS
1002
{
1070
    19
1002
}
  0
ARC
  5
383
100
AcDbEntity
  8
DISEGNO
100
AcDbCircle
 10
129.768795
 20
196.581223
 30
0.0
 40
3.0
100
AcDbArc
 50
360.0
 51
90.0
1001
ACAD
1000
ASC_BOUNDS
1002
{
1070
    19
1002
}
  0
ENDSEC
  0
SECTION
  2
OBJECTS
  0
DICTIONARY
  5
C
100
AcDbDictionary
  3
ACAD_GROUP
350
D
  3
ACAD_MLINESTYLE
350
E
  0
DICTIONARY
  5
D
102
{ACAD_REACTORS
330
C
102
}
100
AcDbDictionary
  0
DICTIONARY
  5
E
102
{ACAD_REACTORS
330
C
102
}
100
AcDbDictionary
  3
STANDARD
350
1C
  0
MLINESTYLE
  5
1C
102
{ACAD_REACTORS
330
E
102
}
100
AcDbMlineStyle
  2
STANDARD
 70
     0
  3

 62
     0
 51
90.0
 52
90.0
 71
     2
 49
0.5
 62
   256
  6
BYLAYER
 49
-0.5
 62
   256
  6
BYLAYER
  0
ENDSEC
  0
EOF
