  0
SECTION
  2
HEADER
  9
$ACADVER
  1
AC1012
  9
$DWGCODEPAGE
  3
iso8859-1
  9
$INSBASE
 10
0.0
 20
0.0
 30
0.0
  9
$EXTMIN
 10
-59.677557
 20
14.580836
 30
0.0
  9
$EXTMAX
 10
567.193631
 20
213.167774
 30
0.0
  9
$LIMMIN
 10
0.0
 20
0.0
  9
$LIMMAX
 10
210.0
 20
297.0
  9
$ORTHOMODE
 70
     1
  9
$REGENMODE
 70
     1
  9
$FILLMODE
 70
     1
  9
$QTEXTMODE
 70
     0
  9
$MIRRTEXT
 70
     1
  9
$DRAGMODE
 70
     2
  9
$LTSCALE
 40
1.0
  9
$OSMODE
 70
     0
  9
$ATTMODE
 70
     1
  9
$TEXTSIZE
 40
2.5
  9
$TRACEWID
 40
0.05
  9
$TEXTSTYLE
  7
STANDARD
  9
$CLAYER
  8
QUOTE
  9
$CELTYPE
  6
BYLAYER
  9
$CECOLOR
 62
   256
  9
$CELTSCALE
 40
1.0
  9
$DELOBJ
 70
     1
  9
$DISPSILH
 70
     0
  9
$DIMSCALE
 40
1.0
  9
$DIMASZ
 40
2.5
  9
$DIMEXO
 40
0.625
  9
$DIMDLI
 40
3.75
  9
$DIMRND
 40
0.0
  9
$DIMDLE
 40
0.0
  9
$DIMEXE
 40
1.25
  9
$DIMTP
 40
0.0
  9
$DIMTM
 40
0.0
  9
$DIMTXT
 40
3.0
  9
$DIMCEN
 40
2.5
  9
$DIMTSZ
 40
0.0
  9
$DIMTOL
 70
     0
  9
$DIMLIM
 70
     0
  9
$DIMTIH
 70
     0
  9
$DIMTOH
 70
     0
  9
$DIMSE1
 70
     0
  9
$DIMSE2
 70
     0
  9
$DIMTAD
 70
     1
  9
$DIMZIN
 70
     8
  9
$DIMBLK
  1

  9
$DIMASO
 70
     1
  9
$DIMSHO
 70
     1
  9
$DIMPOST
  1

  9
$DIMAPOST
  1

  9
$DIMALT
 70
     0
  9
$DIMALTD
 70
     2
  9
$DIMALTF
 40
0.03937
  9
$DIMLFAC
 40
1.0
  9
$DIMTOFL
 70
     0
  9
$DIMTVP
 40
0.0
  9
$DIMTIX
 70
     0
  9
$DIMSOXD
 70
     0
  9
$DIMSAH
 70
     0
  9
$DIMBLK1
  1

  9
$DIMBLK2
  1

  9
$DIMSTYLE
  2
STANDARD
  9
$DIMCLRD
 70
     0
  9
$DIMCLRE
 70
     0
  9
$DIMCLRT
 70
     0
  9
$DIMTFAC
 40
1.0
  9
$DIMGAP
 40
0.625
  9
$DIMJUST
 70
     0
  9
$DIMSD1
 70
     0
  9
$DIMSD2
 70
     0
  9
$DIMTOLJ
 70
     1
  9
$DIMTZIN
 70
     8
  9
$DIMALTZ
 70
     0
  9
$DIMALTTZ
 70
     0
  9
$DIMFIT
 70
     3
  9
$DIMUPT
 70
     0
  9
$DIMUNIT
 70
     2
  9
$DIMDEC
 70
     2
  9
$DIMTDEC
 70
     2
  9
$DIMALTU
 70
     2
  9
$DIMALTTD
 70
     2
  9
$DIMTXSTY
  7
STANDARD
  9
$DIMAUNIT
 70
     0
  9
$LUNITS
 70
     2
  9
$LUPREC
 70
     4
  9
$SKETCHINC
 40
0.1
  9
$FILLETRAD
 40
15.0
  9
$AUNITS
 70
     0
  9
$AUPREC
 70
     0
  9
$MENU
  1
acad
  9
$ELEVATION
 40
0.0
  9
$PELEVATION
 40
0.0
  9
$THICKNESS
 40
0.0
  9
$LIMCHECK
 70
     0
  9
$BLIPMODE
 70
     1
  9
$CHAMFERA
 40
0.0
  9
$CHAMFERB
 40
0.0
  9
$CHAMFERC
 40
20.0
  9
$CHAMFERD
 40
0.0
  9
$SKPOLY
 70
     0
  9
$TDCREATE
 40
2451759.638766898
  9
$TDUPDATE
 40
2452160.625430324
  9
$TDINDWG
 40
0.1964373843
  9
$TDUSRTIMER
 40
0.1964373843
  9
$USRTIMER
 70
     1
  9
$ANGBASE
 50
0.0
  9
$ANGDIR
 70
     0
  9
$PDMODE
 70
     0
  9
$PDSIZE
 40
0.0
  9
$PLINEWID
 40
0.0
  9
$COORDS
 70
     1
  9
$SPLFRAME
 70
     0
  9
$SPLINETYPE
 70
     6
  9
$SPLINESEGS
 70
     8
  9
$ATTDIA
 70
     0
  9
$ATTREQ
 70
     1
  9
$HANDLING
 70
     1
  9
$HANDSEED
  5
CB9
  9
$SURFTAB1
 70
     6
  9
$SURFTAB2
 70
     6
  9
$SURFTYPE
 70
     6
  9
$SURFU
 70
     6
  9
$SURFV
 70
     6
  9
$UCSNAME
  2

  9
$UCSORG
 10
0.0
 20
0.0
 30
0.0
  9
$UCSXDIR
 10
1.0
 20
0.0
 30
0.0
  9
$UCSYDIR
 10
0.0
 20
1.0
 30
0.0
  9
$PUCSNAME
  2

  9
$PUCSORG
 10
0.0
 20
0.0
 30
0.0
  9
$PUCSXDIR
 10
1.0
 20
0.0
 30
0.0
  9
$PUCSYDIR
 10
0.0
 20
1.0
 30
0.0
  9
$USERI1
 70
     0
  9
$USERI2
 70
     0
  9
$USERI3
 70
     0
  9
$USERI4
 70
     0
  9
$USERI5
 70
     0
  9
$USERR1
 40
0.0
  9
$USERR2
 40
0.0
  9
$USERR3
 40
0.0
  9
$USERR4
 40
0.0
  9
$USERR5
 40
0.0
  9
$WORLDVIEW
 70
     1
  9
$SHADEDGE
 70
     3
  9
$SHADEDIF
 70
    70
  9
$TILEMODE
 70
     1
  9
$MAXACTVP
 70
    16
  9
$PINSBASE
 10
0.0
 20
0.0
 30
0.0
  9
$PLIMCHECK
 70
     0
  9
$PEXTMIN
 10
1.000000E+20
 20
1.000000E+20
 30
1.000000E+20
  9
$PEXTMAX
 10
-1.000000E+20
 20
-1.000000E+20
 30
-1.000000E+20
  9
$PLIMMIN
 10
0.0
 20
0.0
  9
$PLIMMAX
 10
12.0
 20
9.0
  9
$UNITMODE
 70
     0
  9
$VISRETAIN
 70
     0
  9
$PLINEGEN
 70
     0
  9
$PSLTSCALE
 70
     1
  9
$TREEDEPTH
 70
  3020
  9
$PICKSTYLE
 70
     1
  9
$CMLSTYLE
  2
STANDARD
  9
$CMLJUST
 70
     0
  9
$CMLSCALE
 40
20.0
  9
$SAVEIMAGES
 70
     0
  0
ENDSEC
  0
SECTION
  2
CLASSES
  0
ENDSEC
  0
SECTION
  2
TABLES
  0
TABLE
  2
VPORT
  5
8
100
AcDbSymbolTable
 70
     2
  0
VPORT
  5
CB8
100
AcDbSymbolTableRecord
100
AcDbViewportTableRecord
  2
*ACTIVE
 70
     0
 10
0.0
 20
0.0
 11
1.0
 21
1.0
 12
260.409995
 22
100.539452
 13
0.0
 23
0.0
 14
10.0
 24
10.0
 15
10.0
 25
10.0
 16
0.0
 26
0.0
 36
1.0
 17
0.0
 27
0.0
 37
0.0
 40
395.887861
 41
1.650113
 42
50.0
 43
0.0
 44
0.0
 50
0.0
 51
0.0
 71
     0
 72
   100
 73
     1
 74
     0
 75
     0
 76
     0
 77
     0
 78
     0
  0
ENDTAB
  0
TABLE
  2
LTYPE
  5
5
100
AcDbSymbolTable
 70
     4
  0
LTYPE
  5
13
100
AcDbSymbolTableRecord
100
AcDbLinetypeTableRecord
  2
BYBLOCK
 70
     0
  3

 72
    65
 73
     0
 40
0.0
  0
LTYPE
  5
14
100
AcDbSymbolTableRecord
100
AcDbLinetypeTableRecord
  2
BYLAYER
 70
     0
  3

 72
    65
 73
     0
 40
0.0
  0
LTYPE
  5
15
100
AcDbSymbolTableRecord
100
AcDbLinetypeTableRecord
  2
CONTINUOUS
 70
    64
  3
Solid line
 72
    65
 73
     0
 40
0.0
  0
LTYPE
  5
94
100
AcDbSymbolTableRecord
100
AcDbLinetypeTableRecord
  2
ACAD_ISO04W100
 70
    64
  3
____ . ____ . ____ . ____ . ____ . ____ . ____ 
 72
    65
 73
     4
 40
30.5
 49
24.0
 74
     0
 49
-3.0
 74
     0
 49
0.5
 74
     0
 49
-3.0
 74
     0
  0
LTYPE
  5
225
100
AcDbSymbolTableRecord
100
AcDbLinetypeTableRecord
  2
TRATTEGGIATAX2
 70
    64
  3
____  ____  ____  ____  ____  ____  ____  ____ 
 72
    65
 73
     2
 40
1.5
 49
1.0
 74
     0
 49
-0.5
 74
     0
  0
LTYPE
  5
226
100
AcDbSymbolTableRecord
100
AcDbLinetypeTableRecord
  2
NASCOSTA
 70
    64
  3
__ __ __ __ __ __ __ __ __ __ __ __ __ __ __ __
 72
    65
 73
     2
 40
0.375
 49
0.25
 74
     0
 49
-0.125
 74
     0
  0
ENDTAB
  0
TABLE
  2
LAYER
  5
2
100
AcDbSymbolTable
 70
     9
  0
LAYER
  5
F
100
AcDbSymbolTableRecord
100
AcDbLayerTableRecord
  2
0
 70
     0
 62
     7
  6
CONTINUOUS
  0
LAYER
  5
95
100
AcDbSymbolTableRecord
100
AcDbLayerTableRecord
  2
DISEGNO
 70
    64
 62
     7
  6
CONTINUOUS
  0
LAYER
  5
96
100
AcDbSymbolTableRecord
100
AcDbLayerTableRecord
  2
ASSI
 70
    64
 62
     1
  6
ACAD_ISO04W100
  0
LAYER
  5
97
100
AcDbSymbolTableRecord
100
AcDbLayerTableRecord
  2
SEZIONE
 70
    64
 62
     3
  6
CONTINUOUS
  0
LAYER
  5
98
100
AcDbSymbolTableRecord
100
AcDbLayerTableRecord
  2
TEMPRA
 70
    64
 62
     2
  6
CONTINUOUS
  0
LAYER
  5
99
100
AcDbSymbolTableRecord
100
AcDbLayerTableRecord
  2
QUOTE
 70
    64
 62
     5
  6
CONTINUOUS
  0
LAYER
  5
9A
100
AcDbSymbolTableRecord
100
AcDbLayerTableRecord
  2
FOGLIO
 70
    64
 62
     8
  6
CONTINUOUS
  0
LAYER
  5
1A3
100
AcDbSymbolTableRecord
100
AcDbLayerTableRecord
  2
TRATTO
 70
    64
 62
     6
  6
NASCOSTA
  0
LAYER
  5
343
100
AcDbSymbolTableRecord
100
AcDbLayerTableRecord
  2
DEFPOINTS
 70
    64
 62
     7
  6
CONTINUOUS
  0
ENDTAB
  0
TABLE
  2
STYLE
  5
3
100
AcDbSymbolTable
 70
     2
  0
STYLE
  5
10
100
AcDbSymbolTableRecord
100
AcDbTextStyleTableRecord
  2
STANDARD
 70
    64
 40
0.0
 41
1.1
 50
0.0
 71
     0
 42
2.5
  3
D:\Programmi\AutoCAD LT\isocp.shx
  4

  0
STYLE
  5
B0
100
AcDbSymbolTableRecord
100
AcDbTextStyleTableRecord
  2
STYLE3
 70
    64
 40
0.0
 41
1.5
 50
0.0
 71
     0
 42
4.0
  3
C:\Programmi\AutoCAD LT\isocp3.shx
  4

  0
ENDTAB
  0
TABLE
  2
VIEW
  5
6
100
AcDbSymbolTable
 70
     0
  0
ENDTAB
  0
TABLE
  2
UCS
  5
7
100
AcDbSymbolTable
 70
     0
  0
ENDTAB
  0
TABLE
  2
APPID
  5
9
100
AcDbSymbolTable
 70
     1
  0
APPID
  5
11
100
AcDbSymbolTableRecord
100
AcDbRegAppTableRecord
  2
ACAD
 70
     0
  0
ENDTAB
  0
TABLE
  2
DIMSTYLE
  5
A
100
AcDbSymbolTable
 70
     9
  0
DIMSTYLE
105
1D
100
AcDbSymbolTableRecord
100
AcDbDimStyleTableRecord
  2
STANDARD
 70
     0
  3

  4

  5

  6

  7

 40
1.0
 41
2.5
 42
0.625
 43
3.75
 44
1.25
 45
0.0
 46
0.0
 47
0.0
 48
0.0
140
3.0
141
2.5
142
0.0
143
0.03937
144
1.0
145
0.0
146
1.0
147
0.625
 71
     0
 72
     0
 73
     0
 74
     0
 75
     0
 76
     0
 77
     1
 78
     8
170
     0
171
     2
172
     0
173
     0
174
     0
175
     0
176
     0
177
     0
178
     0
270
     2
271
     2
272
     2
273
     2
274
     2
340
10
275
     0
280
     0
281
     0
282
     0
283
     1
284
     8
285
     0
286
     0
287
     3
288
     0
  0
DIMSTYLE
105
198
100
AcDbSymbolTableRecord
100
AcDbDimStyleTableRecord
  2
TOLL-06
 70
     0
  3

  4

  5

  6

  7

 40
1.0
 41
2.5
 42
0.625
 43
3.75
 44
1.25
 45
0.0
 46
0.0
 47
-0.1
 48
0.0
140
3.0
141
2.5
142
0.0
143
0.03937
144
1.0
145
0.0
146
0.8
147
0.625
 71
     1
 72
     0
 73
     0
 74
     0
 75
     0
 76
     0
 77
     1
 78
     8
170
     0
171
     2
172
     0
173
     0
174
     0
175
     0
176
     0
177
     0
178
     0
270
     2
271
     2
272
     2
273
     2
274
     2
340
10
275
     0
280
     0
281
     0
282
     0
283
     2
284
     8
285
     0
286
     0
287
     3
288
     0
  0
DIMSTYLE
105
20B
100
AcDbSymbolTableRecord
100
AcDbDimStyleTableRecord
  2
TOLL-01
 70
     0
  3

  4

  5

  6

  7

 40
1.0
 41
2.5
 42
0.625
 43
3.75
 44
1.25
 45
0.0
 46
0.0
 47
0.02
 48
0.0
140
3.0
141
2.5
142
0.0
143
0.03937
144
1.0
145
0.0
146
0.8
147
0.625
 71
     1
 72
     0
 73
     0
 74
     0
 75
     0
 76
     0
 77
     1
 78
     8
170
     0
171
     2
172
     0
173
     0
174
     0
175
     0
176
     0
177
     0
178
     0
270
     2
271
     2
272
     2
273
     2
274
     2
340
10
275
     0
280
     0
281
     0
282
     0
283
     2
284
     8
285
     0
286
     0
287
     3
288
     0
  0
DIMSTYLE
105
232
100
AcDbSymbolTableRecord
100
AcDbDimStyleTableRecord
  2
TOLL-02
 70
     0
  3

  4

  5

  6

  7

 40
1.0
 41
2.5
 42
0.625
 43
3.75
 44
1.25
 45
0.0
 46
0.0
 47
0.0
 48
-0.02
140
3.0
141
2.5
142
0.0
143
0.03937
144
1.0
145
0.0
146
0.8
147
0.625
 71
     1
 72
     0
 73
     0
 74
     0
 75
     0
 76
     0
 77
     1
 78
     8
170
     0
171
     2
172
     0
173
     0
174
     0
175
     0
176
     0
177
     0
178
     0
270
     2
271
     2
272
     2
273
     2
274
     2
340
10
275
     0
280
     0
281
     0
282
     0
283
     2
284
     8
285
     0
286
     0
287
     3
288
     0
  0
DIMSTYLE
105
233
100
AcDbSymbolTableRecord
100
AcDbDimStyleTableRecord
  2
TOLL-03
 70
     0
  3

  4

  5

  6

  7

 40
1.0
 41
2.5
 42
0.625
 43
3.75
 44
1.25
 45
0.0
 46
0.0
 47
0.01
 48
0.01
140
3.0
141
2.5
142
0.0
143
0.03937
144
1.0
145
0.0
146
0.8
147
0.625
 71
     1
 72
     0
 73
     0
 74
     0
 75
     0
 76
     0
 77
     1
 78
     8
170
     0
171
     2
172
     0
173
     0
174
     0
175
     0
176
     0
177
     0
178
     0
270
     2
271
     2
272
     2
273
     2
274
     2
340
10
275
     0
280
     0
281
     0
282
     0
283
     2
284
     8
285
     0
286
     0
287
     3
288
     0
  0
DIMSTYLE
105
234
100
AcDbSymbolTableRecord
100
AcDbDimStyleTableRecord
  2
TOLL-04
 70
     0
  3

  4

  5

  6

  7

 40
1.0
 41
2.5
 42
0.625
 43
3.75
 44
1.25
 45
0.0
 46
0.0
 47
0.05
 48
0.05
140
3.0
141
2.5
142
0.0
143
0.03937
144
1.0
145
0.0
146
0.8
147
0.625
 71
     1
 72
     0
 73
     0
 74
     0
 75
     0
 76
     0
 77
     1
 78
     8
170
     0
171
     2
172
     0
173
     0
174
     0
175
     0
176
     0
177
     0
178
     0
270
     2
271
     2
272
     2
273
     2
274
     2
340
10
275
     0
280
     0
281
     0
282
     0
283
     2
284
     8
285
     0
286
     0
287
     3
288
     0
  0
DIMSTYLE
105
235
100
AcDbSymbolTableRecord
100
AcDbDimStyleTableRecord
  2
TOLL-05
 70
     0
  3

  4

  5

  6

  7

 40
1.0
 41
2.5
 42
0.625
 43
3.75
 44
1.25
 45
0.0
 46
0.0
 47
0.1
 48
0.0
140
3.0
141
2.5
142
0.0
143
0.03937
144
1.0
145
0.0
146
0.8
147
0.625
 71
     1
 72
     0
 73
     0
 74
     0
 75
     0
 76
     0
 77
     1
 78
     8
170
     0
171
     2
172
     0
173
     0
174
     0
175
     0
176
     0
177
     0
178
     0
270
     2
271
     2
272
     2
273
     2
274
     2
340
10
275
     0
280
     0
281
     0
282
     0
283
     2
284
     8
285
     0
286
     0
287
     3
288
     0
  0
DIMSTYLE
105
38A
100
AcDbSymbolTableRecord
100
AcDbDimStyleTableRecord
  2
TOLL-07
 70
     0
  3

  4

  5

  6

  7

 40
1.0
 41
2.5
 42
0.625
 43
3.75
 44
1.25
 45
0.0
 46
0.0
 47
0.05
 48
0.0
140
3.0
141
2.5
142
0.0
143
0.03937
144
1.0
145
0.0
146
0.8
147
0.625
 71
     1
 72
     0
 73
     0
 74
     0
 75
     0
 76
     0
 77
     1
 78
     8
170
     0
171
     2
172
     0
173
     0
174
     0
175
     0
176
     0
177
     0
178
     0
270
     2
271
     2
272
     2
273
     2
274
     2
340
10
275
     0
280
     0
281
     0
282
     0
283
     2
284
     8
285
     0
286
     0
287
     3
288
     0
  0
DIMSTYLE
105
C67
100
AcDbSymbolTableRecord
100
AcDbDimStyleTableRecord
  2
TOLL-08
 70
     0
  3

  4

  5

  6

  7

 40
1.0
 41
2.5
 42
0.625
 43
3.75
 44
1.25
 45
0.0
 46
0.0
 47
0.1
 48
0.1
140
3.0
141
2.5
142
0.0
143
0.03937
144
1.0
145
0.0
146
1.0
147
0.625
 71
     1
 72
     0
 73
     0
 74
     0
 75
     0
 76
     0
 77
     1
 78
     8
170
     0
171
     2
172
     0
173
     0
174
     0
175
     0
176
     0
177
     0
178
     0
270
     2
271
     2
272
     2
273
     2
274
     2
340
10
275
     0
280
     0
281
     0
282
     0
283
     1
284
     8
285
     0
286
     0
287
     3
288
     0
  0
ENDTAB
  0
TABLE
  2
BLOCK_RECORD
  5
1
100
AcDbSymbolTable
 70
    35
  0
BLOCK_RECORD
  5
19
100
AcDbSymbolTableRecord
100
AcDbBlockTableRecord
  2
*MODEL_SPACE
  0
BLOCK_RECORD
  5
16
100
AcDbSymbolTableRecord
100
AcDbBlockTableRecord
  2
*PAPER_SPACE
  0
BLOCK_RECORD
  5
27A
100
AcDbSymbolTableRecord
100
AcDbBlockTableRecord
  2
A$CB1E3
  0
BLOCK_RECORD
  5
33B
100
AcDbSymbolTableRecord
100
AcDbBlockTableRecord
  2
*D1
  0
BLOCK_RECORD
  5
396
100
AcDbSymbolTableRecord
100
AcDbBlockTableRecord
  2
*D2
  0
BLOCK_RECORD
  5
3A3
100
AcDbSymbolTableRecord
100
AcDbBlockTableRecord
  2
*D3
  0
BLOCK_RECORD
  5
3B0
100
AcDbSymbolTableRecord
100
AcDbBlockTableRecord
  2
*D4
  0
BLOCK_RECORD
  5
3EC
100
AcDbSymbolTableRecord
100
AcDbBlockTableRecord
  2
*D5
  0
BLOCK_RECORD
  5
403
100
AcDbSymbolTableRecord
100
AcDbBlockTableRecord
  2
*D6
  0
BLOCK_RECORD
  5
544
100
AcDbSymbolTableRecord
100
AcDbBlockTableRecord
  2
*X7
  0
BLOCK_RECORD
  5
63C
100
AcDbSymbolTableRecord
100
AcDbBlockTableRecord
  2
*D8
  0
BLOCK_RECORD
  5
64C
100
AcDbSymbolTableRecord
100
AcDbBlockTableRecord
  2
RUGOSITA
  0
BLOCK_RECORD
  5
682
100
AcDbSymbolTableRecord
100
AcDbBlockTableRecord
  2
*D10
  0
BLOCK_RECORD
  5
6DE
100
AcDbSymbolTableRecord
100
AcDbBlockTableRecord
  2
*D11
  0
BLOCK_RECORD
  5
6E8
100
AcDbSymbolTableRecord
100
AcDbBlockTableRecord
  2
*D12
  0
BLOCK_RECORD
  5
722
100
AcDbSymbolTableRecord
100
AcDbBlockTableRecord
  2
A$CC223
  0
BLOCK_RECORD
  5
74F
100
AcDbSymbolTableRecord
100
AcDbBlockTableRecord
  2
*D14
  0
BLOCK_RECORD
  5
8A1
100
AcDbSymbolTableRecord
100
AcDbBlockTableRecord
  2
*D15
  0
BLOCK_RECORD
  5
8B6
100
AcDbSymbolTableRecord
100
AcDbBlockTableRecord
  2
*D16
  0
BLOCK_RECORD
  5
8EE
100
AcDbSymbolTableRecord
100
AcDbBlockTableRecord
  2
*D17
  0
BLOCK_RECORD
  5
8FF
100
AcDbSymbolTableRecord
100
AcDbBlockTableRecord
  2
*D18
  0
BLOCK_RECORD
  5
90C
100
AcDbSymbolTableRecord
100
AcDbBlockTableRecord
  2
*D19
  0
BLOCK_RECORD
  5
919
100
AcDbSymbolTableRecord
100
AcDbBlockTableRecord
  2
*D20
  0
BLOCK_RECORD
  5
93C
100
AcDbSymbolTableRecord
100
AcDbBlockTableRecord
  2
*D21
  0
BLOCK_RECORD
  5
A5F
100
AcDbSymbolTableRecord
100
AcDbBlockTableRecord
  2
*D23
  0
BLOCK_RECORD
  5
A71
100
AcDbSymbolTableRecord
100
AcDbBlockTableRecord
  2
*D24
  0
BLOCK_RECORD
  5
AA5
100
AcDbSymbolTableRecord
100
AcDbBlockTableRecord
  2
*D25
  0
BLOCK_RECORD
  5
AAF
100
AcDbSymbolTableRecord
100
AcDbBlockTableRecord
  2
*D26
  0
BLOCK_RECORD
  5
B28
100
AcDbSymbolTableRecord
100
AcDbBlockTableRecord
  2
*D28
  0
BLOCK_RECORD
  5
B36
100
AcDbSymbolTableRecord
100
AcDbBlockTableRecord
  2
*D29
  0
BLOCK_RECORD
  5
B93
100
AcDbSymbolTableRecord
100
AcDbBlockTableRecord
  2
*X30
  0
BLOCK_RECORD
  5
C3C
100
AcDbSymbolTableRecord
100
AcDbBlockTableRecord
  2
*D31
  0
BLOCK_RECORD
  5
C4A
100
AcDbSymbolTableRecord
100
AcDbBlockTableRecord
  2
*D32
  0
BLOCK_RECORD
  5
C5A
100
AcDbSymbolTableRecord
100
AcDbBlockTableRecord
  2
*D33
  0
BLOCK_RECORD
  5
C7E
100
AcDbSymbolTableRecord
100
AcDbBlockTableRecord
  2
*D34
  0
ENDTAB
  0
ENDSEC
  0
SECTION
  2
BLOCKS
  0
BLOCK
  5
1A
100
AcDbEntity
  8
0
100
AcDbBlockBegin
  2
*MODEL_SPACE
 70
     0
 10
0.0
 20
0.0
 30
0.0
  3
*MODEL_SPACE
  1

  0
ENDBLK
  5
1B
100
AcDbEntity
  8
0
100
AcDbBlockEnd
  0
BLOCK
  5
17
100
AcDbEntity
 67
     1
  8
0
100
AcDbBlockBegin
  2
*PAPER_SPACE
 70
     0
 10
0.0
 20
0.0
 30
0.0
  3
*PAPER_SPACE
  1

  0
ENDBLK
  5
18
100
AcDbEntity
 67
     1
  8
0
100
AcDbBlockEnd
  0
BLOCK
  5
31F
100
AcDbEntity
  8
FOGLIO
100
AcDbBlockBegin
  2
A$CB1E3
 70
     0
 10
0.0
 20
0.0
 30
0.0
  3
A$CB1E3
  1

  0
TEXT
  5
27B
100
AcDbEntity
  8
FOGLIO
100
AcDbText
 10
72.990774
 20
5.912642
 30
0.0
 40
2.0
  1
VIGOLZONE(PIACENZA)-ITALIA
 41
1.1
100
AcDbText
  0
TEXT
  5
27C
100
AcDbEntity
  8
FOGLIO
100
AcDbText
 10
77.709899
 20
12.649015
 30
0.0
 40
5.0
  1
ROLLERI
 41
1.1
100
AcDbText
  0
TEXT
  5
27D
100
AcDbEntity
  8
FOGLIO
100
AcDbText
 10
73.716649
 20
32.404698
 30
0.0
 40
2.0
  1
DISEGNATO DA                    CONTROLLATO DA                   APPROVATO DA-DATA
 41
1.1
100
AcDbText
  0
TEXT
  5
27E
100
AcDbEntity
  8
FOGLIO
100
AcDbText
 10
73.716649
 20
42.172438
 30
0.0
 40
2.0
  1
MATERIALE                         DIMENSIONI DI PRELIEVO          TRATTAMENTO TERMICO
 41
1.1
100
AcDbText
  0
TEXT
  5
27F
100
AcDbEntity
  8
FOGLIO
100
AcDbText
 10
20.463271
 20
279.394942
 30
0.0
 40
4.0
  1
6                5                  4                  3                  2                 1
100
AcDbText
  0
LINE
  5
280
100
AcDbEntity
  8
FOGLIO
100
AcDbLine
 10
102.758517
 20
9.242947
 30
0.0
 11
76.758517
 21
9.242947
 31
0.0
  0
LINE
  5
281
100
AcDbEntity
  8
FOGLIO
100
AcDbLine
 10
79.258517
 20
21.169227
 30
0.0
 11
105.258517
 21
21.169227
 31
0.0
  0
LINE
  5
282
100
AcDbEntity
  8
FOGLIO
100
AcDbLine
 10
79.258517
 20
19.969227
 30
0.0
 11
105.258517
 21
19.969227
 31
0.0
  0
LINE
  5
283
100
AcDbEntity
  8
FOGLIO
100
AcDbLine
 10
102.758517
 20
10.442947
 30
0.0
 11
76.758517
 21
10.442947
 31
0.0
  0
LINE
  5
284
100
AcDbEntity
  8
FOGLIO
100
AcDbLine
 10
5.758517
 20
278.442947
 30
0.0
 11
190.758517
 21
278.442947
 31
0.0
  0
LINE
  5
285
100
AcDbEntity
  8
FOGLIO
100
AcDbLine
 10
98.558517
 20
5.442947
 30
0.0
 11
130.158517
 21
5.442947
 31
0.0
  0
LINE
  5
286
100
AcDbEntity
  8
FOGLIO
100
AcDbLine
 10
63.758517
 20
5.442947
 30
0.0
 11
108.758517
 21
5.442947
 31
0.0
  0
LINE
  5
287
100
AcDbEntity
  8
FOGLIO
100
AcDbLine
 10
93.758517
 20
25.442947
 30
0.0
 11
123.758517
 21
25.442947
 31
0.0
  0
LINE
  5
288
100
AcDbEntity
  8
FOGLIO
100
AcDbLine
 10
93.758517
 20
35.442947
 30
0.0
 11
123.758517
 21
35.442947
 31
0.0
  0
LINE
  5
289
100
AcDbEntity
  8
FOGLIO
100
AcDbLine
 10
108.758517
 20
35.442947
 30
0.0
 11
71.758517
 21
35.442947
 31
0.0
  0
LINE
  5
28A
100
AcDbEntity
  8
FOGLIO
100
AcDbLine
 10
69.758517
 20
45.442947
 30
0.0
 11
108.758517
 21
45.442947
 31
0.0
  0
LINE
  5
28B
100
AcDbEntity
  8
FOGLIO
100
AcDbLine
 10
190.758517
 20
5.442947
 30
0.0
 11
5.758517
 21
5.442947
 31
0.0
  0
LINE
  5
28C
100
AcDbEntity
  8
FOGLIO
100
AcDbLine
 10
5.758517
 20
5.442947
 30
0.0
 11
5.758517
 21
278.442947
 31
0.0
  0
TEXT
  5
28D
100
AcDbEntity
  8
FOGLIO
100
AcDbText
 10
6.508242
 20
45.926474
 30
0.0
 40
1.5
  1
A termine di legge la ROLLERI si riserva la proprietà di questo disegno, con divieto di riprodurlo e di comunicarlo a terzi
 41
0.8
100
AcDbText
  0
LINE
  5
28E
100
AcDbEntity
  8
FOGLIO
100
AcDbLine
 10
5.758517
 20
48.28413
 30
0.0
 11
73.353476
 21
48.28413
 31
0.0
  0
TEXT
  5
28F
100
AcDbEntity
  8
FOGLIO
100
AcDbText
 10
8.997223
 20
13.551527
 30
0.0
 40
2.0
  1
-Interassi fori =+/- 0.25
 41
1.1
100
AcDbText
  0
TEXT
  5
290
100
AcDbEntity
  8
FOGLIO
100
AcDbText
 10
8.997223
 20
17.351527
 30
0.0
 40
2.0
  1
- Angoli su superfici lavorate =+/- 30
 41
1.1
100
AcDbText
  0
TEXT
  5
291
100
AcDbEntity
  8
FOGLIO
100
AcDbText
 10
8.997223
 20
21.151527
 30
0.0
 40
2.0
  1
oltre 500 mm =+/-0.5
 41
1.1
100
AcDbText
  0
TEXT
  5
292
100
AcDbEntity
  8
FOGLIO
100
AcDbText
 10
8.997223
 20
24.951527
 30
0.0
 40
2.0
  1
da mm 151 a mm500 =+/- 0.4
 41
1.1
100
AcDbText
  0
TEXT
  5
293
100
AcDbEntity
  8
FOGLIO
100
AcDbText
 10
8.997223
 20
28.751527
 30
0.0
 40
2.0
  1
da mm 51 a mm 150 =+/-0.3
 41
1.1
100
AcDbText
  0
TEXT
  5
294
100
AcDbEntity
  8
FOGLIO
100
AcDbText
 10
8.997223
 20
32.551527
 30
0.0
 40
2.0
  1
-Superfici lavorate da mm 1 a mm50 =+/-0.2
 41
1.1
100
AcDbText
  0
TEXT
  5
295
100
AcDbEntity
  8
FOGLIO
100
AcDbText
 10
8.997223
 20
36.351527
 30
0.0
 40
2.0
  1
-Parti fuse con spessori <10mm=+/-1mm
 41
1.1
100
AcDbText
  0
TEXT
  5
296
100
AcDbEntity
  8
FOGLIO
100
AcDbText
 10
8.997223
 20
40.151527
 30
0.0
 40
2.0
  1
TOLLERANZE GENERALI:
 41
1.1
100
AcDbText
  0
LINE
  5
297
100
AcDbEntity
  8
FOGLIO
100
AcDbLine
 10
69.758517
 20
45.442947
 30
0.0
 11
5.758517
 21
45.442947
 31
0.0
  0
LINE
  5
298
100
AcDbEntity
  8
FOGLIO
100
AcDbLine
 10
5.758517
 20
5.442947
 30
0.0
 11
35.358517
 21
5.442947
 31
0.0
  0
LINE
  5
299
100
AcDbEntity
  8
FOGLIO
100
AcDbLine
 10
5.758517
 20
5.442947
 30
0.0
 11
63.758517
 21
5.442947
 31
0.0
  0
TEXT
  5
29A
100
AcDbEntity
  8
FOGLIO
100
AcDbText
 10
17.662381
 20
1.369772
 30
0.0
 40
3.5
  1
6
 41
0.8
  7
STYLE3
100
AcDbText
  0
TEXT
  5
29B
100
AcDbEntity
  8
FOGLIO
100
AcDbText
 10
0.608437
 20
21.593149
 30
0.0
 40
4.0
  1
A
 41
0.9
  7
STYLE3
100
AcDbText
  0
LINE
  5
29C
100
AcDbEntity
  8
FOGLIO
100
AcDbLine
 10
3.758517
 20
40.042947
 30
0.0
 11
5.758517
 21
40.042947
 31
0.0
  0
LINE
  5
29D
100
AcDbEntity
  8
FOGLIO
100
AcDbLine
 10
3.758517
 20
40.042947
 30
0.0
 11
0.758517
 21
40.042947
 31
0.0
  0
TEXT
  5
29E
100
AcDbEntity
  8
FOGLIO
100
AcDbText
 10
1.047191
 20
54.912566
 30
0.0
 40
4.0
  1
B
 41
0.9
  7
STYLE3
100
AcDbText
  0
LINE
  5
29F
100
AcDbEntity
  8
FOGLIO
100
AcDbLine
 10
3.758517
 20
74.642947
 30
0.0
 11
5.758517
 21
74.642947
 31
0.0
  0
LINE
  5
2A0
100
AcDbEntity
  8
FOGLIO
100
AcDbLine
 10
3.758517
 20
74.642947
 30
0.0
 11
0.758517
 21
74.642947
 31
0.0
  0
TEXT
  5
2A1
100
AcDbEntity
  8
FOGLIO
100
AcDbText
 10
0.608437
 20
87.355156
 30
0.0
 40
4.0
  1
C
 41
0.9
  7
STYLE3
100
AcDbText
  0
TEXT
  5
2A2
100
AcDbEntity
  8
FOGLIO
100
AcDbText
 10
0.629193
 20
120.069231
 30
0.0
 40
4.0
  1
D
 41
0.9
  7
STYLE3
100
AcDbText
  0
LINE
  5
2A3
100
AcDbEntity
  8
FOGLIO
100
AcDbLine
 10
3.758517
 20
109.242947
 30
0.0
 11
5.758517
 21
109.242947
 31
0.0
  0
LINE
  5
2A4
100
AcDbEntity
  8
FOGLIO
100
AcDbLine
 10
3.758517
 20
109.242947
 30
0.0
 11
0.758517
 21
109.242947
 31
0.0
  0
LINE
  5
2A5
100
AcDbEntity
  8
FOGLIO
100
AcDbLine
 10
3.758517
 20
143.842947
 30
0.0
 11
5.758517
 21
143.842947
 31
0.0
  0
LINE
  5
2A6
100
AcDbEntity
  8
FOGLIO
100
AcDbLine
 10
3.758517
 20
143.842947
 30
0.0
 11
0.758517
 21
143.842947
 31
0.0
  0
LINE
  5
2A7
100
AcDbEntity
  8
FOGLIO
100
AcDbLine
 10
35.358517
 20
5.442947
 30
0.0
 11
66.958517
 21
5.442947
 31
0.0
  0
LINE
  5
2A8
100
AcDbEntity
  8
FOGLIO
100
AcDbLine
 10
35.358517
 20
5.442947
 30
0.0
 11
35.358517
 21
0.442947
 31
0.0
  0
LINE
  5
2A9
100
AcDbEntity
  8
FOGLIO
100
AcDbLine
 10
35.358517
 20
5.442947
 30
0.0
 11
35.358517
 21
0.442947
 31
0.0
  0
TEXT
  5
2AA
100
AcDbEntity
  8
FOGLIO
100
AcDbText
 10
49.691426
 20
1.369772
 30
0.0
 40
3.5
  1
5
 41
0.8
  7
STYLE3
100
AcDbText
  0
LINE
  5
2AB
100
AcDbEntity
  8
FOGLIO
100
AcDbLine
 10
98.558517
 20
5.442947
 30
0.0
 11
98.558517
 21
0.442947
 31
0.0
  0
LINE
  5
2AC
100
AcDbEntity
  8
FOGLIO
100
AcDbLine
 10
66.958517
 20
5.442947
 30
0.0
 11
66.958517
 21
0.442947
 31
0.0
  0
LINE
  5
2AD
100
AcDbEntity
  8
FOGLIO
100
AcDbLine
 10
98.558517
 20
5.442947
 30
0.0
 11
98.558517
 21
0.442947
 31
0.0
  0
LINE
  5
2AE
100
AcDbEntity
  8
FOGLIO
100
AcDbLine
 10
66.958517
 20
5.442947
 30
0.0
 11
66.958517
 21
0.442947
 31
0.0
  0
TEXT
  5
2AF
100
AcDbEntity
  8
FOGLIO
100
AcDbText
 10
81.281714
 20
1.369772
 30
0.0
 40
3.5
  1
4
 41
0.8
  7
STYLE3
100
AcDbText
  0
LINE
  5
2B0
100
AcDbEntity
  8
FOGLIO
100
AcDbLine
 10
73.353476
 20
48.28413
 30
0.0
 11
93.745167
 21
48.28413
 31
0.0
  0
LINE
  5
2B1
100
AcDbEntity
  8
FOGLIO
100
AcDbLine
 10
66.958517
 20
5.442947
 30
0.0
 11
98.558517
 21
5.442947
 31
0.0
  0
LINE
  5
2B2
100
AcDbEntity
  8
FOGLIO
100
AcDbLine
 10
71.758517
 20
25.442947
 30
0.0
 11
93.758517
 21
25.442947
 31
0.0
  0
LINE
  5
2B3
100
AcDbEntity
  8
FOGLIO
100
AcDbLine
 10
71.758517
 20
5.442947
 30
0.0
 11
71.758517
 21
45.442947
 31
0.0
  0
LINE
  5
2B4
100
AcDbEntity
  8
FOGLIO
100
AcDbLine
 10
74.219286
 20
13.641023
 30
0.0
 11
73.872876
 21
13.041023
 31
0.0
  0
LINE
  5
2B5
100
AcDbEntity
  8
FOGLIO
100
AcDbLine
 10
74.219286
 20
12.441023
 30
0.0
 11
73.872876
 21
13.041023
 31
0.0
  0
LINE
  5
2B6
100
AcDbEntity
  8
FOGLIO
100
AcDbLine
 10
66.958517
 20
5.442947
 30
0.0
 11
71.958517
 21
5.442947
 31
0.0
  0
LINE
  5
2B7
100
AcDbEntity
  8
FOGLIO
100
AcDbLine
 10
71.758517
 20
16.703201
 30
0.0
 11
71.719286
 21
16.77115
 31
0.0
  0
LINE
  5
2B8
100
AcDbEntity
  8
FOGLIO
100
AcDbLine
 10
74.219286
 20
13.641023
 30
0.0
 11
78.219286
 21
20.569227
 31
0.0
  0
LINE
  5
2B9
100
AcDbEntity
  8
FOGLIO
100
AcDbLine
 10
75.258517
 20
13.041023
 30
0.0
 11
79.258517
 21
19.969227
 31
0.0
  0
LINE
  5
2BA
100
AcDbEntity
  8
FOGLIO
100
AcDbLine
 10
75.719286
 20
9.842947
 30
0.0
 11
74.219286
 21
12.441023
 31
0.0
  0
LINE
  5
2BB
100
AcDbEntity
  8
FOGLIO
100
AcDbLine
 10
76.758517
 20
10.442947
 30
0.0
 11
75.258517
 21
13.041023
 31
0.0
  0
LINE
  5
2BC
100
AcDbEntity
  8
FOGLIO
100
AcDbLine
 10
76.758517
 20
9.242947
 30
0.0
 11
76.065696
 21
9.242947
 31
0.0
  0
LINE
  5
2BD
100
AcDbEntity
  8
FOGLIO
100
AcDbLine
 10
75.719286
 20
9.842947
 30
0.0
 11
76.065696
 21
9.242947
 31
0.0
  0
LINE
  5
2BE
100
AcDbEntity
  8
FOGLIO
100
AcDbLine
 10
78.219286
 20
20.569227
 30
0.0
 11
78.565696
 21
21.169227
 31
0.0
  0
LINE
  5
2BF
100
AcDbEntity
  8
FOGLIO
100
AcDbLine
 10
79.258517
 20
21.169227
 30
0.0
 11
78.565696
 21
21.169227
 31
0.0
  0
LINE
  5
2C0
100
AcDbEntity
  8
FOGLIO
100
AcDbLine
 10
93.745167
 20
48.28413
 30
0.0
 11
93.745167
 21
45.442947
 31
0.0
  0
TEXT
  5
2C1
100
AcDbEntity
  8
FOGLIO
100
AcDbText
 10
0.629193
 20
156.457541
 30
0.0
 40
4.0
  1
E
 41
0.9
  7
STYLE3
100
AcDbText
  0
LINE
  5
2C2
100
AcDbEntity
  8
FOGLIO
100
AcDbLine
 10
3.758517
 20
178.442947
 30
0.0
 11
5.758517
 21
178.442947
 31
0.0
  0
LINE
  5
2C3
100
AcDbEntity
  8
FOGLIO
100
AcDbLine
 10
3.758517
 20
178.442947
 30
0.0
 11
0.758517
 21
178.442947
 31
0.0
  0
TEXT
  5
2C4
100
AcDbEntity
  8
FOGLIO
100
AcDbText
 10
0.629193
 20
191.092197
 30
0.0
 40
4.0
  1
F
 41
0.9
  7
STYLE3
100
AcDbText
  0
LINE
  5
2C5
100
AcDbEntity
  8
FOGLIO
100
AcDbLine
 10
3.758517
 20
213.042947
 30
0.0
 11
5.758517
 21
213.042947
 31
0.0
  0
LINE
  5
2C6
100
AcDbEntity
  8
FOGLIO
100
AcDbLine
 10
3.758517
 20
213.042947
 30
0.0
 11
0.758517
 21
213.042947
 31
0.0
  0
TEXT
  5
2C7
100
AcDbEntity
  8
FOGLIO
100
AcDbText
 10
0.629193
 20
225.726855
 30
0.0
 40
4.0
  1
G
 41
0.9
  7
STYLE3
100
AcDbText
  0
TEXT
  5
2C8
100
AcDbEntity
  8
FOGLIO
100
AcDbText
 10
0.640147
 20
258.274002
 30
0.0
 40
4.0
  1
F
 41
0.9
  7
STYLE3
100
AcDbText
  0
LINE
  5
2C9
100
AcDbEntity
  8
FOGLIO
100
AcDbLine
 10
3.758517
 20
247.642947
 30
0.0
 11
5.758517
 21
247.642947
 31
0.0
  0
LINE
  5
2CA
100
AcDbEntity
  8
FOGLIO
100
AcDbLine
 10
3.758517
 20
247.642947
 30
0.0
 11
0.758517
 21
247.642947
 31
0.0
  0
LINE
  5
2CB
100
AcDbEntity
  8
FOGLIO
100
AcDbLine
 10
35.358517
 20
282.442947
 30
0.0
 11
35.358517
 21
283.442947
 31
0.0
  0
LINE
  5
2CC
100
AcDbEntity
  8
FOGLIO
100
AcDbLine
 10
35.358517
 20
282.442947
 30
0.0
 11
35.358517
 21
278.442947
 31
0.0
  0
LINE
  5
2CD
100
AcDbEntity
  8
FOGLIO
100
AcDbLine
 10
98.558517
 20
282.442947
 30
0.0
 11
98.558517
 21
283.442947
 31
0.0
  0
LINE
  5
2CE
100
AcDbEntity
  8
FOGLIO
100
AcDbLine
 10
66.958517
 20
282.442947
 30
0.0
 11
66.958517
 21
283.442947
 31
0.0
  0
LINE
  5
2CF
100
AcDbEntity
  8
FOGLIO
100
AcDbLine
 10
66.958517
 20
282.442947
 30
0.0
 11
66.958517
 21
278.442947
 31
0.0
  0
LINE
  5
2D0
100
AcDbEntity
  8
FOGLIO
100
AcDbLine
 10
98.558517
 20
282.442947
 30
0.0
 11
98.558517
 21
278.442947
 31
0.0
  0
TEXT
  5
2D1
100
AcDbEntity
  8
FOGLIO
100
AcDbText
 10
190.163956
 20
131.303249
 30
0.0
 40
1.7
  1
DATA            FIRMA           CONTROLL.
 50
90.0
 41
1.1
100
AcDbText
  0
LINE
  5
2D2
100
AcDbEntity
  8
FOGLIO
100
AcDbLine
 10
187.758517
 20
130.442947
 30
0.0
 11
187.758517
 21
145.442947
 31
0.0
  0
LINE
  5
2D3
100
AcDbEntity
  8
FOGLIO
100
AcDbLine
 10
187.758517
 20
175.442947
 30
0.0
 11
187.758517
 21
45.442947
 31
0.0
  0
LINE
  5
2D4
100
AcDbEntity
  8
FOGLIO
100
AcDbLine
 10
190.758517
 20
278.442947
 30
0.0
 11
190.758517
 21
5.442947
 31
0.0
  0
TEXT
  5
2D5
100
AcDbEntity
  8
FOGLIO
100
AcDbText
 10
115.851694
 20
12.532398
 30
0.0
 40
2.0
  1
DISEGNO                           DATA                    SCALA
 41
1.1
100
AcDbText
  0
LINE
  5
2D6
100
AcDbEntity
  8
FOGLIO
100
AcDbLine
 10
108.758517
 20
45.442947
 30
0.0
 11
190.758517
 21
45.442947
 31
0.0
  0
LINE
  5
2D7
100
AcDbEntity
  8
FOGLIO
100
AcDbLine
 10
148.758517
 20
15.442947
 30
0.0
 11
173.758517
 21
15.442947
 31
0.0
  0
LINE
  5
2D8
100
AcDbEntity
  8
FOGLIO
100
AcDbLine
 10
112.758517
 20
15.442947
 30
0.0
 11
168.758517
 21
15.442947
 31
0.0
  0
LINE
  5
2D9
100
AcDbEntity
  8
FOGLIO
100
AcDbLine
 10
163.758517
 20
25.442947
 30
0.0
 11
190.758517
 21
25.442947
 31
0.0
  0
LINE
  5
2DA
100
AcDbEntity
  8
FOGLIO
100
AcDbLine
 10
148.758517
 20
35.442947
 30
0.0
 11
190.758517
 21
35.442947
 31
0.0
  0
TEXT
  5
2DB
100
AcDbEntity
  8
FOGLIO
100
AcDbText
 10
115.851694
 20
21.96332
 30
0.0
 40
2.0
  1
PARTICOLARE
 41
1.1
100
AcDbText
  0
LINE
  5
2DC
100
AcDbEntity
  8
FOGLIO
100
AcDbLine
 10
130.158517
 20
5.442947
 30
0.0
 11
161.758517
 21
5.442947
 31
0.0
  0
LINE
  5
2DD
100
AcDbEntity
  8
FOGLIO
100
AcDbLine
 10
108.758517
 20
5.442947
 30
0.0
 11
148.758517
 21
5.442947
 31
0.0
  0
LINE
  5
2DE
100
AcDbEntity
  8
FOGLIO
100
AcDbLine
 10
123.758517
 20
25.442947
 30
0.0
 11
163.758517
 21
25.442947
 31
0.0
  0
LINE
  5
2DF
100
AcDbEntity
  8
FOGLIO
100
AcDbLine
 10
108.758517
 20
35.442947
 30
0.0
 11
148.758517
 21
35.442947
 31
0.0
  0
LINE
  5
2E0
100
AcDbEntity
  8
FOGLIO
100
AcDbLine
 10
130.158517
 20
5.442947
 30
0.0
 11
130.158517
 21
0.442947
 31
0.0
  0
LINE
  5
2E1
100
AcDbEntity
  8
FOGLIO
100
AcDbLine
 10
130.158517
 20
5.442947
 30
0.0
 11
130.158517
 21
0.442947
 31
0.0
  0
TEXT
  5
2E2
100
AcDbEntity
  8
FOGLIO
100
AcDbText
 10
113.09138
 20
1.369772
 30
0.0
 40
3.5
  1
3 
 41
0.8
  7
STYLE3
100
AcDbText
  0
LINE
  5
2E3
100
AcDbEntity
  8
FOGLIO
100
AcDbLine
 10
108.758517
 20
35.442947
 30
0.0
 11
108.758517
 21
25.442947
 31
0.0
  0
LINE
  5
2E4
100
AcDbEntity
  8
FOGLIO
100
AcDbLine
 10
107.797747
 20
16.77115
 30
0.0
 11
103.797747
 21
9.842947
 31
0.0
  0
LINE
  5
2E5
100
AcDbEntity
  8
FOGLIO
100
AcDbLine
 10
106.297747
 20
20.569227
 30
0.0
 11
107.797747
 21
17.97115
 31
0.0
  0
LINE
  5
2E6
100
AcDbEntity
  8
FOGLIO
100
AcDbLine
 10
106.758517
 20
17.37115
 30
0.0
 11
102.758517
 21
10.442947
 31
0.0
  0
LINE
  5
2E7
100
AcDbEntity
  8
FOGLIO
100
AcDbLine
 10
102.758517
 20
9.242947
 30
0.0
 11
103.451337
 21
9.242947
 31
0.0
  0
LINE
  5
2E8
100
AcDbEntity
  8
FOGLIO
100
AcDbLine
 10
103.797747
 20
9.842947
 30
0.0
 11
103.451337
 21
9.242947
 31
0.0
  0
LINE
  5
2E9
100
AcDbEntity
  8
FOGLIO
100
AcDbLine
 10
105.258517
 20
21.169227
 30
0.0
 11
105.951337
 21
21.169227
 31
0.0
  0
LINE
  5
2EA
100
AcDbEntity
  8
FOGLIO
100
AcDbLine
 10
106.297747
 20
20.569227
 30
0.0
 11
105.951337
 21
21.169227
 31
0.0
  0
LINE
  5
2EB
100
AcDbEntity
  8
FOGLIO
100
AcDbLine
 10
105.258517
 20
19.969227
 30
0.0
 11
106.758517
 21
17.37115
 31
0.0
  0
LINE
  5
2EC
100
AcDbEntity
  8
FOGLIO
100
AcDbLine
 10
112.758517
 20
5.442947
 30
0.0
 11
112.758517
 21
25.442947
 31
0.0
  0
LINE
  5
2ED
100
AcDbEntity
  8
FOGLIO
100
AcDbLine
 10
112.758517
 20
25.442947
 30
0.0
 11
112.758517
 21
15.442947
 31
0.0
  0
LINE
  5
2EE
100
AcDbEntity
  8
FOGLIO
100
AcDbLine
 10
107.797747
 20
17.97115
 30
0.0
 11
108.144157
 21
17.37115
 31
0.0
  0
LINE
  5
2EF
100
AcDbEntity
  8
FOGLIO
100
AcDbLine
 10
107.797747
 20
16.77115
 30
0.0
 11
108.144157
 21
17.37115
 31
0.0
  0
LINE
  5
2F0
100
AcDbEntity
  8
FOGLIO
100
AcDbLine
 10
108.758517
 20
45.442947
 30
0.0
 11
108.758517
 21
35.442947
 31
0.0
  0
LINE
  5
2F1
100
AcDbEntity
  8
FOGLIO
100
AcDbLine
 10
161.758517
 20
5.442947
 30
0.0
 11
161.758517
 21
0.442947
 31
0.0
  0
TEXT
  5
2F2
100
AcDbEntity
  8
FOGLIO
100
AcDbText
 10
144.561454
 20
1.371606
 30
0.0
 40
3.5
  1
2  
 41
0.8
  7
STYLE3
100
AcDbText
  0
LINE
  5
2F3
100
AcDbEntity
  8
FOGLIO
100
AcDbLine
 10
161.758517
 20
5.442947
 30
0.0
 11
161.758517
 21
0.442947
 31
0.0
  0
LINE
  5
2F4
100
AcDbEntity
  8
FOGLIO
100
AcDbLine
 10
148.758517
 20
35.442947
 30
0.0
 11
148.758517
 21
25.442947
 31
0.0
  0
LINE
  5
2F5
100
AcDbEntity
  8
FOGLIO
100
AcDbLine
 10
148.758517
 20
5.442947
 30
0.0
 11
148.758517
 21
15.442947
 31
0.0
  0
LINE
  5
2F6
100
AcDbEntity
  8
FOGLIO
100
AcDbLine
 10
148.758517
 20
35.442947
 30
0.0
 11
148.758517
 21
45.442947
 31
0.0
  0
TEXT
  5
2F7
100
AcDbEntity
  8
FOGLIO
100
AcDbText
 10
190.153326
 20
46.60111
 30
0.0
 40
1.7
  1
N° REV
 50
90.0
 41
1.1
100
AcDbText
  0
LINE
  5
2F8
100
AcDbEntity
  8
FOGLIO
100
AcDbLine
 10
187.758517
 20
45.442947
 30
0.0
 11
187.758517
 21
55.442947
 31
0.0
  0
TEXT
  5
2F9
100
AcDbEntity
  8
FOGLIO
100
AcDbText
 10
176.809871
 20
1.371606
 30
0.0
 40
3.5
  1
1
 41
0.8
  7
STYLE3
100
AcDbText
  0
LINE
  5
2FA
100
AcDbEntity
  8
FOGLIO
100
AcDbLine
 10
168.758517
 20
15.442947
 30
0.0
 11
190.758517
 21
15.442947
 31
0.0
  0
LINE
  5
2FB
100
AcDbEntity
  8
FOGLIO
100
AcDbLine
 10
173.758517
 20
15.442947
 30
0.0
 11
173.758517
 21
5.442947
 31
0.0
  0
TEXT
  5
2FC
100
AcDbEntity
  8
FOGLIO
100
AcDbText
 10
191.929401
 20
21.193256
 30
0.0
 40
4.0
  1
A
 41
0.9
  7
STYLE3
100
AcDbText
  0
LINE
  5
2FD
100
AcDbEntity
  8
FOGLIO
100
AcDbLine
 10
193.758517
 20
40.042947
 30
0.0
 11
190.758517
 21
40.042947
 31
0.0
  0
LINE
  5
2FE
100
AcDbEntity
  8
FOGLIO
100
AcDbLine
 10
193.758517
 20
40.042947
 30
0.0
 11
195.758517
 21
40.042947
 31
0.0
  0
LINE
  5
2FF
100
AcDbEntity
  8
FOGLIO
100
AcDbLine
 10
190.758517
 20
55.442947
 30
0.0
 11
190.758517
 21
130.442947
 31
0.0
  0
TEXT
  5
300
100
AcDbEntity
  8
FOGLIO
100
AcDbText
 10
190.153326
 20
56.70567
 30
0.0
 40
1.7
  1
NOTA DI REVISIONE
 50
90.0
 41
1.1
100
AcDbText
  0
LINE
  5
301
100
AcDbEntity
  8
FOGLIO
100
AcDbLine
 10
187.758517
 20
55.442947
 30
0.0
 11
190.758517
 21
55.442947
 31
0.0
  0
TEXT
  5
302
100
AcDbEntity
  8
FOGLIO
100
AcDbText
 10
191.929401
 20
54.512673
 30
0.0
 40
4.0
  1
B
 41
0.9
  7
STYLE3
100
AcDbText
  0
LINE
  5
303
100
AcDbEntity
  8
FOGLIO
100
AcDbLine
 10
193.758517
 20
74.642947
 30
0.0
 11
190.758517
 21
74.642947
 31
0.0
  0
LINE
  5
304
100
AcDbEntity
  8
FOGLIO
100
AcDbLine
 10
193.758517
 20
74.642947
 30
0.0
 11
195.758517
 21
74.642947
 31
0.0
  0
TEXT
  5
305
100
AcDbEntity
  8
FOGLIO
100
AcDbText
 10
191.929401
 20
86.51685
 30
0.0
 40
4.0
  1
C
 41
0.9
  7
STYLE3
100
AcDbText
  0
TEXT
  5
306
100
AcDbEntity
  8
FOGLIO
100
AcDbText
 10
191.929401
 20
119.836266
 30
0.0
 40
4.0
  1
D
 41
0.9
  7
STYLE3
100
AcDbText
  0
LINE
  5
307
100
AcDbEntity
  8
FOGLIO
100
AcDbLine
 10
193.758517
 20
109.242947
 30
0.0
 11
190.758517
 21
109.242947
 31
0.0
  0
LINE
  5
308
100
AcDbEntity
  8
FOGLIO
100
AcDbLine
 10
193.758517
 20
109.242947
 30
0.0
 11
195.758517
 21
109.242947
 31
0.0
  0
LINE
  5
309
100
AcDbEntity
  8
FOGLIO
100
AcDbLine
 10
190.758517
 20
130.442947
 30
0.0
 11
187.758517
 21
130.442947
 31
0.0
  0
LINE
  5
30A
100
AcDbEntity
  8
FOGLIO
100
AcDbLine
 10
193.758517
 20
143.842947
 30
0.0
 11
190.758517
 21
143.842947
 31
0.0
  0
LINE
  5
30B
100
AcDbEntity
  8
FOGLIO
100
AcDbLine
 10
193.758517
 20
143.842947
 30
0.0
 11
195.758517
 21
143.842947
 31
0.0
  0
LINE
  5
30C
100
AcDbEntity
  8
FOGLIO
100
AcDbLine
 10
130.158517
 20
282.442947
 30
0.0
 11
130.158517
 21
283.442947
 31
0.0
  0
LINE
  5
30D
100
AcDbEntity
  8
FOGLIO
100
AcDbLine
 10
130.158517
 20
282.442947
 30
0.0
 11
130.158517
 21
278.442947
 31
0.0
  0
LINE
  5
30E
100
AcDbEntity
  8
FOGLIO
100
AcDbLine
 10
161.758517
 20
282.442947
 30
0.0
 11
161.758517
 21
283.442947
 31
0.0
  0
LINE
  5
30F
100
AcDbEntity
  8
FOGLIO
100
AcDbLine
 10
161.758517
 20
282.442947
 30
0.0
 11
161.758517
 21
278.442947
 31
0.0
  0
LINE
  5
310
100
AcDbEntity
  8
FOGLIO
100
AcDbLine
 10
187.758517
 20
160.442947
 30
0.0
 11
187.758517
 21
175.442947
 31
0.0
  0
LINE
  5
311
100
AcDbEntity
  8
FOGLIO
100
AcDbLine
 10
190.758517
 20
160.442947
 30
0.0
 11
187.758517
 21
160.442947
 31
0.0
  0
LINE
  5
312
100
AcDbEntity
  8
FOGLIO
100
AcDbLine
 10
187.758517
 20
145.442947
 30
0.0
 11
190.758517
 21
145.442947
 31
0.0
  0
LINE
  5
313
100
AcDbEntity
  8
FOGLIO
100
AcDbLine
 10
190.758517
 20
145.442947
 30
0.0
 11
190.758517
 21
160.442947
 31
0.0
  0
TEXT
  5
314
100
AcDbEntity
  8
FOGLIO
100
AcDbText
 10
191.936896
 20
156.562099
 30
0.0
 40
4.0
  1
E
 41
0.9
  7
STYLE3
100
AcDbText
  0
LINE
  5
315
100
AcDbEntity
  8
FOGLIO
100
AcDbLine
 10
187.758517
 20
175.442947
 30
0.0
 11
190.758517
 21
175.442947
 31
0.0
  0
LINE
  5
316
100
AcDbEntity
  8
FOGLIO
100
AcDbLine
 10
193.758517
 20
178.442947
 30
0.0
 11
190.758517
 21
178.442947
 31
0.0
  0
LINE
  5
317
100
AcDbEntity
  8
FOGLIO
100
AcDbLine
 10
193.758517
 20
178.442947
 30
0.0
 11
195.758517
 21
178.442947
 31
0.0
  0
TEXT
  5
318
100
AcDbEntity
  8
FOGLIO
100
AcDbText
 10
191.936896
 20
190.758342
 30
0.0
 40
4.0
  1
F
 41
0.9
  7
STYLE3
100
AcDbText
  0
LINE
  5
319
100
AcDbEntity
  8
FOGLIO
100
AcDbLine
 10
193.758517
 20
213.042947
 30
0.0
 11
190.758517
 21
213.042947
 31
0.0
  0
LINE
  5
31A
100
AcDbEntity
  8
FOGLIO
100
AcDbLine
 10
193.758517
 20
213.042947
 30
0.0
 11
195.758517
 21
213.042947
 31
0.0
  0
TEXT
  5
31B
100
AcDbEntity
  8
FOGLIO
100
AcDbText
 10
191.936896
 20
225.392999
 30
0.0
 40
4.0
  1
G
 41
0.9
  7
STYLE3
100
AcDbText
  0
TEXT
  5
31C
100
AcDbEntity
  8
FOGLIO
100
AcDbText
 10
191.936896
 20
257.397176
 30
0.0
 40
4.0
  1
F
 41
0.9
  7
STYLE3
100
AcDbText
  0
LINE
  5
31D
100
AcDbEntity
  8
FOGLIO
100
AcDbLine
 10
193.758517
 20
247.642947
 30
0.0
 11
190.758517
 21
247.642947
 31
0.0
  0
LINE
  5
31E
100
AcDbEntity
  8
FOGLIO
100
AcDbLine
 10
193.758517
 20
247.642947
 30
0.0
 11
195.758517
 21
247.642947
 31
0.0
  0
ENDBLK
  5
320
100
AcDbEntity
  8
FOGLIO
100
AcDbBlockEnd
  0
BLOCK
  5
AFA
100
AcDbEntity
  8
0
100
AcDbBlockBegin
  2
*D1
 70
    65
 10
0.0
 20
0.0
 30
0.0
  3
*D1
  1

  0
LINE
  5
AFB
100
AcDbEntity
  8
0
  6
BYBLOCK
 62
     0
100
AcDbLine
 10
52.041623
 20
180.53105
 30
0.0
 11
52.041623
 21
195.270108
 31
0.0
  0
LINE
  5
AFC
100
AcDbEntity
  8
0
  6
BYBLOCK
 62
     0
100
AcDbLine
 10
177.041623
 20
180.53105
 30
0.0
 11
177.041623
 21
195.270108
 31
0.0
  0
LINE
  5
AFD
100
AcDbEntity
  8
0
  6
BYBLOCK
 62
     0
100
AcDbLine
 10
54.541623
 20
194.020108
 30
0.0
 11
174.541623
 21
194.020108
 31
0.0
  0
SOLID
  5
AFE
100
AcDbEntity
  8
0
  6
BYBLOCK
 62
     0
100
AcDbTrace
 10
54.541623
 20
194.436775
 30
0.0
 11
54.541623
 21
193.603441
 31
0.0
 12
52.041623
 22
194.020108
 32
0.0
 13
52.041623
 23
194.020108
 33
0.0
  0
SOLID
  5
AFF
100
AcDbEntity
  8
0
  6
BYBLOCK
 62
     0
100
AcDbTrace
 10
174.541623
 20
194.436775
 30
0.0
 11
174.541623
 21
193.603441
 31
0.0
 12
177.041623
 22
194.020108
 32
0.0
 13
177.041623
 23
194.020108
 33
0.0
  0
MTEXT
  5
B00
100
AcDbEntity
  8
0
  6
BYBLOCK
 62
     0
100
AcDbMText
 10
114.541623
 20
196.145108
 30
0.0
 40
3.0
 41
0.0
 71
     5
 72
     1
  1
\A2;125{\H2.400000;±0.01}
  0
POINT
  5
B01
100
AcDbEntity
  8
DEFPOINTS
  6
BYBLOCK
 62
     0
100
AcDbPoint
 10
52.041623
 20
179.90605
 30
0.0
  0
POINT
  5
B02
100
AcDbEntity
  8
DEFPOINTS
  6
BYBLOCK
 62
     0
100
AcDbPoint
 10
177.041623
 20
179.90605
 30
0.0
  0
POINT
  5
B03
100
AcDbEntity
  8
DEFPOINTS
  6
BYBLOCK
 62
     0
100
AcDbPoint
 10
177.041623
 20
194.020108
 30
0.0
  0
ENDBLK
  5
B04
100
AcDbEntity
  8
0
100
AcDbBlockEnd
  0
BLOCK
  5
C97
100
AcDbEntity
  8
0
100
AcDbBlockBegin
  2
*D2
 70
    65
 10
0.0
 20
0.0
 30
0.0
  3
*D2
  1

  0
LINE
  5
C98
100
AcDbEntity
  8
0
  6
BYBLOCK
 62
     0
100
AcDbLine
 10
192.166623
 20
179.90605
 30
0.0
 11
202.383355
 21
179.90605
 31
0.0
  0
LINE
  5
C99
100
AcDbEntity
  8
0
  6
BYBLOCK
 62
     0
100
AcDbLine
 10
160.166623
 20
76.90605
 30
0.0
 11
202.383355
 21
76.90605
 31
0.0
  0
LINE
  5
C9A
100
AcDbEntity
  8
0
  6
BYBLOCK
 62
     0
100
AcDbLine
 10
201.133355
 20
177.40605
 30
0.0
 11
201.133355
 21
79.40605
 31
0.0
  0
SOLID
  5
C9B
100
AcDbEntity
  8
0
  6
BYBLOCK
 62
     0
100
AcDbTrace
 10
200.716689
 20
177.40605
 30
0.0
 11
201.550022
 21
177.40605
 31
0.0
 12
201.133355
 22
179.90605
 32
0.0
 13
201.133355
 23
179.90605
 33
0.0
  0
SOLID
  5
C9C
100
AcDbEntity
  8
0
  6
BYBLOCK
 62
     0
100
AcDbTrace
 10
200.716689
 20
79.40605
 30
0.0
 11
201.550022
 21
79.40605
 31
0.0
 12
201.133355
 22
76.90605
 32
0.0
 13
201.133355
 23
76.90605
 33
0.0
  0
MTEXT
  5
C9D
100
AcDbEntity
  8
0
  6
BYBLOCK
 62
     0
100
AcDbMText
 10
197.82741
 20
128.40605
 30
0.0
 40
3.0
 41
0.0
 71
     5
 72
     1
  1
\A2;103{\H2.400000;\S+0.05^  0;}
 11
0.0
 21
1.0
 31
0.0
  0
POINT
  5
C9E
100
AcDbEntity
  8
DEFPOINTS
  6
BYBLOCK
 62
     0
100
AcDbPoint
 10
191.541623
 20
179.90605
 30
0.0
  0
POINT
  5
C9F
100
AcDbEntity
  8
DEFPOINTS
  6
BYBLOCK
 62
     0
100
AcDbPoint
 10
159.541623
 20
76.90605
 30
0.0
  0
POINT
  5
CA0
100
AcDbEntity
  8
DEFPOINTS
  6
BYBLOCK
 62
     0
100
AcDbPoint
 10
201.133355
 20
76.90605
 30
0.0
  0
ENDBLK
  5
CA1
100
AcDbEntity
  8
0
100
AcDbBlockEnd
  0
BLOCK
  5
6AC
100
AcDbEntity
  8
0
100
AcDbBlockBegin
  2
*D3
 70
    65
 10
0.0
 20
0.0
 30
0.0
  3
*D3
  1

  0
LINE
  5
6AD
100
AcDbEntity
  8
0
  6
BYBLOCK
 62
     0
100
AcDbLine
 10
158.556907
 20
96.23219
 30
0.0
 11
148.798001
 21
96.23219
 31
0.0
  0
LINE
  5
6AE
100
AcDbEntity
  8
0
  6
BYBLOCK
 62
     0
100
AcDbLine
 10
127.806907
 20
76.23219
 30
0.0
 11
151.298001
 21
76.23219
 31
0.0
  0
LINE
  5
6AF
100
AcDbEntity
  8
0
  6
BYBLOCK
 62
     0
100
AcDbLine
 10
150.048001
 20
93.73219
 30
0.0
 11
150.048001
 21
78.73219
 31
0.0
  0
SOLID
  5
6B0
100
AcDbEntity
  8
0
  6
BYBLOCK
 62
     0
100
AcDbTrace
 10
149.631334
 20
93.73219
 30
0.0
 11
150.464667
 21
93.73219
 31
0.0
 12
150.048001
 22
96.23219
 32
0.0
 13
150.048001
 23
96.23219
 33
0.0
  0
SOLID
  5
6B1
100
AcDbEntity
  8
0
  6
BYBLOCK
 62
     0
100
AcDbTrace
 10
149.631334
 20
78.73219
 30
0.0
 11
150.464667
 21
78.73219
 31
0.0
 12
150.048001
 22
76.23219
 32
0.0
 13
150.048001
 23
76.23219
 33
0.0
  0
MTEXT
  5
6B2
100
AcDbEntity
  8
0
  6
BYBLOCK
 62
     0
100
AcDbMText
 10
146.742056
 20
86.23219
 30
0.0
 40
3.0
 41
0.0
 71
     5
 72
     1
  1
\A2;20{\H2.400000;\S+0.1^  0;}
 11
0.0
 21
1.0
 31
0.0
  0
POINT
  5
6B3
100
AcDbEntity
  8
DEFPOINTS
  6
BYBLOCK
 62
     0
100
AcDbPoint
 10
159.181907
 20
96.23219
 30
0.0
  0
POINT
  5
6B4
100
AcDbEntity
  8
DEFPOINTS
  6
BYBLOCK
 62
     0
100
AcDbPoint
 10
127.181907
 20
76.23219
 30
0.0
  0
POINT
  5
6B5
100
AcDbEntity
  8
DEFPOINTS
  6
BYBLOCK
 62
     0
100
AcDbPoint
 10
150.048001
 20
76.23219
 30
0.0
  0
ENDBLK
  5
6B6
100
AcDbEntity
  8
0
100
AcDbBlockEnd
  0
BLOCK
  5
3BD
100
AcDbEntity
  8
0
100
AcDbBlockBegin
  2
*D4
 70
    65
 10
0.0
 20
0.0
 30
0.0
  3
*D4
  1

  0
LINE
  5
3BE
100
AcDbEntity
  8
0
  6
BYBLOCK
 62
     0
100
AcDbLine
 10
5.181907
 20
107.973831
 30
0.0
 11
5.181907
 21
104.653391
 31
0.0
  0
LINE
  5
3BF
100
AcDbEntity
  8
0
  6
BYBLOCK
 62
     0
100
AcDbLine
 10
159.181907
 20
109.995412
 30
0.0
 11
159.181907
 21
104.653391
 31
0.0
  0
LINE
  5
3C0
100
AcDbEntity
  8
0
  6
BYBLOCK
 62
     0
100
AcDbLine
 10
7.681907
 20
105.903391
 30
0.0
 11
156.681907
 21
105.903391
 31
0.0
  0
SOLID
  5
3C1
100
AcDbEntity
  8
0
  6
BYBLOCK
 62
     0
100
AcDbTrace
 10
7.681907
 20
106.320058
 30
0.0
 11
7.681907
 21
105.486725
 31
0.0
 12
5.181907
 22
105.903391
 32
0.0
 13
5.181907
 23
105.903391
 33
0.0
  0
SOLID
  5
3C2
100
AcDbEntity
  8
0
  6
BYBLOCK
 62
     0
100
AcDbTrace
 10
156.681907
 20
106.320058
 30
0.0
 11
156.681907
 21
105.486725
 31
0.0
 12
159.181907
 22
105.903391
 32
0.0
 13
159.181907
 23
105.903391
 33
0.0
  0
MTEXT
  5
3C3
100
AcDbEntity
  8
0
  6
BYBLOCK
 62
     0
100
AcDbMText
 10
82.181907
 20
108.028391
 30
0.0
 40
3.0
 41
0.0
 71
     5
 72
     1
  1
\A2;154{\H2.400000;±0.05}
  0
POINT
  5
3C4
100
AcDbEntity
  8
DEFPOINTS
  6
BYBLOCK
 62
     0
100
AcDbPoint
 10
5.181907
 20
108.598831
 30
0.0
  0
POINT
  5
3C5
100
AcDbEntity
  8
DEFPOINTS
  6
BYBLOCK
 62
     0
100
AcDbPoint
 10
159.181907
 20
110.620412
 30
0.0
  0
POINT
  5
3C6
100
AcDbEntity
  8
DEFPOINTS
  6
BYBLOCK
 62
     0
100
AcDbPoint
 10
159.181907
 20
105.903391
 30
0.0
  0
ENDBLK
  5
3C7
100
AcDbEntity
  8
0
100
AcDbBlockEnd
  0
BLOCK
  5
3F5
100
AcDbEntity
  8
0
100
AcDbBlockBegin
  2
*D5
 70
    65
 10
0.0
 20
0.0
 30
0.0
  3
*D5
  1

  0
LINE
  5
3F6
100
AcDbEntity
  8
0
  6
BYBLOCK
 62
     0
100
AcDbLine
 10
151.676522
 20
164.23219
 30
0.0
 11
143.821763
 21
173.956014
 31
0.0
  0
LINE
  5
3F7
100
AcDbEntity
  8
0
  6
BYBLOCK
 62
     0
100
AcDbLine
 10
142.250811
 20
175.900779
 30
0.0
 11
133.147851
 21
187.169818
 31
0.0
  0
SOLID
  5
3F8
100
AcDbEntity
  8
0
  6
BYBLOCK
 62
     0
100
AcDbTrace
 10
144.145891
 20
174.21784
 30
0.0
 11
143.497636
 21
173.694189
 31
0.0
 12
142.250811
 22
175.900779
 32
0.0
 13
142.250811
 23
175.900779
 33
0.0
  0
MTEXT
  5
3F9
100
AcDbEntity
  8
0
  6
BYBLOCK
 62
     0
100
AcDbMText
 10
136.999194
 20
185.783743
 30
0.0
 40
3.0
 41
0.0
 71
     5
 72
     1
  1
\A1;R15
 11
0.628381
 21
-0.777906
 31
0.0
  0
POINT
  5
3FA
100
AcDbEntity
  8
DEFPOINTS
  6
BYBLOCK
 62
     0
100
AcDbPoint
 10
142.250811
 20
175.900779
 30
0.0
  0
POINT
  5
3FB
100
AcDbEntity
  8
DEFPOINTS
  6
BYBLOCK
 62
     0
100
AcDbPoint
 10
151.676522
 20
164.23219
 30
0.0
  0
ENDBLK
  5
3FC
100
AcDbEntity
  8
0
100
AcDbBlockEnd
  0
BLOCK
  5
404
100
AcDbEntity
  8
0
100
AcDbBlockBegin
  2
*D6
 70
    65
 10
0.0
 20
0.0
 30
0.0
  3
*D6
  1

  0
LINE
  5
405
100
AcDbEntity
  8
0
  6
BYBLOCK
 62
     0
100
AcDbLine
 10
82.181907
 20
151.419305
 30
0.0
 11
93.449866
 21
124.156086
 31
0.0
  0
SOLID
  5
406
100
AcDbEntity
  8
0
  6
BYBLOCK
 62
     0
100
AcDbTrace
 10
93.83494
 20
124.315238
 30
0.0
 11
93.064793
 21
123.996934
 31
0.0
 12
94.404778
 22
121.845644
 32
0.0
 13
94.404778
 23
121.845644
 33
0.0
  0
MTEXT
  5
407
100
AcDbEntity
  8
0
  6
BYBLOCK
 62
     0
100
AcDbMText
 10
90.257491
 20
137.444262
 30
0.0
 40
3.0
 41
0.0
 71
     5
 72
     1
  1
\A1;R32
 11
0.381965
 21
-0.924177
 31
0.0
  0
POINT
  5
408
100
AcDbEntity
  8
DEFPOINTS
  6
BYBLOCK
 62
     0
100
AcDbPoint
 10
94.404778
 20
121.845644
 30
0.0
  0
POINT
  5
409
100
AcDbEntity
  8
DEFPOINTS
  6
BYBLOCK
 62
     0
100
AcDbPoint
 10
82.181907
 20
151.419305
 30
0.0
  0
ENDBLK
  5
40A
100
AcDbEntity
  8
0
100
AcDbBlockEnd
  0
BLOCK
  5
545
100
AcDbEntity
  8
0
100
AcDbBlockBegin
  2
*X7
 70
    65
 10
0.0
 20
0.0
 30
0.0
  3
*X7
  1

  0
LINE
  5
547
100
AcDbEntity
  8
0
 62
     0
100
AcDbLine
 10
29.427509
 20
167.498947
 30
0.0
 11
29.481752
 21
167.55319
 31
0.0
  0
LINE
  5
548
100
AcDbEntity
  8
0
 62
     0
100
AcDbLine
 10
29.24659
 20
167.542534
 30
0.0
 11
29.37932
 21
167.675264
 31
0.0
  0
LINE
  5
549
100
AcDbEntity
  8
0
 62
     0
100
AcDbLine
 10
29.065671
 20
167.586121
 30
0.0
 11
29.276887
 21
167.797338
 31
0.0
  0
LINE
  5
54A
100
AcDbEntity
  8
0
 62
     0
100
AcDbLine
 10
28.884751
 20
167.629709
 30
0.0
 11
29.174455
 21
167.919412
 31
0.0
  0
LINE
  5
54B
100
AcDbEntity
  8
0
 62
     0
100
AcDbLine
 10
28.703832
 20
167.673296
 30
0.0
 11
29.072023
 21
168.041486
 31
0.0
  0
LINE
  5
54C
100
AcDbEntity
  8
0
 62
     0
100
AcDbLine
 10
28.522913
 20
167.716883
 30
0.0
 11
28.96959
 21
168.16356
 31
0.0
  0
LINE
  5
54D
100
AcDbEntity
  8
0
 62
     0
100
AcDbLine
 10
28.341993
 20
167.76047
 30
0.0
 11
28.867158
 21
168.285634
 31
0.0
  0
LINE
  5
54E
100
AcDbEntity
  8
0
 62
     0
100
AcDbLine
 10
28.161074
 20
167.804057
 30
0.0
 11
28.764726
 21
168.407708
 31
0.0
  0
LINE
  5
54F
100
AcDbEntity
  8
0
 62
     0
100
AcDbLine
 10
27.980155
 20
167.847644
 30
0.0
 11
28.662293
 21
168.529782
 31
0.0
  0
LINE
  5
550
100
AcDbEntity
  8
0
 62
     0
100
AcDbLine
 10
27.799235
 20
167.891231
 30
0.0
 11
28.559861
 21
168.651857
 31
0.0
  0
LINE
  5
551
100
AcDbEntity
  8
0
 62
     0
100
AcDbLine
 10
27.618316
 20
167.934818
 30
0.0
 11
28.457429
 21
168.773931
 31
0.0
  0
LINE
  5
552
100
AcDbEntity
  8
0
 62
     0
100
AcDbLine
 10
27.437397
 20
167.978405
 30
0.0
 11
28.354996
 21
168.896005
 31
0.0
  0
LINE
  5
553
100
AcDbEntity
  8
0
 62
     0
100
AcDbLine
 10
27.256477
 20
168.021992
 30
0.0
 11
28.252564
 21
169.018079
 31
0.0
  0
LINE
  5
554
100
AcDbEntity
  8
0
 62
     0
100
AcDbLine
 10
27.075558
 20
168.065579
 30
0.0
 11
28.150132
 21
169.140153
 31
0.0
  0
LINE
  5
555
100
AcDbEntity
  8
0
 62
     0
100
AcDbLine
 10
26.894639
 20
168.109166
 30
0.0
 11
28.047699
 21
169.262227
 31
0.0
  0
LINE
  5
556
100
AcDbEntity
  8
0
 62
     0
100
AcDbLine
 10
26.713719
 20
168.152753
 30
0.0
 11
27.945267
 21
169.384301
 31
0.0
  0
LINE
  5
557
100
AcDbEntity
  8
0
 62
     0
100
AcDbLine
 10
26.5328
 20
168.19634
 30
0.0
 11
27.842835
 21
169.506375
 31
0.0
  0
LINE
  5
558
100
AcDbEntity
  8
0
 62
     0
100
AcDbLine
 10
26.351881
 20
168.239927
 30
0.0
 11
27.740402
 21
169.628449
 31
0.0
  0
LINE
  5
559
100
AcDbEntity
  8
0
 62
     0
100
AcDbLine
 10
26.170961
 20
168.283515
 30
0.0
 11
27.63797
 21
169.750523
 31
0.0
  0
LINE
  5
55A
100
AcDbEntity
  8
0
 62
     0
100
AcDbLine
 10
25.990042
 20
168.327102
 30
0.0
 11
27.535538
 21
169.872597
 31
0.0
  0
LINE
  5
55B
100
AcDbEntity
  8
0
 62
     0
100
AcDbLine
 10
25.809123
 20
168.370689
 30
0.0
 11
27.433106
 21
169.994671
 31
0.0
  0
LINE
  5
55C
100
AcDbEntity
  8
0
 62
     0
100
AcDbLine
 10
25.628203
 20
168.414276
 30
0.0
 11
27.330673
 21
170.116746
 31
0.0
  0
LINE
  5
55D
100
AcDbEntity
  8
0
 62
     0
100
AcDbLine
 10
25.447284
 20
168.457863
 30
0.0
 11
27.228241
 21
170.23882
 31
0.0
  0
LINE
  5
55E
100
AcDbEntity
  8
0
 62
     0
100
AcDbLine
 10
25.266365
 20
168.50145
 30
0.0
 11
27.125809
 21
170.360894
 31
0.0
  0
LINE
  5
55F
100
AcDbEntity
  8
0
 62
     0
100
AcDbLine
 10
25.085445
 20
168.545037
 30
0.0
 11
27.023376
 21
170.482968
 31
0.0
  0
LINE
  5
560
100
AcDbEntity
  8
0
 62
     0
100
AcDbLine
 10
24.904526
 20
168.588624
 30
0.0
 11
26.920944
 21
170.605042
 31
0.0
  0
LINE
  5
561
100
AcDbEntity
  8
0
 62
     0
100
AcDbLine
 10
24.723607
 20
168.632211
 30
0.0
 11
26.818512
 21
170.727116
 31
0.0
  0
LINE
  5
562
100
AcDbEntity
  8
0
 62
     0
100
AcDbLine
 10
24.542687
 20
168.675798
 30
0.0
 11
26.716079
 21
170.84919
 31
0.0
  0
LINE
  5
563
100
AcDbEntity
  8
0
 62
     0
100
AcDbLine
 10
24.361768
 20
168.719385
 30
0.0
 11
26.613647
 21
170.971264
 31
0.0
  0
LINE
  5
564
100
AcDbEntity
  8
0
 62
     0
100
AcDbLine
 10
24.180849
 20
168.762972
 30
0.0
 11
26.511215
 21
171.093338
 31
0.0
  0
LINE
  5
565
100
AcDbEntity
  8
0
 62
     0
100
AcDbLine
 10
23.999929
 20
168.806559
 30
0.0
 11
26.408782
 21
171.215412
 31
0.0
  0
LINE
  5
566
100
AcDbEntity
  8
0
 62
     0
100
AcDbLine
 10
23.81901
 20
168.850146
 30
0.0
 11
26.30635
 21
171.337486
 31
0.0
  0
LINE
  5
567
100
AcDbEntity
  8
0
 62
     0
100
AcDbLine
 10
23.638091
 20
168.893734
 30
0.0
 11
26.203918
 21
171.45956
 31
0.0
  0
LINE
  5
568
100
AcDbEntity
  8
0
 62
     0
100
AcDbLine
 10
23.457171
 20
168.937321
 30
0.0
 11
26.101485
 21
171.581635
 31
0.0
  0
LINE
  5
569
100
AcDbEntity
  8
0
 62
     0
100
AcDbLine
 10
23.276252
 20
168.980908
 30
0.0
 11
25.999053
 21
171.703709
 31
0.0
  0
LINE
  5
56A
100
AcDbEntity
  8
0
 62
     0
100
AcDbLine
 10
23.095333
 20
169.024495
 30
0.0
 11
25.896621
 21
171.825783
 31
0.0
  0
LINE
  5
56B
100
AcDbEntity
  8
0
 62
     0
100
AcDbLine
 10
22.914413
 20
169.068082
 30
0.0
 11
25.794188
 21
171.947857
 31
0.0
  0
LINE
  5
56C
100
AcDbEntity
  8
0
 62
     0
100
AcDbLine
 10
22.733494
 20
169.111669
 30
0.0
 11
25.691756
 21
172.069931
 31
0.0
  0
LINE
  5
56D
100
AcDbEntity
  8
0
 62
     0
100
AcDbLine
 10
22.552575
 20
169.155256
 30
0.0
 11
25.589324
 21
172.192005
 31
0.0
  0
LINE
  5
56E
100
AcDbEntity
  8
0
 62
     0
100
AcDbLine
 10
22.371655
 20
169.198843
 30
0.0
 11
25.486891
 21
172.314079
 31
0.0
  0
LINE
  5
56F
100
AcDbEntity
  8
0
 62
     0
100
AcDbLine
 10
22.190736
 20
169.24243
 30
0.0
 11
25.384459
 21
172.436153
 31
0.0
  0
LINE
  5
570
100
AcDbEntity
  8
0
 62
     0
100
AcDbLine
 10
22.009817
 20
169.286017
 30
0.0
 11
25.282027
 21
172.558227
 31
0.0
  0
LINE
  5
571
100
AcDbEntity
  8
0
 62
     0
100
AcDbLine
 10
21.828897
 20
169.329604
 30
0.0
 11
25.179595
 21
172.680301
 31
0.0
  0
LINE
  5
572
100
AcDbEntity
  8
0
 62
     0
100
AcDbLine
 10
21.647978
 20
169.373191
 30
0.0
 11
25.077162
 21
172.802375
 31
0.0
  0
LINE
  5
573
100
AcDbEntity
  8
0
 62
     0
100
AcDbLine
 10
21.467059
 20
169.416778
 30
0.0
 11
24.97473
 21
172.924449
 31
0.0
  0
LINE
  5
574
100
AcDbEntity
  8
0
 62
     0
100
AcDbLine
 10
21.286139
 20
169.460365
 30
0.0
 11
24.872298
 21
173.046524
 31
0.0
  0
LINE
  5
575
100
AcDbEntity
  8
0
 62
     0
100
AcDbLine
 10
21.10522
 20
169.503952
 30
0.0
 11
24.769865
 21
173.168598
 31
0.0
  0
LINE
  5
576
100
AcDbEntity
  8
0
 62
     0
100
AcDbLine
 10
20.924301
 20
169.54754
 30
0.0
 11
24.667433
 21
173.290672
 31
0.0
  0
LINE
  5
577
100
AcDbEntity
  8
0
 62
     0
100
AcDbLine
 10
20.743381
 20
169.591127
 30
0.0
 11
24.565001
 21
173.412746
 31
0.0
  0
LINE
  5
578
100
AcDbEntity
  8
0
 62
     0
100
AcDbLine
 10
20.562462
 20
169.634714
 30
0.0
 11
24.462568
 21
173.53482
 31
0.0
  0
LINE
  5
579
100
AcDbEntity
  8
0
 62
     0
100
AcDbLine
 10
20.381543
 20
169.678301
 30
0.0
 11
24.360136
 21
173.656894
 31
0.0
  0
LINE
  5
57A
100
AcDbEntity
  8
0
 62
     0
100
AcDbLine
 10
20.200623
 20
169.721888
 30
0.0
 11
24.257704
 21
173.778968
 31
0.0
  0
LINE
  5
57B
100
AcDbEntity
  8
0
 62
     0
100
AcDbLine
 10
20.019704
 20
169.765475
 30
0.0
 11
24.155242
 21
173.901013
 31
0.0
  0
LINE
  5
57C
100
AcDbEntity
  8
0
 62
     0
100
AcDbLine
 10
19.838785
 20
169.809062
 30
0.0
 11
24.051944
 21
174.022221
 31
0.0
  0
LINE
  5
57D
100
AcDbEntity
  8
0
 62
     0
100
AcDbLine
 10
19.657865
 20
169.852649
 30
0.0
 11
23.947447
 21
174.142231
 31
0.0
  0
LINE
  5
57E
100
AcDbEntity
  8
0
 62
     0
100
AcDbLine
 10
19.476946
 20
169.896236
 30
0.0
 11
23.841756
 21
174.261046
 31
0.0
  0
LINE
  5
57F
100
AcDbEntity
  8
0
 62
     0
100
AcDbLine
 10
19.296027
 20
169.939823
 30
0.0
 11
23.734871
 21
174.378667
 31
0.0
  0
LINE
  5
580
100
AcDbEntity
  8
0
 62
     0
100
AcDbLine
 10
19.115107
 20
169.98341
 30
0.0
 11
23.626795
 21
174.495098
 31
0.0
  0
LINE
  5
581
100
AcDbEntity
  8
0
 62
     0
100
AcDbLine
 10
18.934188
 20
170.026997
 30
0.0
 11
23.517529
 21
174.610338
 31
0.0
  0
LINE
  5
582
100
AcDbEntity
  8
0
 62
     0
100
AcDbLine
 10
18.753269
 20
170.070584
 30
0.0
 11
23.407075
 21
174.72439
 31
0.0
  0
LINE
  5
583
100
AcDbEntity
  8
0
 62
     0
100
AcDbLine
 10
18.572349
 20
170.114171
 30
0.0
 11
23.295432
 21
174.837254
 31
0.0
  0
LINE
  5
584
100
AcDbEntity
  8
0
 62
     0
100
AcDbLine
 10
18.39143
 20
170.157759
 30
0.0
 11
23.182601
 21
174.948929
 31
0.0
  0
LINE
  5
585
100
AcDbEntity
  8
0
 62
     0
100
AcDbLine
 10
18.210511
 20
170.201346
 30
0.0
 11
23.068582
 21
175.059416
 31
0.0
  0
LINE
  5
586
100
AcDbEntity
  8
0
 62
     0
100
AcDbLine
 10
18.029591
 20
170.244933
 30
0.0
 11
22.953374
 21
175.168715
 31
0.0
  0
LINE
  5
587
100
AcDbEntity
  8
0
 62
     0
100
AcDbLine
 10
17.848672
 20
170.28852
 30
0.0
 11
22.836976
 21
175.276823
 31
0.0
  0
LINE
  5
588
100
AcDbEntity
  8
0
 62
     0
100
AcDbLine
 10
17.667753
 20
170.332107
 30
0.0
 11
22.719387
 21
175.383741
 31
0.0
  0
LINE
  5
589
100
AcDbEntity
  8
0
 62
     0
100
AcDbLine
 10
17.486833
 20
170.375694
 30
0.0
 11
22.600604
 21
175.489465
 31
0.0
  0
LINE
  5
58A
100
AcDbEntity
  8
0
 62
     0
100
AcDbLine
 10
17.305914
 20
170.419281
 30
0.0
 11
22.480627
 21
175.593994
 31
0.0
  0
LINE
  5
58B
100
AcDbEntity
  8
0
 62
     0
100
AcDbLine
 10
17.124995
 20
170.462868
 30
0.0
 11
22.359452
 21
175.697325
 31
0.0
  0
LINE
  5
58C
100
AcDbEntity
  8
0
 62
     0
100
AcDbLine
 10
16.944075
 20
170.506455
 30
0.0
 11
22.237076
 21
175.799456
 31
0.0
  0
LINE
  5
58D
100
AcDbEntity
  8
0
 62
     0
100
AcDbLine
 10
16.763156
 20
170.550042
 30
0.0
 11
22.113495
 21
175.900381
 31
0.0
  0
LINE
  5
58E
100
AcDbEntity
  8
0
 62
     0
100
AcDbLine
 10
16.582237
 20
170.593629
 30
0.0
 11
21.988707
 21
176.000099
 31
0.0
  0
LINE
  5
58F
100
AcDbEntity
  8
0
 62
     0
100
AcDbLine
 10
16.401317
 20
170.637216
 30
0.0
 11
21.862706
 21
176.098604
 31
0.0
  0
LINE
  5
590
100
AcDbEntity
  8
0
 62
     0
100
AcDbLine
 10
16.220398
 20
170.680803
 30
0.0
 11
21.735487
 21
176.195892
 31
0.0
  0
LINE
  5
591
100
AcDbEntity
  8
0
 62
     0
100
AcDbLine
 10
16.039479
 20
170.72439
 30
0.0
 11
21.607046
 21
176.291958
 31
0.0
  0
LINE
  5
592
100
AcDbEntity
  8
0
 62
     0
100
AcDbLine
 10
15.858559
 20
170.767977
 30
0.0
 11
21.477377
 21
176.386795
 31
0.0
  0
LINE
  5
593
100
AcDbEntity
  8
0
 62
     0
100
AcDbLine
 10
15.67764
 20
170.811565
 30
0.0
 11
21.346473
 21
176.480398
 31
0.0
  0
LINE
  5
594
100
AcDbEntity
  8
0
 62
     0
100
AcDbLine
 10
15.496721
 20
170.855152
 30
0.0
 11
21.214328
 21
176.572759
 31
0.0
  0
LINE
  5
595
100
AcDbEntity
  8
0
 62
     0
100
AcDbLine
 10
15.315801
 20
170.898739
 30
0.0
 11
21.080936
 21
176.663873
 31
0.0
  0
LINE
  5
596
100
AcDbEntity
  8
0
 62
     0
100
AcDbLine
 10
15.134882
 20
170.942326
 30
0.0
 11
20.946288
 21
176.753731
 31
0.0
  0
LINE
  5
597
100
AcDbEntity
  8
0
 62
     0
100
AcDbLine
 10
14.953963
 20
170.985913
 30
0.0
 11
20.810375
 21
176.842326
 31
0.0
  0
LINE
  5
598
100
AcDbEntity
  8
0
 62
     0
100
AcDbLine
 10
14.773043
 20
171.0295
 30
0.0
 11
20.673191
 21
176.929647
 31
0.0
  0
LINE
  5
599
100
AcDbEntity
  8
0
 62
     0
100
AcDbLine
 10
14.592124
 20
171.073087
 30
0.0
 11
20.534724
 21
177.015687
 31
0.0
  0
LINE
  5
59A
100
AcDbEntity
  8
0
 62
     0
100
AcDbLine
 10
14.411205
 20
171.116674
 30
0.0
 11
20.394967
 21
177.100436
 31
0.0
  0
LINE
  5
59B
100
AcDbEntity
  8
0
 62
     0
100
AcDbLine
 10
14.230285
 20
171.160261
 30
0.0
 11
20.253907
 21
177.183883
 31
0.0
  0
LINE
  5
59C
100
AcDbEntity
  8
0
 62
     0
100
AcDbLine
 10
14.049366
 20
171.203848
 30
0.0
 11
20.111534
 21
177.266016
 31
0.0
  0
LINE
  5
59D
100
AcDbEntity
  8
0
 62
     0
100
AcDbLine
 10
13.868447
 20
171.247435
 30
0.0
 11
19.967837
 21
177.346826
 31
0.0
  0
LINE
  5
59E
100
AcDbEntity
  8
0
 62
     0
100
AcDbLine
 10
13.687527
 20
171.291022
 30
0.0
 11
19.822803
 21
177.426298
 31
0.0
  0
LINE
  5
59F
100
AcDbEntity
  8
0
 62
     0
100
AcDbLine
 10
13.506608
 20
171.334609
 30
0.0
 11
19.676419
 21
177.504421
 31
0.0
  0
LINE
  5
5A0
100
AcDbEntity
  8
0
 62
     0
100
AcDbLine
 10
13.325689
 20
171.378196
 30
0.0
 11
19.528672
 21
177.58118
 31
0.0
  0
LINE
  5
5A1
100
AcDbEntity
  8
0
 62
     0
100
AcDbLine
 10
13.144769
 20
171.421783
 30
0.0
 11
19.379547
 21
177.656561
 31
0.0
  0
LINE
  5
5A2
100
AcDbEntity
  8
0
 62
     0
100
AcDbLine
 10
12.96385
 20
171.465371
 30
0.0
 11
19.229028
 21
177.730549
 31
0.0
  0
LINE
  5
5A3
100
AcDbEntity
  8
0
 62
     0
100
AcDbLine
 10
12.782931
 20
171.508958
 30
0.0
 11
19.077101
 21
177.803128
 31
0.0
  0
LINE
  5
5A4
100
AcDbEntity
  8
0
 62
     0
100
AcDbLine
 10
12.602011
 20
171.552545
 30
0.0
 11
18.923747
 21
177.87428
 31
0.0
  0
LINE
  5
5A5
100
AcDbEntity
  8
0
 62
     0
100
AcDbLine
 10
12.421092
 20
171.596132
 30
0.0
 11
18.76895
 21
177.943989
 31
0.0
  0
LINE
  5
5A6
100
AcDbEntity
  8
0
 62
     0
100
AcDbLine
 10
12.240173
 20
171.639719
 30
0.0
 11
18.61269
 21
178.012236
 31
0.0
  0
LINE
  5
5A7
100
AcDbEntity
  8
0
 62
     0
100
AcDbLine
 10
12.059253
 20
171.683306
 30
0.0
 11
18.454948
 21
178.079
 31
0.0
  0
LINE
  5
5A8
100
AcDbEntity
  8
0
 62
     0
100
AcDbLine
 10
11.878334
 20
171.726893
 30
0.0
 11
18.295702
 21
178.144261
 31
0.0
  0
LINE
  5
5A9
100
AcDbEntity
  8
0
 62
     0
100
AcDbLine
 10
11.697415
 20
171.77048
 30
0.0
 11
18.134933
 21
178.207998
 31
0.0
  0
LINE
  5
5AA
100
AcDbEntity
  8
0
 62
     0
100
AcDbLine
 10
11.516495
 20
171.814067
 30
0.0
 11
17.972615
 21
178.270187
 31
0.0
  0
LINE
  5
5AB
100
AcDbEntity
  8
0
 62
     0
100
AcDbLine
 10
11.335576
 20
171.857654
 30
0.0
 11
17.808726
 21
178.330804
 31
0.0
  0
LINE
  5
5AC
100
AcDbEntity
  8
0
 62
     0
100
AcDbLine
 10
11.154657
 20
171.901241
 30
0.0
 11
17.643239
 21
178.389824
 31
0.0
  0
LINE
  5
5AD
100
AcDbEntity
  8
0
 62
     0
100
AcDbLine
 10
10.973737
 20
171.944828
 30
0.0
 11
17.476128
 21
178.447219
 31
0.0
  0
LINE
  5
5AE
100
AcDbEntity
  8
0
 62
     0
100
AcDbLine
 10
10.792818
 20
171.988415
 30
0.0
 11
17.307364
 21
178.502962
 31
0.0
  0
LINE
  5
5AF
100
AcDbEntity
  8
0
 62
     0
100
AcDbLine
 10
10.611899
 20
172.032002
 30
0.0
 11
17.136919
 21
178.557022
 31
0.0
  0
LINE
  5
5B0
100
AcDbEntity
  8
0
 62
     0
100
AcDbLine
 10
10.430979
 20
172.07559
 30
0.0
 11
16.964759
 21
178.609369
 31
0.0
  0
LINE
  5
5B1
100
AcDbEntity
  8
0
 62
     0
100
AcDbLine
 10
10.25006
 20
172.119177
 30
0.0
 11
16.790852
 21
178.659969
 31
0.0
  0
LINE
  5
5B2
100
AcDbEntity
  8
0
 62
     0
100
AcDbLine
 10
10.069141
 20
172.162764
 30
0.0
 11
16.615163
 21
178.708786
 31
0.0
  0
LINE
  5
5B3
100
AcDbEntity
  8
0
 62
     0
100
AcDbLine
 10
9.888221
 20
172.206351
 30
0.0
 11
16.437655
 21
178.755784
 31
0.0
  0
LINE
  5
5B4
100
AcDbEntity
  8
0
 62
     0
100
AcDbLine
 10
9.707302
 20
172.249938
 30
0.0
 11
16.258288
 21
178.800923
 31
0.0
  0
LINE
  5
5B5
100
AcDbEntity
  8
0
 62
     0
100
AcDbLine
 10
9.526383
 20
172.293525
 30
0.0
 11
16.07702
 21
178.844163
 31
0.0
  0
LINE
  5
5B6
100
AcDbEntity
  8
0
 62
     0
100
AcDbLine
 10
9.345463
 20
172.337112
 30
0.0
 11
15.893809
 21
178.885457
 31
0.0
  0
LINE
  5
5B7
100
AcDbEntity
  8
0
 62
     0
100
AcDbLine
 10
9.164544
 20
172.380699
 30
0.0
 11
15.708606
 21
178.924761
 31
0.0
  0
LINE
  5
5B8
100
AcDbEntity
  8
0
 62
     0
100
AcDbLine
 10
8.983625
 20
172.424286
 30
0.0
 11
15.521364
 21
178.962025
 31
0.0
  0
LINE
  5
5B9
100
AcDbEntity
  8
0
 62
     0
100
AcDbLine
 10
8.802705
 20
172.467873
 30
0.0
 11
15.332027
 21
178.997195
 31
0.0
  0
LINE
  5
5BA
100
AcDbEntity
  8
0
 62
     0
100
AcDbLine
 10
8.621786
 20
172.51146
 30
0.0
 11
15.140541
 21
179.030216
 31
0.0
  0
LINE
  5
5BB
100
AcDbEntity
  8
0
 62
     0
100
AcDbLine
 10
8.440867
 20
172.555047
 30
0.0
 11
14.946847
 21
179.061027
 31
0.0
  0
LINE
  5
5BC
100
AcDbEntity
  8
0
 62
     0
100
AcDbLine
 10
8.259947
 20
172.598634
 30
0.0
 11
14.750879
 21
179.089566
 31
0.0
  0
LINE
  5
5BD
100
AcDbEntity
  8
0
 62
     0
100
AcDbLine
 10
8.079028
 20
172.642221
 30
0.0
 11
14.552569
 21
179.115763
 31
0.0
  0
LINE
  5
5BE
100
AcDbEntity
  8
0
 62
     0
100
AcDbLine
 10
7.898109
 20
172.685808
 30
0.0
 11
14.351846
 21
179.139546
 31
0.0
  0
LINE
  5
5BF
100
AcDbEntity
  8
0
 62
     0
100
AcDbLine
 10
7.717189
 20
172.729396
 30
0.0
 11
14.14863
 21
179.160837
 31
0.0
  0
LINE
  5
5C0
100
AcDbEntity
  8
0
 62
     0
100
AcDbLine
 10
7.53627
 20
172.772983
 30
0.0
 11
13.942838
 21
179.179551
 31
0.0
  0
LINE
  5
5C1
100
AcDbEntity
  8
0
 62
     0
100
AcDbLine
 10
7.355351
 20
172.81657
 30
0.0
 11
13.73438
 21
179.195599
 31
0.0
  0
LINE
  5
5C2
100
AcDbEntity
  8
0
 62
     0
100
AcDbLine
 10
7.174431
 20
172.860157
 30
0.0
 11
13.523157
 21
179.208883
 31
0.0
  0
LINE
  5
5C3
100
AcDbEntity
  8
0
 62
     0
100
AcDbLine
 10
6.993512
 20
172.903744
 30
0.0
 11
13.309066
 21
179.219298
 31
0.0
  0
LINE
  5
5C4
100
AcDbEntity
  8
0
 62
     0
100
AcDbLine
 10
6.812593
 20
172.947331
 30
0.0
 11
13.091991
 21
179.22673
 31
0.0
  0
LINE
  5
5C5
100
AcDbEntity
  8
0
 62
     0
100
AcDbLine
 10
6.631673
 20
172.990918
 30
0.0
 11
12.87181
 21
179.231055
 31
0.0
  0
LINE
  5
5C6
100
AcDbEntity
  8
0
 62
     0
100
AcDbLine
 10
6.450754
 20
173.034505
 30
0.0
 11
12.648439
 21
179.23219
 31
0.0
  0
LINE
  5
5C7
100
AcDbEntity
  8
0
 62
     0
100
AcDbLine
 10
6.269835
 20
173.078092
 30
0.0
 11
12.423932
 21
179.23219
 31
0.0
  0
LINE
  5
5C8
100
AcDbEntity
  8
0
 62
     0
100
AcDbLine
 10
6.088915
 20
173.121679
 30
0.0
 11
12.199426
 21
179.23219
 31
0.0
  0
LINE
  5
5C9
100
AcDbEntity
  8
0
 62
     0
100
AcDbLine
 10
5.907996
 20
173.165266
 30
0.0
 11
11.97492
 21
179.23219
 31
0.0
  0
LINE
  5
5CA
100
AcDbEntity
  8
0
 62
     0
100
AcDbLine
 10
5.727077
 20
173.208853
 30
0.0
 11
11.750413
 21
179.23219
 31
0.0
  0
LINE
  5
5CB
100
AcDbEntity
  8
0
 62
     0
100
AcDbLine
 10
5.546157
 20
173.25244
 30
0.0
 11
11.525907
 21
179.23219
 31
0.0
  0
LINE
  5
5CC
100
AcDbEntity
  8
0
 62
     0
100
AcDbLine
 10
5.365238
 20
173.296027
 30
0.0
 11
11.3014
 21
179.23219
 31
0.0
  0
LINE
  5
5CD
100
AcDbEntity
  8
0
 62
     0
100
AcDbLine
 10
5.184319
 20
173.339615
 30
0.0
 11
11.076894
 21
179.23219
 31
0.0
  0
LINE
  5
5CE
100
AcDbEntity
  8
0
 62
     0
100
AcDbLine
 10
5.181907
 20
173.561709
 30
0.0
 11
10.852388
 21
179.23219
 31
0.0
  0
LINE
  5
5CF
100
AcDbEntity
  8
0
 62
     0
100
AcDbLine
 10
5.181907
 20
173.786216
 30
0.0
 11
10.627881
 21
179.23219
 31
0.0
  0
LINE
  5
5D0
100
AcDbEntity
  8
0
 62
     0
100
AcDbLine
 10
5.181907
 20
174.010722
 30
0.0
 11
10.403375
 21
179.23219
 31
0.0
  0
LINE
  5
5D1
100
AcDbEntity
  8
0
 62
     0
100
AcDbLine
 10
5.181907
 20
174.235229
 30
0.0
 11
10.178868
 21
179.23219
 31
0.0
  0
LINE
  5
5D2
100
AcDbEntity
  8
0
 62
     0
100
AcDbLine
 10
5.181907
 20
174.459735
 30
0.0
 11
9.954362
 21
179.23219
 31
0.0
  0
LINE
  5
5D3
100
AcDbEntity
  8
0
 62
     0
100
AcDbLine
 10
5.181907
 20
174.684242
 30
0.0
 11
9.729856
 21
179.23219
 31
0.0
  0
LINE
  5
5D4
100
AcDbEntity
  8
0
 62
     0
100
AcDbLine
 10
5.181907
 20
174.908748
 30
0.0
 11
9.505349
 21
179.23219
 31
0.0
  0
LINE
  5
5D5
100
AcDbEntity
  8
0
 62
     0
100
AcDbLine
 10
5.181907
 20
175.133254
 30
0.0
 11
9.280843
 21
179.23219
 31
0.0
  0
LINE
  5
5D6
100
AcDbEntity
  8
0
 62
     0
100
AcDbLine
 10
5.181907
 20
175.357761
 30
0.0
 11
9.056336
 21
179.23219
 31
0.0
  0
LINE
  5
5D7
100
AcDbEntity
  8
0
 62
     0
100
AcDbLine
 10
5.181907
 20
175.582267
 30
0.0
 11
8.83183
 21
179.23219
 31
0.0
  0
LINE
  5
5D8
100
AcDbEntity
  8
0
 62
     0
100
AcDbLine
 10
5.181907
 20
175.806774
 30
0.0
 11
8.607324
 21
179.23219
 31
0.0
  0
LINE
  5
5D9
100
AcDbEntity
  8
0
 62
     0
100
AcDbLine
 10
5.181907
 20
176.03128
 30
0.0
 11
8.382817
 21
179.23219
 31
0.0
  0
LINE
  5
5DA
100
AcDbEntity
  8
0
 62
     0
100
AcDbLine
 10
5.181907
 20
176.255786
 30
0.0
 11
8.158311
 21
179.23219
 31
0.0
  0
LINE
  5
5DB
100
AcDbEntity
  8
0
 62
     0
100
AcDbLine
 10
5.181907
 20
176.480293
 30
0.0
 11
7.933804
 21
179.23219
 31
0.0
  0
LINE
  5
5DC
100
AcDbEntity
  8
0
 62
     0
100
AcDbLine
 10
5.181907
 20
176.704799
 30
0.0
 11
7.709298
 21
179.23219
 31
0.0
  0
LINE
  5
5DD
100
AcDbEntity
  8
0
 62
     0
100
AcDbLine
 10
5.181907
 20
176.929306
 30
0.0
 11
7.484792
 21
179.23219
 31
0.0
  0
LINE
  5
5DE
100
AcDbEntity
  8
0
 62
     0
100
AcDbLine
 10
5.181907
 20
177.153812
 30
0.0
 11
7.260285
 21
179.23219
 31
0.0
  0
LINE
  5
5DF
100
AcDbEntity
  8
0
 62
     0
100
AcDbLine
 10
140.122294
 20
173.798255
 30
0.0
 11
142.107995
 21
175.783956
 31
0.0
  0
LINE
  5
5E0
100
AcDbEntity
  8
0
 62
     0
100
AcDbLine
 10
138.951487
 20
172.402941
 30
0.0
 11
143.056614
 21
176.508068
 31
0.0
  0
LINE
  5
5E1
100
AcDbEntity
  8
0
 62
     0
100
AcDbLine
 10
137.780681
 20
171.007628
 30
0.0
 11
143.723013
 21
176.949961
 31
0.0
  0
LINE
  5
5E2
100
AcDbEntity
  8
0
 62
     0
100
AcDbLine
 10
136.609874
 20
169.612315
 30
0.0
 11
144.278443
 21
177.280884
 31
0.0
  0
LINE
  5
5E3
100
AcDbEntity
  8
0
 62
     0
100
AcDbLine
 10
135.439067
 20
168.217002
 30
0.0
 11
144.769289
 21
177.547224
 31
0.0
  0
LINE
  5
5E4
100
AcDbEntity
  8
0
 62
     0
100
AcDbLine
 10
134.397305
 20
166.950734
 30
0.0
 11
145.216341
 21
177.769769
 31
0.0
  0
LINE
  5
5E5
100
AcDbEntity
  8
0
 62
     0
100
AcDbLine
 10
134.397305
 20
166.726228
 30
0.0
 11
145.631067
 21
177.959989
 31
0.0
  0
LINE
  5
5E6
100
AcDbEntity
  8
0
 62
     0
100
AcDbLine
 10
134.397305
 20
166.501721
 30
0.0
 11
146.020596
 21
178.125012
 31
0.0
  0
LINE
  5
5E7
100
AcDbEntity
  8
0
 62
     0
100
AcDbLine
 10
134.397305
 20
166.277215
 30
0.0
 11
146.389721
 21
178.26963
 31
0.0
  0
LINE
  5
5E8
100
AcDbEntity
  8
0
 62
     0
100
AcDbLine
 10
134.693945
 20
166.349348
 30
0.0
 11
146.74185
 21
178.397253
 31
0.0
  0
LINE
  5
5E9
100
AcDbEntity
  8
0
 62
     0
100
AcDbLine
 10
135.008152
 20
166.439048
 30
0.0
 11
147.079511
 21
178.510407
 31
0.0
  0
LINE
  5
5EA
100
AcDbEntity
  8
0
 62
     0
100
AcDbLine
 10
135.322358
 20
166.528748
 30
0.0
 11
147.404639
 21
178.611029
 31
0.0
  0
LINE
  5
5EB
100
AcDbEntity
  8
0
 62
     0
100
AcDbLine
 10
135.636564
 20
166.618448
 30
0.0
 11
147.718758
 21
178.700642
 31
0.0
  0
LINE
  5
5EC
100
AcDbEntity
  8
0
 62
     0
100
AcDbLine
 10
135.950771
 20
166.708148
 30
0.0
 11
148.023093
 21
178.78047
 31
0.0
  0
LINE
  5
5ED
100
AcDbEntity
  8
0
 62
     0
100
AcDbLine
 10
136.264977
 20
166.797848
 30
0.0
 11
148.318644
 21
178.851514
 31
0.0
  0
LINE
  5
5EE
100
AcDbEntity
  8
0
 62
     0
100
AcDbLine
 10
136.579183
 20
166.887548
 30
0.0
 11
148.606243
 21
178.914607
 31
0.0
  0
LINE
  5
5EF
100
AcDbEntity
  8
0
 62
     0
100
AcDbLine
 10
136.89339
 20
166.977248
 30
0.0
 11
148.886591
 21
178.970449
 31
0.0
  0
LINE
  5
5F0
100
AcDbEntity
  8
0
 62
     0
100
AcDbLine
 10
137.207596
 20
167.066948
 30
0.0
 11
149.160284
 21
179.019635
 31
0.0
  0
LINE
  5
5F1
100
AcDbEntity
  8
0
 62
     0
100
AcDbLine
 10
137.521802
 20
167.156648
 30
0.0
 11
149.427834
 21
179.062679
 31
0.0
  0
LINE
  5
5F2
100
AcDbEntity
  8
0
 62
     0
100
AcDbLine
 10
137.836009
 20
167.246347
 30
0.0
 11
149.689685
 21
179.100024
 31
0.0
  0
LINE
  5
5F3
100
AcDbEntity
  8
0
 62
     0
100
AcDbLine
 10
138.150215
 20
167.336047
 30
0.0
 11
149.946226
 21
179.132058
 31
0.0
  0
LINE
  5
5F4
100
AcDbEntity
  8
0
 62
     0
100
AcDbLine
 10
138.464421
 20
167.425747
 30
0.0
 11
150.197798
 21
179.159124
 31
0.0
  0
LINE
  5
5F5
100
AcDbEntity
  8
0
 62
     0
100
AcDbLine
 10
138.778628
 20
167.515447
 30
0.0
 11
150.444706
 21
179.181525
 31
0.0
  0
LINE
  5
5F6
100
AcDbEntity
  8
0
 62
     0
100
AcDbLine
 10
139.092834
 20
167.605147
 30
0.0
 11
150.687217
 21
179.19953
 31
0.0
  0
LINE
  5
5F7
100
AcDbEntity
  8
0
 62
     0
100
AcDbLine
 10
139.40704
 20
167.694847
 30
0.0
 11
150.925574
 21
179.213381
 31
0.0
  0
LINE
  5
5F8
100
AcDbEntity
  8
0
 62
     0
100
AcDbLine
 10
139.721247
 20
167.784547
 30
0.0
 11
151.159993
 21
179.223294
 31
0.0
  0
LINE
  5
5F9
100
AcDbEntity
  8
0
 62
     0
100
AcDbLine
 10
140.035453
 20
167.874247
 30
0.0
 11
151.390672
 21
179.229466
 31
0.0
  0
LINE
  5
5FA
100
AcDbEntity
  8
0
 62
     0
100
AcDbLine
 10
140.349659
 20
167.963947
 30
0.0
 11
151.617787
 21
179.232075
 31
0.0
  0
LINE
  5
5FB
100
AcDbEntity
  8
0
 62
     0
100
AcDbLine
 10
140.663866
 20
168.053647
 30
0.0
 11
151.842409
 21
179.23219
 31
0.0
  0
LINE
  5
5FC
100
AcDbEntity
  8
0
 62
     0
100
AcDbLine
 10
140.978072
 20
168.143347
 30
0.0
 11
152.066915
 21
179.23219
 31
0.0
  0
LINE
  5
5FD
100
AcDbEntity
  8
0
 62
     0
100
AcDbLine
 10
141.292278
 20
168.233047
 30
0.0
 11
152.291422
 21
179.23219
 31
0.0
  0
LINE
  5
5FE
100
AcDbEntity
  8
0
 62
     0
100
AcDbLine
 10
141.606485
 20
168.322747
 30
0.0
 11
152.515928
 21
179.23219
 31
0.0
  0
LINE
  5
5FF
100
AcDbEntity
  8
0
 62
     0
100
AcDbLine
 10
141.920691
 20
168.412447
 30
0.0
 11
152.740434
 21
179.23219
 31
0.0
  0
LINE
  5
600
100
AcDbEntity
  8
0
 62
     0
100
AcDbLine
 10
142.234897
 20
168.502147
 30
0.0
 11
152.964941
 21
179.23219
 31
0.0
  0
LINE
  5
601
100
AcDbEntity
  8
0
 62
     0
100
AcDbLine
 10
142.549104
 20
168.591846
 30
0.0
 11
153.189447
 21
179.23219
 31
0.0
  0
LINE
  5
602
100
AcDbEntity
  8
0
 62
     0
100
AcDbLine
 10
142.86331
 20
168.681546
 30
0.0
 11
153.413954
 21
179.23219
 31
0.0
  0
LINE
  5
603
100
AcDbEntity
  8
0
 62
     0
100
AcDbLine
 10
143.177516
 20
168.771246
 30
0.0
 11
153.63846
 21
179.23219
 31
0.0
  0
LINE
  5
604
100
AcDbEntity
  8
0
 62
     0
100
AcDbLine
 10
143.491723
 20
168.860946
 30
0.0
 11
153.862966
 21
179.23219
 31
0.0
  0
LINE
  5
605
100
AcDbEntity
  8
0
 62
     0
100
AcDbLine
 10
143.805929
 20
168.950646
 30
0.0
 11
154.087473
 21
179.23219
 31
0.0
  0
LINE
  5
606
100
AcDbEntity
  8
0
 62
     0
100
AcDbLine
 10
144.120135
 20
169.040346
 30
0.0
 11
154.311979
 21
179.23219
 31
0.0
  0
LINE
  5
607
100
AcDbEntity
  8
0
 62
     0
100
AcDbLine
 10
144.434342
 20
169.130046
 30
0.0
 11
154.536486
 21
179.23219
 31
0.0
  0
LINE
  5
608
100
AcDbEntity
  8
0
 62
     0
100
AcDbLine
 10
144.748548
 20
169.219746
 30
0.0
 11
154.760992
 21
179.23219
 31
0.0
  0
LINE
  5
609
100
AcDbEntity
  8
0
 62
     0
100
AcDbLine
 10
145.062754
 20
169.309446
 30
0.0
 11
154.985498
 21
179.23219
 31
0.0
  0
LINE
  5
60A
100
AcDbEntity
  8
0
 62
     0
100
AcDbLine
 10
145.376961
 20
169.399146
 30
0.0
 11
155.210005
 21
179.23219
 31
0.0
  0
LINE
  5
60B
100
AcDbEntity
  8
0
 62
     0
100
AcDbLine
 10
145.691167
 20
169.488846
 30
0.0
 11
155.434511
 21
179.23219
 31
0.0
  0
LINE
  5
60C
100
AcDbEntity
  8
0
 62
     0
100
AcDbLine
 10
146.005373
 20
169.578546
 30
0.0
 11
155.659018
 21
179.23219
 31
0.0
  0
LINE
  5
60D
100
AcDbEntity
  8
0
 62
     0
100
AcDbLine
 10
146.31958
 20
169.668246
 30
0.0
 11
155.883524
 21
179.23219
 31
0.0
  0
LINE
  5
60E
100
AcDbEntity
  8
0
 62
     0
100
AcDbLine
 10
146.633786
 20
169.757946
 30
0.0
 11
156.10803
 21
179.23219
 31
0.0
  0
LINE
  5
60F
100
AcDbEntity
  8
0
 62
     0
100
AcDbLine
 10
146.947992
 20
169.847646
 30
0.0
 11
156.332537
 21
179.23219
 31
0.0
  0
LINE
  5
610
100
AcDbEntity
  8
0
 62
     0
100
AcDbLine
 10
147.262199
 20
169.937345
 30
0.0
 11
156.557043
 21
179.23219
 31
0.0
  0
LINE
  5
611
100
AcDbEntity
  8
0
 62
     0
100
AcDbLine
 10
147.576405
 20
170.027045
 30
0.0
 11
156.78155
 21
179.23219
 31
0.0
  0
LINE
  5
612
100
AcDbEntity
  8
0
 62
     0
100
AcDbLine
 10
147.890611
 20
170.116745
 30
0.0
 11
157.006056
 21
179.23219
 31
0.0
  0
LINE
  5
613
100
AcDbEntity
  8
0
 62
     0
100
AcDbLine
 10
148.204818
 20
170.206445
 30
0.0
 11
157.206235
 21
179.207862
 31
0.0
  0
LINE
  5
614
100
AcDbEntity
  8
0
 62
     0
100
AcDbLine
 10
148.519024
 20
170.296145
 30
0.0
 11
157.318488
 21
179.095609
 31
0.0
  0
LINE
  5
615
100
AcDbEntity
  8
0
 62
     0
100
AcDbLine
 10
148.83323
 20
170.385845
 30
0.0
 11
157.430741
 21
178.983356
 31
0.0
  0
LINE
  5
616
100
AcDbEntity
  8
0
 62
     0
100
AcDbLine
 10
149.147437
 20
170.475545
 30
0.0
 11
157.542994
 21
178.871103
 31
0.0
  0
LINE
  5
617
100
AcDbEntity
  8
0
 62
     0
100
AcDbLine
 10
149.461643
 20
170.565245
 30
0.0
 11
157.655248
 21
178.758849
 31
0.0
  0
LINE
  5
618
100
AcDbEntity
  8
0
 62
     0
100
AcDbLine
 10
149.775849
 20
170.654945
 30
0.0
 11
157.767501
 21
178.646596
 31
0.0
  0
LINE
  5
619
100
AcDbEntity
  8
0
 62
     0
100
AcDbLine
 10
150.090056
 20
170.744645
 30
0.0
 11
157.879754
 21
178.534343
 31
0.0
  0
LINE
  5
61A
100
AcDbEntity
  8
0
 62
     0
100
AcDbLine
 10
150.404262
 20
170.834345
 30
0.0
 11
157.992007
 21
178.42209
 31
0.0
  0
LINE
  5
61B
100
AcDbEntity
  8
0
 62
     0
100
AcDbLine
 10
150.718468
 20
170.924045
 30
0.0
 11
158.10426
 21
178.309837
 31
0.0
  0
LINE
  5
61C
100
AcDbEntity
  8
0
 62
     0
100
AcDbLine
 10
151.032675
 20
171.013745
 30
0.0
 11
158.216514
 21
178.197583
 31
0.0
  0
LINE
  5
61D
100
AcDbEntity
  8
0
 62
     0
100
AcDbLine
 10
151.346881
 20
171.103445
 30
0.0
 11
158.328767
 21
178.08533
 31
0.0
  0
LINE
  5
61E
100
AcDbEntity
  8
0
 62
     0
100
AcDbLine
 10
151.661087
 20
171.193144
 30
0.0
 11
158.44102
 21
177.973077
 31
0.0
  0
LINE
  5
61F
100
AcDbEntity
  8
0
 62
     0
100
AcDbLine
 10
151.975294
 20
171.282844
 30
0.0
 11
158.553273
 21
177.860824
 31
0.0
  0
LINE
  5
620
100
AcDbEntity
  8
0
 62
     0
100
AcDbLine
 10
152.2895
 20
171.372544
 30
0.0
 11
158.665526
 21
177.748571
 31
0.0
  0
LINE
  5
621
100
AcDbEntity
  8
0
 62
     0
100
AcDbLine
 10
152.603706
 20
171.462244
 30
0.0
 11
158.77778
 21
177.636317
 31
0.0
  0
LINE
  5
622
100
AcDbEntity
  8
0
 62
     0
100
AcDbLine
 10
152.917913
 20
171.551944
 30
0.0
 11
158.890033
 21
177.524064
 31
0.0
  0
LINE
  5
623
100
AcDbEntity
  8
0
 62
     0
100
AcDbLine
 10
153.232119
 20
171.641644
 30
0.0
 11
159.002286
 21
177.411811
 31
0.0
  0
LINE
  5
624
100
AcDbEntity
  8
0
 62
     0
100
AcDbLine
 10
153.546325
 20
171.731344
 30
0.0
 11
159.114539
 21
177.299558
 31
0.0
  0
LINE
  5
625
100
AcDbEntity
  8
0
 62
     0
100
AcDbLine
 10
153.860532
 20
171.821044
 30
0.0
 11
159.181907
 21
177.142419
 31
0.0
  0
LINE
  5
626
100
AcDbEntity
  8
0
 62
     0
100
AcDbLine
 10
154.174738
 20
171.910744
 30
0.0
 11
159.181907
 21
176.917913
 31
0.0
  0
LINE
  5
627
100
AcDbEntity
  8
0
 62
     0
100
AcDbLine
 10
154.488944
 20
172.000444
 30
0.0
 11
159.181907
 21
176.693407
 31
0.0
  0
LINE
  5
628
100
AcDbEntity
  8
0
 62
     0
100
AcDbLine
 10
154.803151
 20
172.090144
 30
0.0
 11
159.181907
 21
176.4689
 31
0.0
  0
LINE
  5
629
100
AcDbEntity
  8
0
 62
     0
100
AcDbLine
 10
155.117357
 20
172.179844
 30
0.0
 11
159.181907
 21
176.244394
 31
0.0
  0
LINE
  5
62A
100
AcDbEntity
  8
0
 62
     0
100
AcDbLine
 10
155.431563
 20
172.269544
 30
0.0
 11
159.181907
 21
176.019887
 31
0.0
  0
LINE
  5
62B
100
AcDbEntity
  8
0
 62
     0
100
AcDbLine
 10
155.74577
 20
172.359244
 30
0.0
 11
159.181907
 21
175.795381
 31
0.0
  0
LINE
  5
62C
100
AcDbEntity
  8
0
 62
     0
100
AcDbLine
 10
156.059976
 20
172.448944
 30
0.0
 11
159.181907
 21
175.570875
 31
0.0
  0
LINE
  5
62D
100
AcDbEntity
  8
0
 62
     0
100
AcDbLine
 10
156.374182
 20
172.538643
 30
0.0
 11
159.181907
 21
175.346368
 31
0.0
  0
LINE
  5
62E
100
AcDbEntity
  8
0
 62
     0
100
AcDbLine
 10
156.688389
 20
172.628343
 30
0.0
 11
159.181907
 21
175.121862
 31
0.0
  0
LINE
  5
62F
100
AcDbEntity
  8
0
 62
     0
100
AcDbLine
 10
157.002595
 20
172.718043
 30
0.0
 11
159.181907
 21
174.897355
 31
0.0
  0
LINE
  5
630
100
AcDbEntity
  8
0
 62
     0
100
AcDbLine
 10
157.316801
 20
172.807743
 30
0.0
 11
159.181907
 21
174.672849
 31
0.0
  0
LINE
  5
631
100
AcDbEntity
  8
0
 62
     0
100
AcDbLine
 10
157.631008
 20
172.897443
 30
0.0
 11
159.181907
 21
174.448343
 31
0.0
  0
LINE
  5
632
100
AcDbEntity
  8
0
 62
     0
100
AcDbLine
 10
157.945214
 20
172.987143
 30
0.0
 11
159.181907
 21
174.223836
 31
0.0
  0
LINE
  5
633
100
AcDbEntity
  8
0
 62
     0
100
AcDbLine
 10
158.25942
 20
173.076843
 30
0.0
 11
159.181907
 21
173.99933
 31
0.0
  0
LINE
  5
634
100
AcDbEntity
  8
0
 62
     0
100
AcDbLine
 10
158.573627
 20
173.166543
 30
0.0
 11
159.181907
 21
173.774823
 31
0.0
  0
LINE
  5
635
100
AcDbEntity
  8
0
 62
     0
100
AcDbLine
 10
158.887833
 20
173.256243
 30
0.0
 11
159.181907
 21
173.550317
 31
0.0
  0
ENDBLK
  5
636
100
AcDbEntity
  8
0
100
AcDbBlockEnd
  0
BLOCK
  5
63D
100
AcDbEntity
  8
0
100
AcDbBlockBegin
  2
*D8
 70
    65
 10
0.0
 20
0.0
 30
0.0
  3
*D8
  1

  0
LINE
  5
63E
100
AcDbEntity
  8
0
  6
BYBLOCK
 62
     0
100
AcDbLine
 10
30.368251
 20
166.496701
 30
0.0
 11
37.797577
 21
157.642775
 31
0.0
  0
LINE
  5
63F
100
AcDbEntity
  8
0
  6
BYBLOCK
 62
     0
100
AcDbLine
 10
28.836162
 20
165.211126
 30
0.0
 11
36.265488
 21
156.3572
 31
0.0
  0
LINE
  5
640
100
AcDbEntity
  8
0
  6
BYBLOCK
 62
     0
100
AcDbLine
 10
38.909203
 20
160.2073
 30
0.0
 11
40.824315
 21
161.814269
 31
0.0
  0
LINE
  5
641
100
AcDbEntity
  8
0
  6
BYBLOCK
 62
     0
100
AcDbLine
 10
33.546892
 20
155.707787
 30
0.0
 11
29.447027
 21
152.267591
 31
0.0
  0
SOLID
  5
642
100
AcDbEntity
  8
0
  6
BYBLOCK
 62
     0
100
AcDbTrace
 10
38.641375
 20
160.526485
 30
0.0
 11
39.177032
 21
159.888115
 31
0.0
 12
36.994092
 22
158.600331
 32
0.0
 13
36.994092
 23
158.600331
 33
0.0
  0
SOLID
  5
643
100
AcDbEntity
  8
0
  6
BYBLOCK
 62
     0
100
AcDbTrace
 10
33.279064
 20
156.026972
 30
0.0
 11
33.814721
 21
155.388602
 31
0.0
 12
35.462003
 22
157.314756
 32
0.0
 13
35.462003
 23
157.314756
 33
0.0
  0
MTEXT
  5
644
100
AcDbEntity
  8
0
  6
BYBLOCK
 62
     0
100
AcDbMText
 10
29.173291
 20
154.812275
 30
0.0
 40
3.0
 41
0.0
 71
     5
 72
     1
  1
\A1;2
 11
0.766044
 21
0.642788
 31
0.0
  0
POINT
  5
645
100
AcDbEntity
  8
DEFPOINTS
  6
BYBLOCK
 62
     0
100
AcDbPoint
 10
29.966509
 20
166.975479
 30
0.0
  0
POINT
  5
646
100
AcDbEntity
  8
DEFPOINTS
  6
BYBLOCK
 62
     0
100
AcDbPoint
 10
28.43442
 20
165.689904
 30
0.0
  0
POINT
  5
647
100
AcDbEntity
  8
DEFPOINTS
  6
BYBLOCK
 62
     0
100
AcDbPoint
 10
35.462003
 20
157.314756
 30
0.0
  0
ENDBLK
  5
648
100
AcDbEntity
  8
0
100
AcDbBlockEnd
  0
BLOCK
  5
651
100
AcDbEntity
  8
QUOTE
100
AcDbBlockBegin
  2
RUGOSITA
 70
     2
 10
0.0
 20
0.0
 30
0.0
  3
RUGOSITA
  1

  0
ATTDEF
  5
64D
100
AcDbEntity
  8
QUOTE
100
AcDbText
 10
-1.071886
 20
3.214106
 30
0.0
 40
1.5
  1
0.8
100
AcDbAttributeDefinition
  3
CHE RUGOSITA ?
  2
RUGOSITA
 70
     0
  0
LINE
  5
64E
100
AcDbEntity
  8
QUOTE
100
AcDbLine
 10
0.0
 20
0.0
 30
0.0
 11
4.0
 21
6.928203
 31
0.0
  0
LINE
  5
64F
100
AcDbEntity
  8
QUOTE
100
AcDbLine
 10
0.0
 20
0.0
 30
0.0
 11
-1.75
 21
3.031089
 31
0.0
  0
LINE
  5
650
100
AcDbEntity
  8
QUOTE
100
AcDbLine
 10
-1.75
 20
3.031089
 30
0.0
 11
1.75
 21
3.031089
 31
0.0
  0
ENDBLK
  5
652
100
AcDbEntity
  8
QUOTE
100
AcDbBlockEnd
  0
BLOCK
  5
683
100
AcDbEntity
  8
0
100
AcDbBlockBegin
  2
*D10
 70
    65
 10
0.0
 20
0.0
 30
0.0
  3
*D10
  1

  0
LINE
  5
684
100
AcDbEntity
  8
0
  6
BYBLOCK
 62
     0
100
AcDbLine
 10
133.995563
 20
166.496701
 30
0.0
 11
127.550784
 21
158.816112
 31
0.0
  0
LINE
  5
685
100
AcDbEntity
  8
0
  6
BYBLOCK
 62
     0
100
AcDbLine
 10
30.368251
 20
166.496701
 30
0.0
 11
36.813031
 21
158.816112
 31
0.0
  0
ARC
  5
686
100
AcDbEntity
  8
0
  6
BYBLOCK
 62
     0
100
AcDbCircle
 10
82.181907
 20
104.74759
 30
0.0
 40
71.831442
100
AcDbArc
 50
51.994206
 51
128.005794
  0
SOLID
  5
687
100
AcDbEntity
  8
0
  6
BYBLOCK
 62
     0
100
AcDbTrace
 10
126.673716
 20
161.670864
 30
0.0
 11
126.14925
 21
161.023269
 31
0.0
 12
128.354268
 22
159.773667
 32
0.0
 13
128.354268
 23
159.773667
 33
0.0
  0
SOLID
  5
688
100
AcDbEntity
  8
0
  6
BYBLOCK
 62
     0
100
AcDbTrace
 10
38.214565
 20
161.023269
 30
0.0
 11
37.690098
 21
161.670864
 31
0.0
 12
36.009546
 22
159.773667
 32
0.0
 13
36.009546
 23
159.773667
 33
0.0
  0
MTEXT
  5
689
100
AcDbEntity
  8
0
  6
BYBLOCK
 62
     0
100
AcDbMText
 10
82.181907
 20
178.704032
 30
0.0
 40
3.0
 41
0.0
 71
     5
 72
     1
  1
\A1;80°
  0
POINT
  5
68A
100
AcDbEntity
  8
DEFPOINTS
  6
BYBLOCK
 62
     0
100
AcDbPoint
 10
98.747378
 20
174.642807
 30
0.0
  0
POINT
  5
68B
100
AcDbEntity
  8
DEFPOINTS
  6
BYBLOCK
 62
     0
100
AcDbPoint
 10
24.177959
 20
173.874004
 30
0.0
  0
POINT
  5
68C
100
AcDbEntity
  8
DEFPOINTS
  6
BYBLOCK
 62
     0
100
AcDbPoint
 10
140.185855
 20
173.874004
 30
0.0
  0
POINT
  5
68D
100
AcDbEntity
  8
DEFPOINTS
  6
BYBLOCK
 62
     0
100
AcDbPoint
 10
134.397305
 20
166.975479
 30
0.0
  0
POINT
  5
68E
100
AcDbEntity
  8
DEFPOINTS
  6
BYBLOCK
 62
     0
100
AcDbPoint
 10
29.966509
 20
166.975479
 30
0.0
  0
ENDBLK
  5
68F
100
AcDbEntity
  8
0
100
AcDbBlockEnd
  0
BLOCK
  5
713
100
AcDbEntity
  8
0
100
AcDbBlockBegin
  2
*D11
 70
    65
 10
0.0
 20
0.0
 30
0.0
  3
*D11
  1

  0
LINE
  5
714
100
AcDbEntity
  8
0
  6
BYBLOCK
 62
     0
100
AcDbLine
 10
-9.30778
 20
113.086333
 30
0.0
 11
-39.036565
 21
109.061496
 31
0.0
  0
SOLID
  5
715
100
AcDbEntity
  8
0
  6
BYBLOCK
 62
     0
100
AcDbTrace
 10
-9.36368
 20
113.499233
 30
0.0
 11
-9.251879
 21
112.673433
 31
0.0
 12
-6.830381
 22
113.421736
 32
0.0
 13
-6.830381
 23
113.421736
 33
0.0
  0
SOLID
  5
716
100
AcDbEntity
  8
0
  6
BYBLOCK
 62
     0
100
AcDbTrace
 10
-39.092466
 20
109.474396
 30
0.0
 11
-38.980665
 21
108.648596
 31
0.0
 12
-41.513964
 22
108.726093
 32
0.0
 13
-41.513964
 23
108.726093
 33
0.0
  0
MTEXT
  5
717
100
AcDbEntity
  8
0
  6
BYBLOCK
 62
     0
100
AcDbMText
 10
-24.457265
 20
113.179703
 30
0.0
 40
3.0
 41
0.0
 71
     5
 72
     1
  1
\A2;\U+2205140{\H2.400000;±0.01}
 11
0.99096
 21
0.134161
 31
0.0
  0
POINT
  5
718
100
AcDbEntity
  8
DEFPOINTS
  6
BYBLOCK
 62
     0
100
AcDbPoint
 10
-41.513964
 20
108.726093
 30
0.0
  0
POINT
  5
719
100
AcDbEntity
  8
DEFPOINTS
  6
BYBLOCK
 62
     0
100
AcDbPoint
 10
-6.830381
 20
113.421736
 30
0.0
  0
ENDBLK
  5
71A
100
AcDbEntity
  8
0
100
AcDbBlockEnd
  0
BLOCK
  5
700
100
AcDbEntity
  8
0
100
AcDbBlockBegin
  2
*D12
 70
    65
 10
0.0
 20
0.0
 30
0.0
  3
*D12
  1

  0
LINE
  5
701
100
AcDbEntity
  8
0
  6
BYBLOCK
 62
     0
100
AcDbLine
 10
-23.547172
 20
128.573915
 30
0.0
 11
13.922353
 21
128.573915
 31
0.0
  0
LINE
  5
702
100
AcDbEntity
  8
0
  6
BYBLOCK
 62
     0
100
AcDbLine
 10
-12.797172
 20
76.719897
 30
0.0
 11
13.922353
 21
76.719897
 31
0.0
  0
LINE
  5
703
100
AcDbEntity
  8
0
  6
BYBLOCK
 62
     0
100
AcDbLine
 10
12.672353
 20
126.073915
 30
0.0
 11
12.672353
 21
79.219897
 31
0.0
  0
SOLID
  5
704
100
AcDbEntity
  8
0
  6
BYBLOCK
 62
     0
100
AcDbTrace
 10
12.255686
 20
126.073915
 30
0.0
 11
13.089019
 21
126.073915
 31
0.0
 12
12.672353
 22
128.573915
 32
0.0
 13
12.672353
 23
128.573915
 33
0.0
  0
SOLID
  5
705
100
AcDbEntity
  8
0
  6
BYBLOCK
 62
     0
100
AcDbTrace
 10
12.255686
 20
79.219897
 30
0.0
 11
13.089019
 21
79.219897
 31
0.0
 12
12.672353
 22
76.719897
 32
0.0
 13
12.672353
 23
76.719897
 33
0.0
  0
MTEXT
  5
706
100
AcDbEntity
  8
0
  6
BYBLOCK
 62
     0
100
AcDbMText
 10
9.366408
 20
102.646906
 30
0.0
 40
3.0
 41
0.0
 71
     5
 72
     1
  1
\A2;207.42{\H2.400000;\S+0.05^  0;}
 11
0.0
 21
1.0
 31
0.0
  0
POINT
  5
707
100
AcDbEntity
  8
DEFPOINTS
  6
BYBLOCK
 62
     0
100
AcDbPoint
 10
-24.172172
 20
128.573915
 30
0.0
  0
POINT
  5
708
100
AcDbEntity
  8
DEFPOINTS
  6
BYBLOCK
 62
     0
100
AcDbPoint
 10
-13.422172
 20
76.719897
 30
0.0
  0
POINT
  5
709
100
AcDbEntity
  8
DEFPOINTS
  6
BYBLOCK
 62
     0
100
AcDbPoint
 10
12.672353
 20
76.719897
 30
0.0
  0
ENDBLK
  5
70A
100
AcDbEntity
  8
0
100
AcDbBlockEnd
  0
BLOCK
  5
726
100
AcDbEntity
  8
DISEGNO
100
AcDbBlockBegin
  2
A$CC223
 70
     0
 10
0.0
 20
0.0
 30
0.0
  3
A$CC223
  1

  0
TEXT
  5
723
100
AcDbEntity
  8
DISEGNO
100
AcDbText
 10
-0.421349
 20
5.594786
 30
0.0
 40
3.0
  1
E SI RIFERISCONO AGLI SCOSTAMENTI RSPETTO
 41
1.1
100
AcDbText
  0
TEXT
  5
724
100
AcDbEntity
  8
DISEGNO
100
AcDbText
 10
-0.421349
 20
11.294786
 30
0.0
 40
3.0
  1
LE TOLLERANZE DEI PROFILI SONO INDICATIVE
 41
1.1
100
AcDbText
  0
TEXT
  5
725
100
AcDbEntity
  8
DISEGNO
100
AcDbText
 10
-0.421349
 20
-0.105214
 30
0.0
 40
3.0
  1
AL MASTER: P.116.35.R08
 41
1.1
100
AcDbText
  0
ENDBLK
  5
727
100
AcDbEntity
  8
DISEGNO
100
AcDbBlockEnd
  0
BLOCK
  5
77D
100
AcDbEntity
  8
0
100
AcDbBlockBegin
  2
*D14
 70
    65
 10
0.0
 20
0.0
 30
0.0
  3
*D14
  1

  0
LINE
  5
77E
100
AcDbEntity
  8
0
  6
BYBLOCK
 62
     0
100
AcDbLine
 10
159.541623
 20
78.28105
 30
0.0
 11
159.541623
 21
65.737923
 31
0.0
  0
LINE
  5
77F
100
AcDbEntity
  8
0
  6
BYBLOCK
 62
     0
100
AcDbLine
 10
69.541623
 20
78.28105
 30
0.0
 11
69.541623
 21
65.737923
 31
0.0
  0
LINE
  5
780
100
AcDbEntity
  8
0
  6
BYBLOCK
 62
     0
100
AcDbLine
 10
157.041623
 20
66.987923
 30
0.0
 11
72.041623
 21
66.987923
 31
0.0
  0
SOLID
  5
781
100
AcDbEntity
  8
0
  6
BYBLOCK
 62
     0
100
AcDbTrace
 10
157.041623
 20
67.40459
 30
0.0
 11
157.041623
 21
66.571257
 31
0.0
 12
159.541623
 22
66.987923
 32
0.0
 13
159.541623
 23
66.987923
 33
0.0
  0
SOLID
  5
782
100
AcDbEntity
  8
0
  6
BYBLOCK
 62
     0
100
AcDbTrace
 10
72.041623
 20
67.40459
 30
0.0
 11
72.041623
 21
66.571257
 31
0.0
 12
69.541623
 22
66.987923
 32
0.0
 13
69.541623
 23
66.987923
 33
0.0
  0
MTEXT
  5
783
100
AcDbEntity
  8
0
  6
BYBLOCK
 62
     0
100
AcDbMText
 10
114.541623
 20
70.293868
 30
0.0
 40
3.0
 41
0.0
 71
     5
 72
     1
  1
\A2;90{\H2.400000;\S+0.05^  0;}
  0
POINT
  5
784
100
AcDbEntity
  8
DEFPOINTS
  6
BYBLOCK
 62
     0
100
AcDbPoint
 10
159.541623
 20
78.90605
 30
0.0
  0
POINT
  5
785
100
AcDbEntity
  8
DEFPOINTS
  6
BYBLOCK
 62
     0
100
AcDbPoint
 10
69.541623
 20
78.90605
 30
0.0
  0
POINT
  5
786
100
AcDbEntity
  8
DEFPOINTS
  6
BYBLOCK
 62
     0
100
AcDbPoint
 10
69.541623
 20
66.987923
 30
0.0
  0
ENDBLK
  5
787
100
AcDbEntity
  8
0
100
AcDbBlockEnd
  0
BLOCK
  5
8A2
100
AcDbEntity
  8
0
100
AcDbBlockBegin
  2
*D15
 70
    65
 10
0.0
 20
0.0
 30
0.0
  3
*D15
  1

  0
LINE
  5
8A3
100
AcDbEntity
  8
0
  6
BYBLOCK
 62
     0
100
AcDbLine
 10
37.541623
 20
108.647691
 30
0.0
 11
37.541623
 21
105.327251
 31
0.0
  0
LINE
  5
8A4
100
AcDbEntity
  8
0
  6
BYBLOCK
 62
     0
100
AcDbLine
 10
191.541623
 20
110.669272
 30
0.0
 11
191.541623
 21
105.327251
 31
0.0
  0
LINE
  5
8A5
100
AcDbEntity
  8
0
  6
BYBLOCK
 62
     0
100
AcDbLine
 10
40.041623
 20
106.577251
 30
0.0
 11
189.041623
 21
106.577251
 31
0.0
  0
SOLID
  5
8A6
100
AcDbEntity
  8
0
  6
BYBLOCK
 62
     0
100
AcDbTrace
 10
40.041623
 20
106.993918
 30
0.0
 11
40.041623
 21
106.160585
 31
0.0
 12
37.541623
 22
106.577251
 32
0.0
 13
37.541623
 23
106.577251
 33
0.0
  0
SOLID
  5
8A7
100
AcDbEntity
  8
0
  6
BYBLOCK
 62
     0
100
AcDbTrace
 10
189.041623
 20
106.993918
 30
0.0
 11
189.041623
 21
106.160585
 31
0.0
 12
191.541623
 22
106.577251
 32
0.0
 13
191.541623
 23
106.577251
 33
0.0
  0
MTEXT
  5
8A8
100
AcDbEntity
  8
0
  6
BYBLOCK
 62
     0
100
AcDbMText
 10
114.541623
 20
108.702251
 30
0.0
 40
3.0
 41
0.0
 71
     5
 72
     1
  1
\A2;154{\H2.400000;±0.05}
  0
POINT
  5
8A9
100
AcDbEntity
  8
DEFPOINTS
  6
BYBLOCK
 62
     0
100
AcDbPoint
 10
37.541623
 20
109.272691
 30
0.0
  0
POINT
  5
8AA
100
AcDbEntity
  8
DEFPOINTS
  6
BYBLOCK
 62
     0
100
AcDbPoint
 10
191.541623
 20
111.294272
 30
0.0
  0
POINT
  5
8AB
100
AcDbEntity
  8
DEFPOINTS
  6
BYBLOCK
 62
     0
100
AcDbPoint
 10
191.541623
 20
106.577251
 30
0.0
  0
ENDBLK
  5
8AC
100
AcDbEntity
  8
0
100
AcDbBlockEnd
  0
BLOCK
  5
8B7
100
AcDbEntity
  8
0
100
AcDbBlockBegin
  2
*D16
 70
    65
 10
0.0
 20
0.0
 30
0.0
  3
*D16
  1

  0
LINE
  5
8B8
100
AcDbEntity
  8
0
  6
BYBLOCK
 62
     0
100
AcDbLine
 10
114.541623
 20
152.093165
 30
0.0
 11
125.809582
 21
124.829947
 31
0.0
  0
SOLID
  5
8B9
100
AcDbEntity
  8
0
  6
BYBLOCK
 62
     0
100
AcDbTrace
 10
126.194656
 20
124.989099
 30
0.0
 11
125.424508
 21
124.670795
 31
0.0
 12
126.764494
 22
122.519504
 32
0.0
 13
126.764494
 23
122.519504
 33
0.0
  0
MTEXT
  5
8BA
100
AcDbEntity
  8
0
  6
BYBLOCK
 62
     0
100
AcDbMText
 10
122.617207
 20
138.118123
 30
0.0
 40
3.0
 41
0.0
 71
     5
 72
     1
  1
\A1;R32
 11
0.381965
 21
-0.924177
 31
0.0
  0
POINT
  5
8BB
100
AcDbEntity
  8
DEFPOINTS
  6
BYBLOCK
 62
     0
100
AcDbPoint
 10
126.764494
 20
122.519504
 30
0.0
  0
POINT
  5
8BC
100
AcDbEntity
  8
DEFPOINTS
  6
BYBLOCK
 62
     0
100
AcDbPoint
 10
114.541623
 20
152.093165
 30
0.0
  0
ENDBLK
  5
8BD
100
AcDbEntity
  8
0
100
AcDbBlockEnd
  0
BLOCK
  5
8EF
100
AcDbEntity
  8
0
100
AcDbBlockBegin
  2
*D17
 70
    65
 10
0.0
 20
0.0
 30
0.0
  3
*D17
  1

  0
LINE
  5
8F0
100
AcDbEntity
  8
0
  6
BYBLOCK
 62
     0
100
AcDbLine
 10
159.541623
 20
78.28105
 30
0.0
 11
159.541623
 21
65.737923
 31
0.0
  0
LINE
  5
8F1
100
AcDbEntity
  8
0
  6
BYBLOCK
 62
     0
100
AcDbLine
 10
69.541623
 20
78.28105
 30
0.0
 11
69.541623
 21
65.737923
 31
0.0
  0
LINE
  5
8F2
100
AcDbEntity
  8
0
  6
BYBLOCK
 62
     0
100
AcDbLine
 10
157.041623
 20
66.987923
 30
0.0
 11
72.041623
 21
66.987923
 31
0.0
  0
SOLID
  5
8F3
100
AcDbEntity
  8
0
  6
BYBLOCK
 62
     0
100
AcDbTrace
 10
157.041623
 20
67.40459
 30
0.0
 11
157.041623
 21
66.571257
 31
0.0
 12
159.541623
 22
66.987923
 32
0.0
 13
159.541623
 23
66.987923
 33
0.0
  0
SOLID
  5
8F4
100
AcDbEntity
  8
0
  6
BYBLOCK
 62
     0
100
AcDbTrace
 10
72.041623
 20
67.40459
 30
0.0
 11
72.041623
 21
66.571257
 31
0.0
 12
69.541623
 22
66.987923
 32
0.0
 13
69.541623
 23
66.987923
 33
0.0
  0
MTEXT
  5
8F5
100
AcDbEntity
  8
0
  6
BYBLOCK
 62
     0
100
AcDbMText
 10
114.541623
 20
70.293868
 30
0.0
 40
3.0
 41
0.0
 71
     5
 72
     1
  1
\A2;90{\H2.400000;\S+0.05^  0;}
  0
POINT
  5
8F6
100
AcDbEntity
  8
DEFPOINTS
  6
BYBLOCK
 62
     0
100
AcDbPoint
 10
159.541623
 20
78.90605
 30
0.0
  0
POINT
  5
8F7
100
AcDbEntity
  8
DEFPOINTS
  6
BYBLOCK
 62
     0
100
AcDbPoint
 10
69.541623
 20
78.90605
 30
0.0
  0
POINT
  5
8F8
100
AcDbEntity
  8
DEFPOINTS
  6
BYBLOCK
 62
     0
100
AcDbPoint
 10
69.541623
 20
66.987923
 30
0.0
  0
ENDBLK
  5
8F9
100
AcDbEntity
  8
0
100
AcDbBlockEnd
  0
BLOCK
  5
975
100
AcDbEntity
  8
0
100
AcDbBlockBegin
  2
*D18
 70
    65
 10
0.0
 20
0.0
 30
0.0
  3
*D18
  1

  0
LINE
  5
976
100
AcDbEntity
  8
0
  6
BYBLOCK
 62
     0
100
AcDbLine
 10
401.145965
 20
181.03105
 30
0.0
 11
401.145965
 21
194.182003
 31
0.0
  0
LINE
  5
977
100
AcDbEntity
  8
0
  6
BYBLOCK
 62
     0
100
AcDbLine
 10
525.679657
 20
181.03105
 30
0.0
 11
525.679657
 21
194.182003
 31
0.0
  0
LINE
  5
978
100
AcDbEntity
  8
0
  6
BYBLOCK
 62
     0
100
AcDbLine
 10
403.645965
 20
192.932003
 30
0.0
 11
523.179657
 21
192.932003
 31
0.0
  0
SOLID
  5
979
100
AcDbEntity
  8
0
  6
BYBLOCK
 62
     0
100
AcDbTrace
 10
403.645965
 20
193.34867
 30
0.0
 11
403.645965
 21
192.515336
 31
0.0
 12
401.145965
 22
192.932003
 32
0.0
 13
401.145965
 23
192.932003
 33
0.0
  0
SOLID
  5
97A
100
AcDbEntity
  8
0
  6
BYBLOCK
 62
     0
100
AcDbTrace
 10
523.179657
 20
193.34867
 30
0.0
 11
523.179657
 21
192.515336
 31
0.0
 12
525.679657
 22
192.932003
 32
0.0
 13
525.679657
 23
192.932003
 33
0.0
  0
MTEXT
  5
97B
100
AcDbEntity
  8
0
  6
BYBLOCK
 62
     0
100
AcDbMText
 10
463.412811
 20
196.237948
 30
0.0
 40
3.0
 41
0.0
 71
     5
 72
     1
  1
\A2;124.53{\H2.400000;\S-0.1^  0;}
  0
POINT
  5
97C
100
AcDbEntity
  8
DEFPOINTS
  6
BYBLOCK
 62
     0
100
AcDbPoint
 10
401.145965
 20
180.40605
 30
0.0
  0
POINT
  5
97D
100
AcDbEntity
  8
DEFPOINTS
  6
BYBLOCK
 62
     0
100
AcDbPoint
 10
525.679657
 20
180.40605
 30
0.0
  0
POINT
  5
97E
100
AcDbEntity
  8
DEFPOINTS
  6
BYBLOCK
 62
     0
100
AcDbPoint
 10
525.679657
 20
192.932003
 30
0.0
  0
ENDBLK
  5
97F
100
AcDbEntity
  8
0
100
AcDbBlockEnd
  0
BLOCK
  5
90D
100
AcDbEntity
  8
0
100
AcDbBlockBegin
  2
*D19
 70
    65
 10
0.0
 20
0.0
 30
0.0
  3
*D19
  1

  0
LINE
  5
90E
100
AcDbEntity
  8
0
  6
BYBLOCK
 62
     0
100
AcDbLine
 10
401.624743
 20
180.807792
 30
0.0
 11
411.405931
 21
189.015184
 31
0.0
  0
LINE
  5
90F
100
AcDbEntity
  8
0
  6
BYBLOCK
 62
     0
100
AcDbLine
 10
411.676191
 20
168.828943
 30
0.0
 11
421.457379
 21
177.036335
 31
0.0
  0
LINE
  5
910
100
AcDbEntity
  8
0
  6
BYBLOCK
 62
     0
100
AcDbLine
 10
412.055345
 20
186.296588
 30
0.0
 11
418.892855
 21
178.147961
 31
0.0
  0
SOLID
  5
911
100
AcDbEntity
  8
0
  6
BYBLOCK
 62
     0
100
AcDbTrace
 10
412.37453
 20
186.564416
 30
0.0
 11
411.73616
 21
186.02876
 31
0.0
 12
410.448376
 22
188.211699
 32
0.0
 13
410.448376
 23
188.211699
 33
0.0
  0
SOLID
  5
912
100
AcDbEntity
  8
0
  6
BYBLOCK
 62
     0
100
AcDbTrace
 10
419.21204
 20
178.41579
 30
0.0
 11
418.573669
 21
177.880133
 31
0.0
 12
420.499824
 22
176.23285
 32
0.0
 13
420.499824
 23
176.23285
 33
0.0
  0
MTEXT
  5
913
100
AcDbEntity
  8
0
  6
BYBLOCK
 62
     0
100
AcDbMText
 10
417.101944
 20
183.588199
 30
0.0
 40
3.0
 41
0.0
 71
     5
 72
     1
  1
\A1;15.64
 11
0.642788
 21
-0.766044
 31
0.0
  0
POINT
  5
914
100
AcDbEntity
  8
DEFPOINTS
  6
BYBLOCK
 62
     0
100
AcDbPoint
 10
401.145965
 20
180.40605
 30
0.0
  0
POINT
  5
915
100
AcDbEntity
  8
DEFPOINTS
  6
BYBLOCK
 62
     0
100
AcDbPoint
 10
411.197413
 20
168.427201
 30
0.0
  0
POINT
  5
916
100
AcDbEntity
  8
DEFPOINTS
  6
BYBLOCK
 62
     0
100
AcDbPoint
 10
420.499824
 20
176.23285
 30
0.0
  0
ENDBLK
  5
917
100
AcDbEntity
  8
0
100
AcDbBlockEnd
  0
BLOCK
  5
931
100
AcDbEntity
  8
0
100
AcDbBlockBegin
  2
*D20
 70
    65
 10
0.0
 20
0.0
 30
0.0
  3
*D20
  1

  0
LINE
  5
932
100
AcDbEntity
  8
0
  6
BYBLOCK
 62
     0
100
AcDbLine
 10
537.787811
 20
96.90605
 30
0.0
 11
526.129724
 21
96.90605
 31
0.0
  0
LINE
  5
933
100
AcDbEntity
  8
0
  6
BYBLOCK
 62
     0
100
AcDbLine
 10
507.037811
 20
76.60605
 30
0.0
 11
528.629724
 21
76.60605
 31
0.0
  0
LINE
  5
934
100
AcDbEntity
  8
0
  6
BYBLOCK
 62
     0
100
AcDbLine
 10
527.379724
 20
94.40605
 30
0.0
 11
527.379724
 21
79.10605
 31
0.0
  0
SOLID
  5
935
100
AcDbEntity
  8
0
  6
BYBLOCK
 62
     0
100
AcDbTrace
 10
526.963057
 20
94.40605
 30
0.0
 11
527.79639
 21
94.40605
 31
0.0
 12
527.379724
 22
96.90605
 32
0.0
 13
527.379724
 23
96.90605
 33
0.0
  0
SOLID
  5
936
100
AcDbEntity
  8
0
  6
BYBLOCK
 62
     0
100
AcDbTrace
 10
526.963057
 20
79.10605
 30
0.0
 11
527.79639
 21
79.10605
 31
0.0
 12
527.379724
 22
76.60605
 32
0.0
 13
527.379724
 23
76.60605
 33
0.0
  0
MTEXT
  5
937
100
AcDbEntity
  8
0
  6
BYBLOCK
 62
     0
100
AcDbMText
 10
524.073779
 20
86.75605
 30
0.0
 40
3.0
 41
0.0
 71
     5
 72
     1
  1
\A2;20.3{\H2.400000;\S+0.1^  0;}
 11
0.0
 21
1.0
 31
0.0
  0
POINT
  5
938
100
AcDbEntity
  8
DEFPOINTS
  6
BYBLOCK
 62
     0
100
AcDbPoint
 10
538.412811
 20
96.90605
 30
0.0
  0
POINT
  5
939
100
AcDbEntity
  8
DEFPOINTS
  6
BYBLOCK
 62
     0
100
AcDbPoint
 10
506.412811
 20
76.60605
 30
0.0
  0
POINT
  5
93A
100
AcDbEntity
  8
DEFPOINTS
  6
BYBLOCK
 62
     0
100
AcDbPoint
 10
527.379724
 20
76.60605
 30
0.0
  0
ENDBLK
  5
93B
100
AcDbEntity
  8
0
100
AcDbBlockEnd
  0
BLOCK
  5
CA4
100
AcDbEntity
  8
0
100
AcDbBlockBegin
  2
*D21
 70
    65
 10
0.0
 20
0.0
 30
0.0
  3
*D21
  1

  0
LINE
  5
CA5
100
AcDbEntity
  8
0
  6
BYBLOCK
 62
     0
100
AcDbLine
 10
507.037811
 20
76.60605
 30
0.0
 11
553.224196
 21
76.60605
 31
0.0
  0
LINE
  5
CA6
100
AcDbEntity
  8
0
  6
BYBLOCK
 62
     0
100
AcDbLine
 10
538.537811
 20
180.40605
 30
0.0
 11
553.224196
 21
180.40605
 31
0.0
  0
LINE
  5
CA7
100
AcDbEntity
  8
0
  6
BYBLOCK
 62
     0
100
AcDbLine
 10
551.974196
 20
79.10605
 30
0.0
 11
551.974196
 21
177.90605
 31
0.0
  0
SOLID
  5
CA8
100
AcDbEntity
  8
0
  6
BYBLOCK
 62
     0
100
AcDbTrace
 10
551.557529
 20
79.10605
 30
0.0
 11
552.390863
 21
79.10605
 31
0.0
 12
551.974196
 22
76.60605
 32
0.0
 13
551.974196
 23
76.60605
 33
0.0
  0
SOLID
  5
CA9
100
AcDbEntity
  8
0
  6
BYBLOCK
 62
     0
100
AcDbTrace
 10
551.557529
 20
177.90605
 30
0.0
 11
552.390863
 21
177.90605
 31
0.0
 12
551.974196
 22
180.40605
 32
0.0
 13
551.974196
 23
180.40605
 33
0.0
  0
MTEXT
  5
CAA
100
AcDbEntity
  8
0
  6
BYBLOCK
 62
     0
100
AcDbMText
 10
548.668251
 20
128.50605
 30
0.0
 40
3.0
 41
0.0
 71
     5
 72
     1
  1
\A2;103.8{\H2.400000;\S+0.1^  0;}
 11
0.0
 21
1.0
 31
0.0
  0
POINT
  5
CAB
100
AcDbEntity
  8
DEFPOINTS
  6
BYBLOCK
 62
     0
100
AcDbPoint
 10
506.412811
 20
76.60605
 30
0.0
  0
POINT
  5
CAC
100
AcDbEntity
  8
DEFPOINTS
  6
BYBLOCK
 62
     0
100
AcDbPoint
 10
537.912811
 20
180.40605
 30
0.0
  0
POINT
  5
CAD
100
AcDbEntity
  8
DEFPOINTS
  6
BYBLOCK
 62
     0
100
AcDbPoint
 10
551.974196
 20
180.40605
 30
0.0
  0
ENDBLK
  5
CAE
100
AcDbEntity
  8
0
100
AcDbBlockEnd
  0
BLOCK
  5
A60
100
AcDbEntity
  8
0
100
AcDbBlockBegin
  2
*D23
 70
    65
 10
0.0
 20
0.0
 30
0.0
  3
*D23
  1

  0
LINE
  5
A61
100
AcDbEntity
  8
0
  6
BYBLOCK
 62
     0
100
AcDbLine
 10
411.599155
 20
167.948423
 30
0.0
 11
424.236904
 21
152.88734
 31
0.0
  0
LINE
  5
A62
100
AcDbEntity
  8
0
  6
BYBLOCK
 62
     0
100
AcDbLine
 10
409.684044
 20
166.341454
 30
0.0
 11
422.321793
 21
151.280371
 31
0.0
  0
LINE
  5
A63
100
AcDbEntity
  8
0
  6
BYBLOCK
 62
     0
100
AcDbLine
 10
425.34853
 20
155.451865
 30
0.0
 11
427.263642
 21
157.058834
 31
0.0
  0
LINE
  5
A64
100
AcDbEntity
  8
0
  6
BYBLOCK
 62
     0
100
AcDbLine
 10
419.603197
 20
150.630958
 30
0.0
 11
407.983835
 21
140.881156
 31
0.0
  0
SOLID
  5
A65
100
AcDbEntity
  8
0
  6
BYBLOCK
 62
     0
100
AcDbTrace
 10
425.080702
 20
155.77105
 30
0.0
 11
425.616359
 21
155.13268
 31
0.0
 12
423.433419
 22
153.844896
 32
0.0
 13
423.433419
 23
153.844896
 33
0.0
  0
SOLID
  5
A66
100
AcDbEntity
  8
0
  6
BYBLOCK
 62
     0
100
AcDbTrace
 10
419.335369
 20
150.950143
 30
0.0
 11
419.871025
 21
150.311773
 31
0.0
 12
421.518308
 22
152.237927
 32
0.0
 13
421.518308
 23
152.237927
 33
0.0
  0
MTEXT
  5
A67
100
AcDbEntity
  8
0
  6
BYBLOCK
 62
     0
100
AcDbMText
 10
410.71094
 20
147.485073
 30
0.0
 40
3.0
 41
0.0
 71
     5
 72
     1
  1
\A2;2.5{\H2.400000;\S-0.1^  0;}
 11
0.766044
 21
0.642788
 31
0.0
  0
POINT
  5
A68
100
AcDbEntity
  8
DEFPOINTS
  6
BYBLOCK
 62
     0
100
AcDbPoint
 10
411.197413
 20
168.427201
 30
0.0
  0
POINT
  5
A69
100
AcDbEntity
  8
DEFPOINTS
  6
BYBLOCK
 62
     0
100
AcDbPoint
 10
409.282302
 20
166.820232
 30
0.0
  0
POINT
  5
A6A
100
AcDbEntity
  8
DEFPOINTS
  6
BYBLOCK
 62
     0
100
AcDbPoint
 10
421.518308
 20
152.237927
 30
0.0
  0
ENDBLK
  5
A6B
100
AcDbEntity
  8
0
100
AcDbBlockEnd
  0
BLOCK
  5
A80
100
AcDbEntity
  8
0
100
AcDbBlockBegin
  2
*D24
 70
    65
 10
0.0
 20
0.0
 30
0.0
  3
*D24
  1

  0
LINE
  5
A81
100
AcDbEntity
  8
0
  6
BYBLOCK
 62
     0
100
AcDbLine
 10
515.226467
 20
167.948423
 30
0.0
 11
508.916593
 21
160.428608
 31
0.0
  0
LINE
  5
A82
100
AcDbEntity
  8
0
  6
BYBLOCK
 62
     0
100
AcDbLine
 10
411.599155
 20
167.948423
 30
0.0
 11
417.90903
 21
160.428608
 31
0.0
  0
ARC
  5
A83
100
AcDbEntity
  8
0
  6
BYBLOCK
 62
     0
100
AcDbCircle
 10
463.412811
 20
106.199312
 30
0.0
 40
72.041317
100
AcDbArc
 50
51.988396
 51
128.011604
  0
SOLID
  5
A84
100
AcDbEntity
  8
0
  6
BYBLOCK
 62
     0
100
AcDbTrace
 10
508.039621
 20
163.283445
 30
0.0
 11
507.515122
 21
162.635877
 31
0.0
 12
509.720077
 22
161.386163
 32
0.0
 13
509.720077
 23
161.386163
 33
0.0
  0
SOLID
  5
A85
100
AcDbEntity
  8
0
  6
BYBLOCK
 62
     0
100
AcDbTrace
 10
419.3105
 20
162.635877
 30
0.0
 11
418.786001
 21
163.283445
 31
0.0
 12
417.105545
 22
161.386163
 32
0.0
 13
417.105545
 23
161.386163
 33
0.0
  0
MTEXT
  5
A86
100
AcDbEntity
  8
0
  6
BYBLOCK
 62
     0
100
AcDbMText
 10
463.412811
 20
180.36563
 30
0.0
 40
3.0
 41
0.0
 71
     5
 72
     1
  1
\A1;80°
  0
POINT
  5
A87
100
AcDbEntity
  8
DEFPOINTS
  6
BYBLOCK
 62
     0
100
AcDbPoint
 10
480.026682
 20
176.298747
 30
0.0
  0
POINT
  5
A88
100
AcDbEntity
  8
DEFPOINTS
  6
BYBLOCK
 62
     0
100
AcDbPoint
 10
401.145965
 20
180.40605
 30
0.0
  0
POINT
  5
A89
100
AcDbEntity
  8
DEFPOINTS
  6
BYBLOCK
 62
     0
100
AcDbPoint
 10
525.679657
 20
180.40605
 30
0.0
  0
POINT
  5
A8A
100
AcDbEntity
  8
DEFPOINTS
  6
BYBLOCK
 62
     0
100
AcDbPoint
 10
515.628209
 20
168.427201
 30
0.0
  0
POINT
  5
A8B
100
AcDbEntity
  8
DEFPOINTS
  6
BYBLOCK
 62
     0
100
AcDbPoint
 10
411.197413
 20
168.427201
 30
0.0
  0
ENDBLK
  5
A8C
100
AcDbEntity
  8
0
100
AcDbBlockEnd
  0
BLOCK
  5
AF2
100
AcDbEntity
  8
0
100
AcDbBlockBegin
  2
*D25
 70
    65
 10
0.0
 20
0.0
 30
0.0
  3
*D25
  1

  0
LINE
  5
AF3
100
AcDbEntity
  8
0
  6
BYBLOCK
 62
     0
100
AcDbLine
 10
342.788119
 20
120.109552
 30
0.0
 11
313.297038
 21
114.60718
 31
0.0
  0
SOLID
  5
AF4
100
AcDbEntity
  8
0
  6
BYBLOCK
 62
     0
100
AcDbTrace
 10
342.711697
 20
120.519151
 30
0.0
 11
342.864541
 21
119.699954
 31
0.0
 12
345.245709
 22
120.568083
 32
0.0
 13
345.245709
 23
120.568083
 33
0.0
  0
SOLID
  5
AF5
100
AcDbEntity
  8
0
  6
BYBLOCK
 62
     0
100
AcDbTrace
 10
313.220616
 20
115.016778
 30
0.0
 11
313.373459
 21
114.197582
 31
0.0
 12
310.839448
 22
114.148649
 32
0.0
 13
310.839448
 23
114.148649
 33
0.0
  0
MTEXT
  5
AF6
100
AcDbEntity
  8
0
  6
BYBLOCK
 62
     0
100
AcDbMText
 10
327.652827
 20
119.447318
 30
0.0
 40
3.0
 41
0.0
 71
     5
 72
     1
  1
\A2;\U+2205140{\H2.400000;±0.01}
 11
0.983036
 21
0.183412
 31
0.0
  0
POINT
  5
AF7
100
AcDbEntity
  8
DEFPOINTS
  6
BYBLOCK
 62
     0
100
AcDbPoint
 10
310.839448
 20
114.148649
 30
0.0
  0
POINT
  5
AF8
100
AcDbEntity
  8
DEFPOINTS
  6
BYBLOCK
 62
     0
100
AcDbPoint
 10
345.245709
 20
120.568083
 30
0.0
  0
ENDBLK
  5
AF9
100
AcDbEntity
  8
0
100
AcDbBlockEnd
  0
BLOCK
  5
ADD
100
AcDbEntity
  8
0
100
AcDbBlockBegin
  2
*D26
 70
    65
 10
0.0
 20
0.0
 30
0.0
  3
*D26
  1

  0
LINE
  5
ADE
100
AcDbEntity
  8
0
  6
BYBLOCK
 62
     0
100
AcDbLine
 10
466.49323
 20
429.383623
 30
0.0
 11
503.963238
 21
429.383623
 31
0.0
  0
LINE
  5
ADF
100
AcDbEntity
  8
0
  6
BYBLOCK
 62
     0
100
AcDbLine
 10
477.24323
 20
377.26014
 30
0.0
 11
503.963238
 21
377.26014
 31
0.0
  0
LINE
  5
AE0
100
AcDbEntity
  8
0
  6
BYBLOCK
 62
     0
100
AcDbLine
 10
502.713238
 20
426.883623
 30
0.0
 11
502.713238
 21
379.76014
 31
0.0
  0
SOLID
  5
AE1
100
AcDbEntity
  8
0
  6
BYBLOCK
 62
     0
100
AcDbTrace
 10
502.296571
 20
426.883623
 30
0.0
 11
503.129904
 21
426.883623
 31
0.0
 12
502.713238
 22
429.383623
 32
0.0
 13
502.713238
 23
429.383623
 33
0.0
  0
SOLID
  5
AE2
100
AcDbEntity
  8
0
  6
BYBLOCK
 62
     0
100
AcDbTrace
 10
502.296571
 20
379.76014
 30
0.0
 11
503.129904
 21
379.76014
 31
0.0
 12
502.713238
 22
377.26014
 32
0.0
 13
502.713238
 23
377.26014
 33
0.0
  0
MTEXT
  5
AE3
100
AcDbEntity
  8
0
  6
BYBLOCK
 62
     0
100
AcDbMText
 10
499.407293
 20
403.321882
 30
0.0
 40
3.0
 41
0.0
 71
     5
 72
     1
  1
\A2;208.49{\H2.400000;\S+0.1^  0;}
 11
0.0
 21
1.0
 31
0.0
  0
POINT
  5
AE4
100
AcDbEntity
  8
DEFPOINTS
  6
BYBLOCK
 62
     0
100
AcDbPoint
 10
465.86823
 20
429.383623
 30
0.0
  0
POINT
  5
AE5
100
AcDbEntity
  8
DEFPOINTS
  6
BYBLOCK
 62
     0
100
AcDbPoint
 10
476.61823
 20
377.26014
 30
0.0
  0
POINT
  5
AE6
100
AcDbEntity
  8
DEFPOINTS
  6
BYBLOCK
 62
     0
100
AcDbPoint
 10
502.713238
 20
377.26014
 30
0.0
  0
ENDBLK
  5
AE7
100
AcDbEntity
  8
0
100
AcDbBlockEnd
  0
BLOCK
  5
B29
100
AcDbEntity
  8
0
100
AcDbBlockBegin
  2
*D28
 70
    65
 10
0.0
 20
0.0
 30
0.0
  3
*D28
  1

  0
LINE
  5
B2A
100
AcDbEntity
  8
0
  6
BYBLOCK
 62
     0
100
AcDbLine
 10
36.916623
 20
139.40605
 30
0.0
 11
31.616273
 21
139.40605
 31
0.0
  0
LINE
  5
B2B
100
AcDbEntity
  8
0
  6
BYBLOCK
 62
     0
100
AcDbLine
 10
36.916623
 20
137.40605
 30
0.0
 11
31.616273
 21
137.40605
 31
0.0
  0
LINE
  5
B2C
100
AcDbEntity
  8
0
  6
BYBLOCK
 62
     0
100
AcDbLine
 10
32.866273
 20
141.90605
 30
0.0
 11
32.866273
 21
144.40605
 31
0.0
  0
LINE
  5
B2D
100
AcDbEntity
  8
0
  6
BYBLOCK
 62
     0
100
AcDbLine
 10
32.866273
 20
134.90605
 30
0.0
 11
32.866273
 21
129.554056
 31
0.0
  0
SOLID
  5
B2E
100
AcDbEntity
  8
0
  6
BYBLOCK
 62
     0
100
AcDbTrace
 10
32.449606
 20
141.90605
 30
0.0
 11
33.282939
 21
141.90605
 31
0.0
 12
32.866273
 22
139.40605
 32
0.0
 13
32.866273
 23
139.40605
 33
0.0
  0
SOLID
  5
B2F
100
AcDbEntity
  8
0
  6
BYBLOCK
 62
     0
100
AcDbTrace
 10
32.449606
 20
134.90605
 30
0.0
 11
33.282939
 21
134.90605
 31
0.0
 12
32.866273
 22
137.40605
 32
0.0
 13
32.866273
 23
137.40605
 33
0.0
  0
MTEXT
  5
B30
100
AcDbEntity
  8
0
  6
BYBLOCK
 62
     0
100
AcDbMText
 10
30.740977
 20
130.980053
 30
0.0
 40
3.0
 41
0.0
 71
     5
 72
     1
  1
\A1;2
 11
0.0
 21
1.0
 31
0.0
  0
POINT
  5
B31
100
AcDbEntity
  8
DEFPOINTS
  6
BYBLOCK
 62
     0
100
AcDbPoint
 10
37.541623
 20
139.40605
 30
0.0
  0
POINT
  5
B32
100
AcDbEntity
  8
DEFPOINTS
  6
BYBLOCK
 62
     0
100
AcDbPoint
 10
37.541623
 20
137.40605
 30
0.0
  0
POINT
  5
B33
100
AcDbEntity
  8
DEFPOINTS
  6
BYBLOCK
 62
     0
100
AcDbPoint
 10
32.866273
 20
137.40605
 30
0.0
  0
ENDBLK
  5
B34
100
AcDbEntity
  8
0
100
AcDbBlockEnd
  0
BLOCK
  5
B37
100
AcDbEntity
  8
0
100
AcDbBlockBegin
  2
*D29
 70
    65
 10
0.0
 20
0.0
 30
0.0
  3
*D29
  1

  0
LINE
  5
B38
100
AcDbEntity
  8
0
  6
BYBLOCK
 62
     0
100
AcDbLine
 10
38.983565
 20
137.964108
 30
0.0
 11
45.594254
 21
131.353419
 31
0.0
  0
LINE
  5
B39
100
AcDbEntity
  8
0
  6
BYBLOCK
 62
     0
100
AcDbLine
 10
38.983565
 20
138.847992
 30
0.0
 11
45.594254
 21
145.458681
 31
0.0
  0
ARC
  5
B3A
100
AcDbEntity
  8
0
  6
BYBLOCK
 62
     0
100
AcDbCircle
 10
38.541623
 20
138.40605
 30
0.0
 40
8.723926
100
AcDbArc
 50
331.475857
 51
28.524143
  0
SOLID
  5
B3B
100
AcDbEntity
  8
0
  6
BYBLOCK
 62
     0
100
AcDbTrace
 10
46.540407
 20
133.99075
 30
0.0
 11
45.872801
 21
134.489494
 31
0.0
 12
44.710371
 22
132.237303
 32
0.0
 13
44.710371
 23
132.237303
 33
0.0
  0
SOLID
  5
B3C
100
AcDbEntity
  8
0
  6
BYBLOCK
 62
     0
100
AcDbTrace
 10
45.872801
 20
142.322606
 30
0.0
 11
46.540407
 21
142.82135
 31
0.0
 12
44.710371
 22
144.574797
 32
0.0
 13
44.710371
 23
144.574797
 33
0.0
  0
MTEXT
  5
B3D
100
AcDbEntity
  8
0
  6
BYBLOCK
 62
     0
100
AcDbMText
 10
45.140549
 20
138.40605
 30
0.0
 40
3.0
 41
0.0
 71
     5
 72
     1
  1
\A1;90°
 11
0.0
 21
1.0
 31
0.0
  0
POINT
  5
B3E
100
AcDbEntity
  8
DEFPOINTS
  6
BYBLOCK
 62
     0
100
AcDbPoint
 10
46.968289
 20
136.148132
 30
0.0
  0
POINT
  5
B3F
100
AcDbEntity
  8
DEFPOINTS
  6
BYBLOCK
 62
     0
100
AcDbPoint
 10
37.541623
 20
139.40605
 30
0.0
  0
POINT
  5
B40
100
AcDbEntity
  8
DEFPOINTS
  6
BYBLOCK
 62
     0
100
AcDbPoint
 10
37.541623
 20
137.40605
 30
0.0
  0
POINT
  5
B41
100
AcDbEntity
  8
DEFPOINTS
  6
BYBLOCK
 62
     0
100
AcDbPoint
 10
38.541623
 20
138.40605
 30
0.0
  0
POINT
  5
B42
100
AcDbEntity
  8
DEFPOINTS
  6
BYBLOCK
 62
     0
100
AcDbPoint
 10
38.541623
 20
138.40605
 30
0.0
  0
ENDBLK
  5
B43
100
AcDbEntity
  8
0
100
AcDbBlockEnd
  0
BLOCK
  5
B94
100
AcDbEntity
  8
0
100
AcDbBlockBegin
  2
*X30
 70
    65
 10
0.0
 20
0.0
 30
0.0
  3
*X30
  1

  0
LINE
  5
B96
100
AcDbEntity
  8
0
 62
     0
100
AcDbLine
 10
412.001404
 20
163.427915
 30
0.0
 11
412.070672
 21
163.497182
 31
0.0
  0
LINE
  5
B97
100
AcDbEntity
  8
0
 62
     0
100
AcDbLine
 10
411.760973
 20
163.546694
 30
0.0
 11
411.90678
 21
163.692501
 31
0.0
  0
LINE
  5
B98
100
AcDbEntity
  8
0
 62
     0
100
AcDbLine
 10
411.520543
 20
163.665474
 30
0.0
 11
411.742888
 21
163.887819
 31
0.0
  0
LINE
  5
B99
100
AcDbEntity
  8
0
 62
     0
100
AcDbLine
 10
411.280112
 20
163.784253
 30
0.0
 11
411.578996
 21
164.083138
 31
0.0
  0
LINE
  5
B9A
100
AcDbEntity
  8
0
 62
     0
100
AcDbLine
 10
411.039681
 20
163.903033
 30
0.0
 11
411.415105
 21
164.278456
 31
0.0
  0
LINE
  5
B9B
100
AcDbEntity
  8
0
 62
     0
100
AcDbLine
 10
410.79925
 20
164.021812
 30
0.0
 11
411.251213
 21
164.473775
 31
0.0
  0
LINE
  5
B9C
100
AcDbEntity
  8
0
 62
     0
100
AcDbLine
 10
410.55882
 20
164.140592
 30
0.0
 11
411.197413
 21
164.779185
 31
0.0
  0
LINE
  5
B9D
100
AcDbEntity
  8
0
 62
     0
100
AcDbLine
 10
410.318389
 20
164.259371
 30
0.0
 11
411.197413
 21
165.138395
 31
0.0
  0
LINE
  5
B9E
100
AcDbEntity
  8
0
 62
     0
100
AcDbLine
 10
410.077958
 20
164.378151
 30
0.0
 11
411.197413
 21
165.497605
 31
0.0
  0
LINE
  5
B9F
100
AcDbEntity
  8
0
 62
     0
100
AcDbLine
 10
409.837528
 20
164.49693
 30
0.0
 11
411.197413
 21
165.856816
 31
0.0
  0
LINE
  5
BA0
100
AcDbEntity
  8
0
 62
     0
100
AcDbLine
 10
409.597097
 20
164.61571
 30
0.0
 11
411.197413
 21
166.216026
 31
0.0
  0
LINE
  5
BA1
100
AcDbEntity
  8
0
 62
     0
100
AcDbLine
 10
409.356666
 20
164.734489
 30
0.0
 11
411.197413
 21
166.575236
 31
0.0
  0
LINE
  5
BA2
100
AcDbEntity
  8
0
 62
     0
100
AcDbLine
 10
409.116235
 20
164.853269
 30
0.0
 11
411.197413
 21
166.934446
 31
0.0
  0
LINE
  5
BA3
100
AcDbEntity
  8
0
 62
     0
100
AcDbLine
 10
408.875805
 20
164.972049
 30
0.0
 11
411.197413
 21
167.293657
 31
0.0
  0
LINE
  5
BA4
100
AcDbEntity
  8
0
 62
     0
100
AcDbLine
 10
408.635374
 20
165.090828
 30
0.0
 11
411.197413
 21
167.652867
 31
0.0
  0
LINE
  5
BA5
100
AcDbEntity
  8
0
 62
     0
100
AcDbLine
 10
408.394943
 20
165.209608
 30
0.0
 11
411.197413
 21
168.012077
 31
0.0
  0
LINE
  5
BA6
100
AcDbEntity
  8
0
 62
     0
100
AcDbLine
 10
408.154513
 20
165.328387
 30
0.0
 11
411.197413
 21
168.371287
 31
0.0
  0
LINE
  5
BA7
100
AcDbEntity
  8
0
 62
     0
100
AcDbLine
 10
407.914082
 20
165.447167
 30
0.0
 11
411.059032
 21
168.592117
 31
0.0
  0
LINE
  5
BA8
100
AcDbEntity
  8
0
 62
     0
100
AcDbLine
 10
407.673651
 20
165.565946
 30
0.0
 11
410.89514
 21
168.787435
 31
0.0
  0
LINE
  5
BA9
100
AcDbEntity
  8
0
 62
     0
100
AcDbLine
 10
407.43322
 20
165.684726
 30
0.0
 11
410.731249
 21
168.982754
 31
0.0
  0
LINE
  5
BAA
100
AcDbEntity
  8
0
 62
     0
100
AcDbLine
 10
407.19279
 20
165.803505
 30
0.0
 11
410.567357
 21
169.178072
 31
0.0
  0
LINE
  5
BAB
100
AcDbEntity
  8
0
 62
     0
100
AcDbLine
 10
406.952359
 20
165.922285
 30
0.0
 11
410.403465
 21
169.373391
 31
0.0
  0
LINE
  5
BAC
100
AcDbEntity
  8
0
 62
     0
100
AcDbLine
 10
406.711928
 20
166.041064
 30
0.0
 11
410.239573
 21
169.568709
 31
0.0
  0
LINE
  5
BAD
100
AcDbEntity
  8
0
 62
     0
100
AcDbLine
 10
406.471498
 20
166.159844
 30
0.0
 11
410.075682
 21
169.764028
 31
0.0
  0
LINE
  5
BAE
100
AcDbEntity
  8
0
 62
     0
100
AcDbLine
 10
406.231067
 20
166.278623
 30
0.0
 11
409.91179
 21
169.959346
 31
0.0
  0
LINE
  5
BAF
100
AcDbEntity
  8
0
 62
     0
100
AcDbLine
 10
405.990636
 20
166.397403
 30
0.0
 11
409.747898
 21
170.154665
 31
0.0
  0
LINE
  5
BB0
100
AcDbEntity
  8
0
 62
     0
100
AcDbLine
 10
405.750205
 20
166.516182
 30
0.0
 11
409.584007
 21
170.349984
 31
0.0
  0
LINE
  5
BB1
100
AcDbEntity
  8
0
 62
     0
100
AcDbLine
 10
405.509775
 20
166.634962
 30
0.0
 11
409.420115
 21
170.545302
 31
0.0
  0
LINE
  5
BB2
100
AcDbEntity
  8
0
 62
     0
100
AcDbLine
 10
405.269344
 20
166.753741
 30
0.0
 11
409.256223
 21
170.740621
 31
0.0
  0
LINE
  5
BB3
100
AcDbEntity
  8
0
 62
     0
100
AcDbLine
 10
405.028913
 20
166.872521
 30
0.0
 11
409.092331
 21
170.935939
 31
0.0
  0
LINE
  5
BB4
100
AcDbEntity
  8
0
 62
     0
100
AcDbLine
 10
404.788483
 20
166.991301
 30
0.0
 11
408.92844
 21
171.131258
 31
0.0
  0
LINE
  5
BB5
100
AcDbEntity
  8
0
 62
     0
100
AcDbLine
 10
404.548052
 20
167.11008
 30
0.0
 11
408.764548
 21
171.326576
 31
0.0
  0
LINE
  5
BB6
100
AcDbEntity
  8
0
 62
     0
100
AcDbLine
 10
404.307621
 20
167.22886
 30
0.0
 11
408.600656
 21
171.521895
 31
0.0
  0
LINE
  5
BB7
100
AcDbEntity
  8
0
 62
     0
100
AcDbLine
 10
404.06719
 20
167.347639
 30
0.0
 11
408.436765
 21
171.717213
 31
0.0
  0
LINE
  5
BB8
100
AcDbEntity
  8
0
 62
     0
100
AcDbLine
 10
403.82676
 20
167.466419
 30
0.0
 11
408.272873
 21
171.912532
 31
0.0
  0
LINE
  5
BB9
100
AcDbEntity
  8
0
 62
     0
100
AcDbLine
 10
403.586329
 20
167.585198
 30
0.0
 11
408.108981
 21
172.10785
 31
0.0
  0
LINE
  5
BBA
100
AcDbEntity
  8
0
 62
     0
100
AcDbLine
 10
403.345898
 20
167.703978
 30
0.0
 11
407.94509
 21
172.303169
 31
0.0
  0
LINE
  5
BBB
100
AcDbEntity
  8
0
 62
     0
100
AcDbLine
 10
403.105468
 20
167.822757
 30
0.0
 11
407.781198
 21
172.498487
 31
0.0
  0
LINE
  5
BBC
100
AcDbEntity
  8
0
 62
     0
100
AcDbLine
 10
402.865037
 20
167.941537
 30
0.0
 11
407.617306
 21
172.693806
 31
0.0
  0
LINE
  5
BBD
100
AcDbEntity
  8
0
 62
     0
100
AcDbLine
 10
402.624606
 20
168.060316
 30
0.0
 11
407.453414
 21
172.889124
 31
0.0
  0
LINE
  5
BBE
100
AcDbEntity
  8
0
 62
     0
100
AcDbLine
 10
402.384175
 20
168.179096
 30
0.0
 11
407.289523
 21
173.084443
 31
0.0
  0
LINE
  5
BBF
100
AcDbEntity
  8
0
 62
     0
100
AcDbLine
 10
402.143745
 20
168.297875
 30
0.0
 11
407.125631
 21
173.279762
 31
0.0
  0
LINE
  5
BC0
100
AcDbEntity
  8
0
 62
     0
100
AcDbLine
 10
401.903314
 20
168.416655
 30
0.0
 11
406.961739
 21
173.47508
 31
0.0
  0
LINE
  5
BC1
100
AcDbEntity
  8
0
 62
     0
100
AcDbLine
 10
401.662883
 20
168.535434
 30
0.0
 11
406.797848
 21
173.670399
 31
0.0
  0
LINE
  5
BC2
100
AcDbEntity
  8
0
 62
     0
100
AcDbLine
 10
401.422453
 20
168.654214
 30
0.0
 11
406.633956
 21
173.865717
 31
0.0
  0
LINE
  5
BC3
100
AcDbEntity
  8
0
 62
     0
100
AcDbLine
 10
401.182022
 20
168.772994
 30
0.0
 11
406.470064
 21
174.061036
 31
0.0
  0
LINE
  5
BC4
100
AcDbEntity
  8
0
 62
     0
100
AcDbLine
 10
400.941591
 20
168.891773
 30
0.0
 11
406.306172
 21
174.256354
 31
0.0
  0
LINE
  5
BC5
100
AcDbEntity
  8
0
 62
     0
100
AcDbLine
 10
400.70116
 20
169.010553
 30
0.0
 11
406.142281
 21
174.451673
 31
0.0
  0
LINE
  5
BC6
100
AcDbEntity
  8
0
 62
     0
100
AcDbLine
 10
400.46073
 20
169.129332
 30
0.0
 11
405.978389
 21
174.646991
 31
0.0
  0
LINE
  5
BC7
100
AcDbEntity
  8
0
 62
     0
100
AcDbLine
 10
400.220299
 20
169.248112
 30
0.0
 11
405.814497
 21
174.84231
 31
0.0
  0
LINE
  5
BC8
100
AcDbEntity
  8
0
 62
     0
100
AcDbLine
 10
399.979868
 20
169.366891
 30
0.0
 11
405.650606
 21
175.037628
 31
0.0
  0
LINE
  5
BC9
100
AcDbEntity
  8
0
 62
     0
100
AcDbLine
 10
399.739438
 20
169.485671
 30
0.0
 11
405.486714
 21
175.232947
 31
0.0
  0
LINE
  5
BCA
100
AcDbEntity
  8
0
 62
     0
100
AcDbLine
 10
399.499007
 20
169.60445
 30
0.0
 11
405.322822
 21
175.428265
 31
0.0
  0
LINE
  5
BCB
100
AcDbEntity
  8
0
 62
     0
100
AcDbLine
 10
399.258576
 20
169.72323
 30
0.0
 11
405.15893
 21
175.623584
 31
0.0
  0
LINE
  5
BCC
100
AcDbEntity
  8
0
 62
     0
100
AcDbLine
 10
399.018145
 20
169.842009
 30
0.0
 11
404.995039
 21
175.818903
 31
0.0
  0
LINE
  5
BCD
100
AcDbEntity
  8
0
 62
     0
100
AcDbLine
 10
398.777715
 20
169.960789
 30
0.0
 11
404.831147
 21
176.014221
 31
0.0
  0
LINE
  5
BCE
100
AcDbEntity
  8
0
 62
     0
100
AcDbLine
 10
398.537284
 20
170.079568
 30
0.0
 11
404.667255
 21
176.20954
 31
0.0
  0
LINE
  5
BCF
100
AcDbEntity
  8
0
 62
     0
100
AcDbLine
 10
398.296853
 20
170.198348
 30
0.0
 11
404.503364
 21
176.404858
 31
0.0
  0
LINE
  5
BD0
100
AcDbEntity
  8
0
 62
     0
100
AcDbLine
 10
398.056423
 20
170.317127
 30
0.0
 11
404.339472
 21
176.600177
 31
0.0
  0
LINE
  5
BD1
100
AcDbEntity
  8
0
 62
     0
100
AcDbLine
 10
397.815992
 20
170.435907
 30
0.0
 11
404.17558
 21
176.795495
 31
0.0
  0
LINE
  5
BD2
100
AcDbEntity
  8
0
 62
     0
100
AcDbLine
 10
397.575561
 20
170.554686
 30
0.0
 11
404.011688
 21
176.990814
 31
0.0
  0
LINE
  5
BD3
100
AcDbEntity
  8
0
 62
     0
100
AcDbLine
 10
397.33513
 20
170.673466
 30
0.0
 11
403.847797
 21
177.186132
 31
0.0
  0
LINE
  5
BD4
100
AcDbEntity
  8
0
 62
     0
100
AcDbLine
 10
397.0947
 20
170.792246
 30
0.0
 11
403.683905
 21
177.381451
 31
0.0
  0
LINE
  5
BD5
100
AcDbEntity
  8
0
 62
     0
100
AcDbLine
 10
396.854269
 20
170.911025
 30
0.0
 11
403.520013
 21
177.576769
 31
0.0
  0
LINE
  5
BD6
100
AcDbEntity
  8
0
 62
     0
100
AcDbLine
 10
396.613838
 20
171.029805
 30
0.0
 11
403.356122
 21
177.772088
 31
0.0
  0
LINE
  5
BD7
100
AcDbEntity
  8
0
 62
     0
100
AcDbLine
 10
396.373408
 20
171.148584
 30
0.0
 11
403.19223
 21
177.967406
 31
0.0
  0
LINE
  5
BD8
100
AcDbEntity
  8
0
 62
     0
100
AcDbLine
 10
396.132977
 20
171.267364
 30
0.0
 11
403.028338
 21
178.162725
 31
0.0
  0
LINE
  5
BD9
100
AcDbEntity
  8
0
 62
     0
100
AcDbLine
 10
395.892546
 20
171.386143
 30
0.0
 11
402.864446
 21
178.358043
 31
0.0
  0
LINE
  5
BDA
100
AcDbEntity
  8
0
 62
     0
100
AcDbLine
 10
395.652115
 20
171.504923
 30
0.0
 11
402.700555
 21
178.553362
 31
0.0
  0
LINE
  5
BDB
100
AcDbEntity
  8
0
 62
     0
100
AcDbLine
 10
395.411685
 20
171.623702
 30
0.0
 11
402.536663
 21
178.748681
 31
0.0
  0
LINE
  5
BDC
100
AcDbEntity
  8
0
 62
     0
100
AcDbLine
 10
395.171254
 20
171.742482
 30
0.0
 11
402.372771
 21
178.943999
 31
0.0
  0
LINE
  5
BDD
100
AcDbEntity
  8
0
 62
     0
100
AcDbLine
 10
394.930823
 20
171.861261
 30
0.0
 11
402.20888
 21
179.139318
 31
0.0
  0
LINE
  5
BDE
100
AcDbEntity
  8
0
 62
     0
100
AcDbLine
 10
394.690393
 20
171.980041
 30
0.0
 11
402.044988
 21
179.334636
 31
0.0
  0
LINE
  5
BDF
100
AcDbEntity
  8
0
 62
     0
100
AcDbLine
 10
394.449962
 20
172.09882
 30
0.0
 11
401.881096
 21
179.529955
 31
0.0
  0
LINE
  5
BE0
100
AcDbEntity
  8
0
 62
     0
100
AcDbLine
 10
394.209531
 20
172.2176
 30
0.0
 11
401.717205
 21
179.725273
 31
0.0
  0
LINE
  5
BE1
100
AcDbEntity
  8
0
 62
     0
100
AcDbLine
 10
393.969101
 20
172.336379
 30
0.0
 11
401.553313
 21
179.920592
 31
0.0
  0
LINE
  5
BE2
100
AcDbEntity
  8
0
 62
     0
100
AcDbLine
 10
393.72867
 20
172.455159
 30
0.0
 11
401.389421
 21
180.11591
 31
0.0
  0
LINE
  5
BE3
100
AcDbEntity
  8
0
 62
     0
100
AcDbLine
 10
393.488239
 20
172.573938
 30
0.0
 11
401.225529
 21
180.311229
 31
0.0
  0
LINE
  5
BE4
100
AcDbEntity
  8
0
 62
     0
100
AcDbLine
 10
393.247808
 20
172.692718
 30
0.0
 11
400.96114
 21
180.40605
 31
0.0
  0
LINE
  5
BE5
100
AcDbEntity
  8
0
 62
     0
100
AcDbLine
 10
393.007378
 20
172.811498
 30
0.0
 11
400.60193
 21
180.40605
 31
0.0
  0
LINE
  5
BE6
100
AcDbEntity
  8
0
 62
     0
100
AcDbLine
 10
392.766947
 20
172.930277
 30
0.0
 11
400.24272
 21
180.40605
 31
0.0
  0
LINE
  5
BE7
100
AcDbEntity
  8
0
 62
     0
100
AcDbLine
 10
392.526516
 20
173.049057
 30
0.0
 11
399.88351
 21
180.40605
 31
0.0
  0
LINE
  5
BE8
100
AcDbEntity
  8
0
 62
     0
100
AcDbLine
 10
392.286086
 20
173.167836
 30
0.0
 11
399.524299
 21
180.40605
 31
0.0
  0
LINE
  5
BE9
100
AcDbEntity
  8
0
 62
     0
100
AcDbLine
 10
392.045655
 20
173.286616
 30
0.0
 11
399.165089
 21
180.40605
 31
0.0
  0
LINE
  5
BEA
100
AcDbEntity
  8
0
 62
     0
100
AcDbLine
 10
391.805224
 20
173.405395
 30
0.0
 11
398.805879
 21
180.40605
 31
0.0
  0
LINE
  5
BEB
100
AcDbEntity
  8
0
 62
     0
100
AcDbLine
 10
391.564793
 20
173.524175
 30
0.0
 11
398.446669
 21
180.40605
 31
0.0
  0
LINE
  5
BEC
100
AcDbEntity
  8
0
 62
     0
100
AcDbLine
 10
391.324363
 20
173.642954
 30
0.0
 11
398.087458
 21
180.40605
 31
0.0
  0
LINE
  5
BED
100
AcDbEntity
  8
0
 62
     0
100
AcDbLine
 10
391.083932
 20
173.761734
 30
0.0
 11
397.728248
 21
180.40605
 31
0.0
  0
LINE
  5
BEE
100
AcDbEntity
  8
0
 62
     0
100
AcDbLine
 10
390.843501
 20
173.880513
 30
0.0
 11
397.369038
 21
180.40605
 31
0.0
  0
LINE
  5
BEF
100
AcDbEntity
  8
0
 62
     0
100
AcDbLine
 10
390.603071
 20
173.999293
 30
0.0
 11
397.009828
 21
180.40605
 31
0.0
  0
LINE
  5
BF0
100
AcDbEntity
  8
0
 62
     0
100
AcDbLine
 10
390.36264
 20
174.118072
 30
0.0
 11
396.650617
 21
180.40605
 31
0.0
  0
LINE
  5
BF1
100
AcDbEntity
  8
0
 62
     0
100
AcDbLine
 10
390.122209
 20
174.236852
 30
0.0
 11
396.291407
 21
180.40605
 31
0.0
  0
LINE
  5
BF2
100
AcDbEntity
  8
0
 62
     0
100
AcDbLine
 10
389.881778
 20
174.355631
 30
0.0
 11
395.932197
 21
180.40605
 31
0.0
  0
LINE
  5
BF3
100
AcDbEntity
  8
0
 62
     0
100
AcDbLine
 10
389.641348
 20
174.474411
 30
0.0
 11
395.572987
 21
180.40605
 31
0.0
  0
LINE
  5
BF4
100
AcDbEntity
  8
0
 62
     0
100
AcDbLine
 10
389.400917
 20
174.593191
 30
0.0
 11
395.213776
 21
180.40605
 31
0.0
  0
LINE
  5
BF5
100
AcDbEntity
  8
0
 62
     0
100
AcDbLine
 10
389.160486
 20
174.71197
 30
0.0
 11
394.854566
 21
180.40605
 31
0.0
  0
LINE
  5
BF6
100
AcDbEntity
  8
0
 62
     0
100
AcDbLine
 10
388.920056
 20
174.83075
 30
0.0
 11
394.495356
 21
180.40605
 31
0.0
  0
LINE
  5
BF7
100
AcDbEntity
  8
0
 62
     0
100
AcDbLine
 10
388.679625
 20
174.949529
 30
0.0
 11
394.136146
 21
180.40605
 31
0.0
  0
LINE
  5
BF8
100
AcDbEntity
  8
0
 62
     0
100
AcDbLine
 10
388.439194
 20
175.068309
 30
0.0
 11
393.776935
 21
180.40605
 31
0.0
  0
LINE
  5
BF9
100
AcDbEntity
  8
0
 62
     0
100
AcDbLine
 10
388.198763
 20
175.187088
 30
0.0
 11
393.417725
 21
180.40605
 31
0.0
  0
LINE
  5
BFA
100
AcDbEntity
  8
0
 62
     0
100
AcDbLine
 10
387.958333
 20
175.305868
 30
0.0
 11
393.058515
 21
180.40605
 31
0.0
  0
LINE
  5
BFB
100
AcDbEntity
  8
0
 62
     0
100
AcDbLine
 10
387.717902
 20
175.424647
 30
0.0
 11
392.699305
 21
180.40605
 31
0.0
  0
LINE
  5
BFC
100
AcDbEntity
  8
0
 62
     0
100
AcDbLine
 10
387.477471
 20
175.543427
 30
0.0
 11
392.340094
 21
180.40605
 31
0.0
  0
LINE
  5
BFD
100
AcDbEntity
  8
0
 62
     0
100
AcDbLine
 10
387.237041
 20
175.662206
 30
0.0
 11
391.980884
 21
180.40605
 31
0.0
  0
LINE
  5
BFE
100
AcDbEntity
  8
0
 62
     0
100
AcDbLine
 10
386.99661
 20
175.780986
 30
0.0
 11
391.621674
 21
180.40605
 31
0.0
  0
LINE
  5
BFF
100
AcDbEntity
  8
0
 62
     0
100
AcDbLine
 10
386.756179
 20
175.899765
 30
0.0
 11
391.262464
 21
180.40605
 31
0.0
  0
LINE
  5
C00
100
AcDbEntity
  8
0
 62
     0
100
AcDbLine
 10
386.515748
 20
176.018545
 30
0.0
 11
390.903253
 21
180.40605
 31
0.0
  0
LINE
  5
C01
100
AcDbEntity
  8
0
 62
     0
100
AcDbLine
 10
386.412811
 20
176.274818
 30
0.0
 11
390.544043
 21
180.40605
 31
0.0
  0
LINE
  5
C02
100
AcDbEntity
  8
0
 62
     0
100
AcDbLine
 10
386.412811
 20
176.634028
 30
0.0
 11
390.184833
 21
180.40605
 31
0.0
  0
LINE
  5
C03
100
AcDbEntity
  8
0
 62
     0
100
AcDbLine
 10
386.412811
 20
176.993238
 30
0.0
 11
389.825623
 21
180.40605
 31
0.0
  0
LINE
  5
C04
100
AcDbEntity
  8
0
 62
     0
100
AcDbLine
 10
386.412811
 20
177.352449
 30
0.0
 11
389.466412
 21
180.40605
 31
0.0
  0
LINE
  5
C05
100
AcDbEntity
  8
0
 62
     0
100
AcDbLine
 10
386.412811
 20
177.711659
 30
0.0
 11
389.107202
 21
180.40605
 31
0.0
  0
LINE
  5
C06
100
AcDbEntity
  8
0
 62
     0
100
AcDbLine
 10
524.18478
 20
178.624524
 30
0.0
 11
525.966306
 21
180.40605
 31
0.0
  0
LINE
  5
C07
100
AcDbEntity
  8
0
 62
     0
100
AcDbLine
 10
522.311489
 20
176.392023
 30
0.0
 11
526.325516
 21
180.40605
 31
0.0
  0
LINE
  5
C08
100
AcDbEntity
  8
0
 62
     0
100
AcDbLine
 10
520.438198
 20
174.159522
 30
0.0
 11
526.684726
 21
180.40605
 31
0.0
  0
LINE
  5
C09
100
AcDbEntity
  8
0
 62
     0
100
AcDbLine
 10
518.564907
 20
171.927021
 30
0.0
 11
527.043936
 21
180.40605
 31
0.0
  0
LINE
  5
C0A
100
AcDbEntity
  8
0
 62
     0
100
AcDbLine
 10
516.691616
 20
169.69452
 30
0.0
 11
527.403146
 21
180.40605
 31
0.0
  0
LINE
  5
C0B
100
AcDbEntity
  8
0
 62
     0
100
AcDbLine
 10
515.628209
 20
168.271903
 30
0.0
 11
527.762357
 21
180.40605
 31
0.0
  0
LINE
  5
C0C
100
AcDbEntity
  8
0
 62
     0
100
AcDbLine
 10
515.628209
 20
167.912692
 30
0.0
 11
528.121567
 21
180.40605
 31
0.0
  0
LINE
  5
C0D
100
AcDbEntity
  8
0
 62
     0
100
AcDbLine
 10
515.628209
 20
167.553482
 30
0.0
 11
528.480777
 21
180.40605
 31
0.0
  0
LINE
  5
C0E
100
AcDbEntity
  8
0
 62
     0
100
AcDbLine
 10
515.628209
 20
167.194272
 30
0.0
 11
528.839987
 21
180.40605
 31
0.0
  0
LINE
  5
C0F
100
AcDbEntity
  8
0
 62
     0
100
AcDbLine
 10
515.628209
 20
166.835062
 30
0.0
 11
529.199198
 21
180.40605
 31
0.0
  0
LINE
  5
C10
100
AcDbEntity
  8
0
 62
     0
100
AcDbLine
 10
515.628209
 20
166.475851
 30
0.0
 11
529.558408
 21
180.40605
 31
0.0
  0
LINE
  5
C11
100
AcDbEntity
  8
0
 62
     0
100
AcDbLine
 10
515.628209
 20
166.116641
 30
0.0
 11
529.917618
 21
180.40605
 31
0.0
  0
LINE
  5
C12
100
AcDbEntity
  8
0
 62
     0
100
AcDbLine
 10
515.628209
 20
165.757431
 30
0.0
 11
530.276828
 21
180.40605
 31
0.0
  0
LINE
  5
C13
100
AcDbEntity
  8
0
 62
     0
100
AcDbLine
 10
515.628209
 20
165.398221
 30
0.0
 11
530.636039
 21
180.40605
 31
0.0
  0
LINE
  5
C14
100
AcDbEntity
  8
0
 62
     0
100
AcDbLine
 10
515.628209
 20
165.03901
 30
0.0
 11
530.995249
 21
180.40605
 31
0.0
  0
LINE
  5
C15
100
AcDbEntity
  8
0
 62
     0
100
AcDbLine
 10
515.628209
 20
164.6798
 30
0.0
 11
531.354459
 21
180.40605
 31
0.0
  0
LINE
  5
C16
100
AcDbEntity
  8
0
 62
     0
100
AcDbLine
 10
514.648943
 20
163.341324
 30
0.0
 11
531.713669
 21
180.40605
 31
0.0
  0
LINE
  5
C17
100
AcDbEntity
  8
0
 62
     0
100
AcDbLine
 10
515.358884
 20
163.692055
 30
0.0
 11
532.07288
 21
180.40605
 31
0.0
  0
LINE
  5
C18
100
AcDbEntity
  8
0
 62
     0
100
AcDbLine
 10
516.068826
 20
164.042786
 30
0.0
 11
532.43209
 21
180.40605
 31
0.0
  0
LINE
  5
C19
100
AcDbEntity
  8
0
 62
     0
100
AcDbLine
 10
516.778767
 20
164.393516
 30
0.0
 11
532.7913
 21
180.40605
 31
0.0
  0
LINE
  5
C1A
100
AcDbEntity
  8
0
 62
     0
100
AcDbLine
 10
517.488708
 20
164.744247
 30
0.0
 11
533.15051
 21
180.40605
 31
0.0
  0
LINE
  5
C1B
100
AcDbEntity
  8
0
 62
     0
100
AcDbLine
 10
518.198649
 20
165.094978
 30
0.0
 11
533.509721
 21
180.40605
 31
0.0
  0
LINE
  5
C1C
100
AcDbEntity
  8
0
 62
     0
100
AcDbLine
 10
518.90859
 20
165.445709
 30
0.0
 11
533.868931
 21
180.40605
 31
0.0
  0
LINE
  5
C1D
100
AcDbEntity
  8
0
 62
     0
100
AcDbLine
 10
519.618531
 20
165.79644
 30
0.0
 11
534.228141
 21
180.40605
 31
0.0
  0
LINE
  5
C1E
100
AcDbEntity
  8
0
 62
     0
100
AcDbLine
 10
520.328472
 20
166.147171
 30
0.0
 11
534.587351
 21
180.40605
 31
0.0
  0
LINE
  5
C1F
100
AcDbEntity
  8
0
 62
     0
100
AcDbLine
 10
521.038413
 20
166.497902
 30
0.0
 11
534.946562
 21
180.40605
 31
0.0
  0
LINE
  5
C20
100
AcDbEntity
  8
0
 62
     0
100
AcDbLine
 10
521.748354
 20
166.848632
 30
0.0
 11
535.305772
 21
180.40605
 31
0.0
  0
LINE
  5
C21
100
AcDbEntity
  8
0
 62
     0
100
AcDbLine
 10
522.458296
 20
167.199363
 30
0.0
 11
535.664982
 21
180.40605
 31
0.0
  0
LINE
  5
C22
100
AcDbEntity
  8
0
 62
     0
100
AcDbLine
 10
523.168237
 20
167.550094
 30
0.0
 11
536.024192
 21
180.40605
 31
0.0
  0
LINE
  5
C23
100
AcDbEntity
  8
0
 62
     0
100
AcDbLine
 10
523.878178
 20
167.900825
 30
0.0
 11
536.383403
 21
180.40605
 31
0.0
  0
LINE
  5
C24
100
AcDbEntity
  8
0
 62
     0
100
AcDbLine
 10
524.588119
 20
168.251556
 30
0.0
 11
536.742613
 21
180.40605
 31
0.0
  0
LINE
  5
C25
100
AcDbEntity
  8
0
 62
     0
100
AcDbLine
 10
525.29806
 20
168.602287
 30
0.0
 11
537.101823
 21
180.40605
 31
0.0
  0
LINE
  5
C26
100
AcDbEntity
  8
0
 62
     0
100
AcDbLine
 10
526.008001
 20
168.953018
 30
0.0
 11
537.461033
 21
180.40605
 31
0.0
  0
LINE
  5
C27
100
AcDbEntity
  8
0
 62
     0
100
AcDbLine
 10
526.717942
 20
169.303749
 30
0.0
 11
537.820244
 21
180.40605
 31
0.0
  0
LINE
  5
C28
100
AcDbEntity
  8
0
 62
     0
100
AcDbLine
 10
527.427883
 20
169.654479
 30
0.0
 11
538.046132
 21
180.272729
 31
0.0
  0
LINE
  5
C29
100
AcDbEntity
  8
0
 62
     0
100
AcDbLine
 10
528.137824
 20
170.00521
 30
0.0
 11
538.225738
 21
180.093124
 31
0.0
  0
LINE
  5
C2A
100
AcDbEntity
  8
0
 62
     0
100
AcDbLine
 10
528.847765
 20
170.355941
 30
0.0
 11
538.405343
 21
179.913518
 31
0.0
  0
LINE
  5
C2B
100
AcDbEntity
  8
0
 62
     0
100
AcDbLine
 10
529.557707
 20
170.706672
 30
0.0
 11
538.584948
 21
179.733913
 31
0.0
  0
LINE
  5
C2C
100
AcDbEntity
  8
0
 62
     0
100
AcDbLine
 10
530.267648
 20
171.057403
 30
0.0
 11
538.764553
 21
179.554308
 31
0.0
  0
LINE
  5
C2D
100
AcDbEntity
  8
0
 62
     0
100
AcDbLine
 10
530.977589
 20
171.408134
 30
0.0
 11
538.944158
 21
179.374703
 31
0.0
  0
LINE
  5
C2E
100
AcDbEntity
  8
0
 62
     0
100
AcDbLine
 10
531.68753
 20
171.758865
 30
0.0
 11
539.123763
 21
179.195098
 31
0.0
  0
LINE
  5
C2F
100
AcDbEntity
  8
0
 62
     0
100
AcDbLine
 10
532.397471
 20
172.109595
 30
0.0
 11
539.303368
 21
179.015493
 31
0.0
  0
LINE
  5
C30
100
AcDbEntity
  8
0
 62
     0
100
AcDbLine
 10
533.107412
 20
172.460326
 30
0.0
 11
539.482973
 21
178.835888
 31
0.0
  0
LINE
  5
C31
100
AcDbEntity
  8
0
 62
     0
100
AcDbLine
 10
533.817353
 20
172.811057
 30
0.0
 11
539.662579
 21
178.656283
 31
0.0
  0
LINE
  5
C32
100
AcDbEntity
  8
0
 62
     0
100
AcDbLine
 10
534.527294
 20
173.161788
 30
0.0
 11
539.842184
 21
178.476677
 31
0.0
  0
LINE
  5
C33
100
AcDbEntity
  8
0
 62
     0
100
AcDbLine
 10
535.237235
 20
173.512519
 30
0.0
 11
540.021789
 21
178.297072
 31
0.0
  0
LINE
  5
C34
100
AcDbEntity
  8
0
 62
     0
100
AcDbLine
 10
535.947177
 20
173.86325
 30
0.0
 11
540.201394
 21
178.117467
 31
0.0
  0
LINE
  5
C35
100
AcDbEntity
  8
0
 62
     0
100
AcDbLine
 10
536.657118
 20
174.213981
 30
0.0
 11
540.380999
 21
177.937862
 31
0.0
  0
LINE
  5
C36
100
AcDbEntity
  8
0
 62
     0
100
AcDbLine
 10
537.367059
 20
174.564711
 30
0.0
 11
540.412811
 21
177.610464
 31
0.0
  0
LINE
  5
C37
100
AcDbEntity
  8
0
 62
     0
100
AcDbLine
 10
538.077
 20
174.915442
 30
0.0
 11
540.412811
 21
177.251254
 31
0.0
  0
LINE
  5
C38
100
AcDbEntity
  8
0
 62
     0
100
AcDbLine
 10
538.786941
 20
175.266173
 30
0.0
 11
540.412811
 21
176.892043
 31
0.0
  0
LINE
  5
C39
100
AcDbEntity
  8
0
 62
     0
100
AcDbLine
 10
539.496882
 20
175.616904
 30
0.0
 11
540.412811
 21
176.532833
 31
0.0
  0
LINE
  5
C3A
100
AcDbEntity
  8
0
 62
     0
100
AcDbLine
 10
540.206823
 20
175.967635
 30
0.0
 11
540.412811
 21
176.173623
 31
0.0
  0
ENDBLK
  5
C3B
100
AcDbEntity
  8
0
100
AcDbBlockEnd
  0
BLOCK
  5
C3D
100
AcDbEntity
  8
0
100
AcDbBlockBegin
  2
*D31
 70
    65
 10
0.0
 20
0.0
 30
0.0
  3
*D31
  1

  0
LINE
  5
C3E
100
AcDbEntity
  8
0
  6
BYBLOCK
 62
     0
100
AcDbLine
 10
385.787811
 20
139.40605
 30
0.0
 11
380.401166
 21
139.40605
 31
0.0
  0
LINE
  5
C3F
100
AcDbEntity
  8
0
  6
BYBLOCK
 62
     0
100
AcDbLine
 10
385.787811
 20
137.40605
 30
0.0
 11
380.401166
 21
137.40605
 31
0.0
  0
LINE
  5
C40
100
AcDbEntity
  8
0
  6
BYBLOCK
 62
     0
100
AcDbLine
 10
381.651166
 20
141.90605
 30
0.0
 11
381.651166
 21
144.40605
 31
0.0
  0
LINE
  5
C41
100
AcDbEntity
  8
0
  6
BYBLOCK
 62
     0
100
AcDbLine
 10
381.651166
 20
134.90605
 30
0.0
 11
381.651166
 21
129.554056
 31
0.0
  0
SOLID
  5
C42
100
AcDbEntity
  8
0
  6
BYBLOCK
 62
     0
100
AcDbTrace
 10
381.234499
 20
141.90605
 30
0.0
 11
382.067833
 21
141.90605
 31
0.0
 12
381.651166
 22
139.40605
 32
0.0
 13
381.651166
 23
139.40605
 33
0.0
  0
SOLID
  5
C43
100
AcDbEntity
  8
0
  6
BYBLOCK
 62
     0
100
AcDbTrace
 10
381.234499
 20
134.90605
 30
0.0
 11
382.067833
 21
134.90605
 31
0.0
 12
381.651166
 22
137.40605
 32
0.0
 13
381.651166
 23
137.40605
 33
0.0
  0
MTEXT
  5
C44
100
AcDbEntity
  8
0
  6
BYBLOCK
 62
     0
100
AcDbMText
 10
379.525871
 20
130.980053
 30
0.0
 40
3.0
 41
0.0
 71
     5
 72
     1
  1
\A1;2
 11
0.0
 21
1.0
 31
0.0
  0
POINT
  5
C45
100
AcDbEntity
  8
DEFPOINTS
  6
BYBLOCK
 62
     0
100
AcDbPoint
 10
386.412811
 20
139.40605
 30
0.0
  0
POINT
  5
C46
100
AcDbEntity
  8
DEFPOINTS
  6
BYBLOCK
 62
     0
100
AcDbPoint
 10
386.412811
 20
137.40605
 30
0.0
  0
POINT
  5
C47
100
AcDbEntity
  8
DEFPOINTS
  6
BYBLOCK
 62
     0
100
AcDbPoint
 10
381.651166
 20
137.40605
 30
0.0
  0
ENDBLK
  5
C48
100
AcDbEntity
  8
0
100
AcDbBlockEnd
  0
BLOCK
  5
C4B
100
AcDbEntity
  8
0
100
AcDbBlockBegin
  2
*D32
 70
    65
 10
0.0
 20
0.0
 30
0.0
  3
*D32
  1

  0
LINE
  5
C4C
100
AcDbEntity
  8
0
  6
BYBLOCK
 62
     0
100
AcDbLine
 10
387.854753
 20
137.964108
 30
0.0
 11
394.687406
 21
131.131455
 31
0.0
  0
LINE
  5
C4D
100
AcDbEntity
  8
0
  6
BYBLOCK
 62
     0
100
AcDbLine
 10
387.854753
 20
138.847992
 30
0.0
 11
394.687406
 21
145.680645
 31
0.0
  0
ARC
  5
C4E
100
AcDbEntity
  8
0
  6
BYBLOCK
 62
     0
100
AcDbCircle
 10
387.412811
 20
138.40605
 30
0.0
 40
9.037831
100
AcDbArc
 50
330.899843
 51
29.100157
  0
SOLID
  5
C4F
100
AcDbEntity
  8
0
  6
BYBLOCK
 62
     0
100
AcDbTrace
 10
395.64235
 20
133.759564
 30
0.0
 11
394.977259
 21
134.261658
 31
0.0
 12
393.803523
 22
132.015338
 32
0.0
 13
393.803523
 23
132.015338
 33
0.0
  0
SOLID
  5
C50
100
AcDbEntity
  8
0
  6
BYBLOCK
 62
     0
100
AcDbTrace
 10
394.977259
 20
142.550441
 30
0.0
 11
395.64235
 21
143.052536
 31
0.0
 12
393.803523
 22
144.796762
 32
0.0
 13
393.803523
 23
144.796762
 33
0.0
  0
MTEXT
  5
C51
100
AcDbEntity
  8
0
  6
BYBLOCK
 62
     0
100
AcDbMText
 10
394.325642
 20
138.40605
 30
0.0
 40
3.0
 41
0.0
 71
     5
 72
     1
  1
\A1;90°
 11
0.0
 21
1.0
 31
0.0
  0
POINT
  5
C52
100
AcDbEntity
  8
DEFPOINTS
  6
BYBLOCK
 62
     0
100
AcDbPoint
 10
396.142685
 20
136.066887
 30
0.0
  0
POINT
  5
C53
100
AcDbEntity
  8
DEFPOINTS
  6
BYBLOCK
 62
     0
100
AcDbPoint
 10
386.412811
 20
139.40605
 30
0.0
  0
POINT
  5
C54
100
AcDbEntity
  8
DEFPOINTS
  6
BYBLOCK
 62
     0
100
AcDbPoint
 10
386.412811
 20
137.40605
 30
0.0
  0
POINT
  5
C55
100
AcDbEntity
  8
DEFPOINTS
  6
BYBLOCK
 62
     0
100
AcDbPoint
 10
387.412811
 20
138.40605
 30
0.0
  0
POINT
  5
C56
100
AcDbEntity
  8
DEFPOINTS
  6
BYBLOCK
 62
     0
100
AcDbPoint
 10
387.412811
 20
138.40605
 30
0.0
  0
ENDBLK
  5
C57
100
AcDbEntity
  8
0
100
AcDbBlockEnd
  0
BLOCK
  5
C73
100
AcDbEntity
  8
0
100
AcDbBlockBegin
  2
*D33
 70
    65
 10
0.0
 20
0.0
 30
0.0
  3
*D33
  1

  0
LINE
  5
C74
100
AcDbEntity
  8
0
  6
BYBLOCK
 62
     0
100
AcDbLine
 10
374.041149
 20
138.40605
 30
0.0
 11
375.393736
 21
138.40605
 31
0.0
  0
LINE
  5
C75
100
AcDbEntity
  8
0
  6
BYBLOCK
 62
     0
100
AcDbLine
 10
387.787811
 20
96.90605
 30
0.0
 11
372.893736
 21
96.90605
 31
0.0
  0
LINE
  5
C76
100
AcDbEntity
  8
0
  6
BYBLOCK
 62
     0
100
AcDbLine
 10
374.143736
 20
135.90605
 30
0.0
 11
374.143736
 21
99.40605
 31
0.0
  0
SOLID
  5
C77
100
AcDbEntity
  8
0
  6
BYBLOCK
 62
     0
100
AcDbTrace
 10
373.727069
 20
135.90605
 30
0.0
 11
374.560402
 21
135.90605
 31
0.0
 12
374.143736
 22
138.40605
 32
0.0
 13
374.143736
 23
138.40605
 33
0.0
  0
SOLID
  5
C78
100
AcDbEntity
  8
0
  6
BYBLOCK
 62
     0
100
AcDbTrace
 10
373.727069
 20
99.40605
 30
0.0
 11
374.560402
 21
99.40605
 31
0.0
 12
374.143736
 22
96.90605
 32
0.0
 13
374.143736
 23
96.90605
 33
0.0
  0
MTEXT
  5
C79
100
AcDbEntity
  8
0
  6
BYBLOCK
 62
     0
100
AcDbMText
 10
372.018736
 20
117.65605
 30
0.0
 40
3.0
 41
0.0
 71
     5
 72
     1
  1
\A1;41.5±0.1
 11
0.0
 21
1.0
 31
0.0
  0
POINT
  5
C7A
100
AcDbEntity
  8
DEFPOINTS
  6
BYBLOCK
 62
     0
100
AcDbPoint
 10
373.416149
 20
138.40605
 30
0.0
  0
POINT
  5
C7B
100
AcDbEntity
  8
DEFPOINTS
  6
BYBLOCK
 62
     0
100
AcDbPoint
 10
388.412811
 20
96.90605
 30
0.0
  0
POINT
  5
C7C
100
AcDbEntity
  8
DEFPOINTS
  6
BYBLOCK
 62
     0
100
AcDbPoint
 10
374.143736
 20
96.90605
 30
0.0
  0
ENDBLK
  5
C7D
100
AcDbEntity
  8
0
100
AcDbBlockEnd
  0
BLOCK
  5
C8B
100
AcDbEntity
  8
0
100
AcDbBlockBegin
  2
*D34
 70
    65
 10
0.0
 20
0.0
 30
0.0
  3
*D34
  1

  0
LINE
  5
C8C
100
AcDbEntity
  8
0
  6
BYBLOCK
 62
     0
100
AcDbLine
 10
16.622802
 20
138.40605
 30
0.0
 11
24.811843
 21
138.40605
 31
0.0
  0
LINE
  5
C8D
100
AcDbEntity
  8
0
  6
BYBLOCK
 62
     0
100
AcDbLine
 10
38.916623
 20
96.90605
 30
0.0
 11
22.311843
 21
96.90605
 31
0.0
  0
LINE
  5
C8E
100
AcDbEntity
  8
0
  6
BYBLOCK
 62
     0
100
AcDbLine
 10
23.561843
 20
135.90605
 30
0.0
 11
23.561843
 21
99.40605
 31
0.0
  0
SOLID
  5
C8F
100
AcDbEntity
  8
0
  6
BYBLOCK
 62
     0
100
AcDbTrace
 10
23.145176
 20
135.90605
 30
0.0
 11
23.97851
 21
135.90605
 31
0.0
 12
23.561843
 22
138.40605
 32
0.0
 13
23.561843
 23
138.40605
 33
0.0
  0
SOLID
  5
C90
100
AcDbEntity
  8
0
  6
BYBLOCK
 62
     0
100
AcDbTrace
 10
23.145176
 20
99.40605
 30
0.0
 11
23.97851
 21
99.40605
 31
0.0
 12
23.561843
 22
96.90605
 32
0.0
 13
23.561843
 23
96.90605
 33
0.0
  0
MTEXT
  5
C91
100
AcDbEntity
  8
0
  6
BYBLOCK
 62
     0
100
AcDbMText
 10
21.436843
 20
117.65605
 30
0.0
 40
3.0
 41
0.0
 71
     5
 72
     1
  1
\A1;41.5±0.1
 11
0.0
 21
1.0
 31
0.0
  0
POINT
  5
C92
100
AcDbEntity
  8
DEFPOINTS
  6
BYBLOCK
 62
     0
100
AcDbPoint
 10
15.997802
 20
138.40605
 30
0.0
  0
POINT
  5
C93
100
AcDbEntity
  8
DEFPOINTS
  6
BYBLOCK
 62
     0
100
AcDbPoint
 10
39.541623
 20
96.90605
 30
0.0
  0
POINT
  5
C94
100
AcDbEntity
  8
DEFPOINTS
  6
BYBLOCK
 62
     0
100
AcDbPoint
 10
23.561843
 20
96.90605
 30
0.0
  0
ENDBLK
  5
C95
100
AcDbEntity
  8
0
100
AcDbBlockEnd
  0
ENDSEC
  0
SECTION
  2
ENTITIES
  0
LINE
  5
328
100
AcDbEntity
  8
DISEGNO
100
AcDbLine
 10
114.541623
 20
76.90605
 30
0.0
 11
157.541623
 21
76.90605
 31
0.0
  0
LINE
  5
329
100
AcDbEntity
  8
DISEGNO
100
AcDbLine
 10
159.541623
 20
78.90605
 30
0.0
 11
159.541623
 21
96.90605
 31
0.0
  0
LINE
  5
32A
100
AcDbEntity
  8
DISEGNO
100
AcDbLine
 10
159.541623
 20
96.90605
 30
0.0
 11
189.541623
 21
96.90605
 31
0.0
  0
LINE
  5
32B
100
AcDbEntity
  8
DISEGNO
100
AcDbLine
 10
191.541623
 20
98.90605
 30
0.0
 11
191.541623
 21
177.90605
 31
0.0
1001
ACAD
1000
ASC_BOUNDS
1002
{
1070
    19
1002
}
  0
LINE
  5
32C
100
AcDbEntity
  8
DISEGNO
100
AcDbLine
 10
189.541623
 20
179.90605
 30
0.0
 11
184.036238
 21
179.90605
 31
0.0
1001
ACAD
1000
ASC_BOUNDS
1002
{
1070
    19
1002
}
  0
LINE
  5
32D
100
AcDbEntity
  8
DISEGNO
100
AcDbLine
 10
37.541623
 20
177.90605
 30
0.0
 11
37.541623
 21
139.40605
 31
0.0
1001
ACAD
1000
ASC_BOUNDS
1002
{
1070
    19
1002
}
  0
LINE
  5
32F
100
AcDbEntity
  8
DISEGNO
100
AcDbLine
 10
39.541623
 20
96.90605
 30
0.0
 11
69.541623
 21
96.90605
 31
0.0
  0
LINE
  5
330
100
AcDbEntity
  8
DISEGNO
100
AcDbLine
 10
69.541623
 20
96.90605
 30
0.0
 11
69.541623
 21
78.90605
 31
0.0
  0
LINE
  5
331
100
AcDbEntity
  8
DISEGNO
100
AcDbLine
 10
71.541623
 20
76.90605
 30
0.0
 11
114.541623
 21
76.90605
 31
0.0
  0
LINE
  5
338
100
AcDbEntity
  8
DISEGNO
100
AcDbLine
 10
172.545571
 20
174.547864
 30
0.0
 11
166.757021
 21
167.649339
 31
0.0
1001
ACAD
1000
ASC_BOUNDS
1002
{
1070
    19
1002
}
  0
LINE
  5
339
100
AcDbEntity
  8
DISEGNO
100
AcDbLine
 10
56.537675
 20
174.547864
 30
0.0
 11
62.326225
 21
167.649339
 31
0.0
1001
ACAD
1000
ASC_BOUNDS
1002
{
1070
    19
1002
}
  0
LINE
  5
33A
100
AcDbEntity
  8
DISEGNO
100
AcDbLine
 10
45.047008
 20
179.90605
 30
0.0
 11
39.541623
 21
179.90605
 31
0.0
1001
ACAD
1000
ASC_BOUNDS
1002
{
1070
    19
1002
}
  0
LINE
  5
354
100
AcDbEntity
  8
DISEGNO
100
AcDbLine
 10
166.757021
 20
167.649339
 30
0.0
 11
166.757021
 21
164.537891
 31
0.0
1001
ACAD
1000
ASC_BOUNDS
1002
{
1070
    19
1002
}
  0
LINE
  5
355
100
AcDbEntity
  8
DISEGNO
100
AcDbLine
 10
62.326225
 20
167.649339
 30
0.0
 11
62.326225
 21
164.537891
 31
0.0
  0
LINE
  5
356
100
AcDbEntity
  8
DISEGNO
100
AcDbLine
 10
166.757021
 20
164.537891
 30
0.0
 11
139.055045
 21
131.523962
 31
0.0
  0
LINE
  5
357
100
AcDbEntity
  8
DISEGNO
100
AcDbLine
 10
62.326225
 20
164.537891
 30
0.0
 11
90.028201
 21
131.523962
 31
0.0
  0
ARC
  5
358
100
AcDbEntity
  8
DISEGNO
100
AcDbCircle
 10
114.541623
 20
152.093165
 30
0.0
 40
32.0
100
AcDbArc
 50
220.0
 51
320.0
  0
ARC
  5
3EA
100
AcDbEntity
  8
DISEGNO
100
AcDbCircle
 10
184.036238
 20
164.90605
 30
0.0
 40
15.0
100
AcDbArc
 50
90.0
 51
140.0
1001
ACAD
1000
ASC_BOUNDS
1002
{
1070
    19
1002
}
  0
ARC
  5
3EB
100
AcDbEntity
  8
DISEGNO
100
AcDbCircle
 10
45.047008
 20
164.90605
 30
0.0
 40
15.0
100
AcDbArc
 50
40.0
 51
90.0
1001
ACAD
1000
ASC_BOUNDS
1002
{
1070
    19
1002
}
  0
LINE
  5
524
100
AcDbEntity
  8
DISEGNO
100
AcDbLine
 10
39.541623
 20
179.90605
 30
0.0
 11
37.541623
 21
177.90605
 31
0.0
1001
ACAD
1000
ASC_BOUNDS
1002
{
1070
    19
1002
}
  0
LINE
  5
525
100
AcDbEntity
  8
DISEGNO
100
AcDbLine
 10
189.541623
 20
179.90605
 30
0.0
 11
191.541623
 21
177.90605
 31
0.0
1001
ACAD
1000
ASC_BOUNDS
1002
{
1070
    19
1002
}
  0
LINE
  5
638
100
AcDbEntity
  8
DISEGNO
100
AcDbLine
 10
37.541623
 20
98.90605
 30
0.0
 11
39.541623
 21
96.90605
 31
0.0
  0
LINE
  5
639
100
AcDbEntity
  8
DISEGNO
100
AcDbLine
 10
69.541623
 20
78.90605
 30
0.0
 11
71.541623
 21
76.90605
 31
0.0
  0
LINE
  5
63A
100
AcDbEntity
  8
DISEGNO
100
AcDbLine
 10
191.541623
 20
98.90605
 30
0.0
 11
189.541623
 21
96.90605
 31
0.0
  0
LINE
  5
63B
100
AcDbEntity
  8
DISEGNO
100
AcDbLine
 10
159.541623
 20
78.90605
 30
0.0
 11
157.541623
 21
76.90605
 31
0.0
  0
LINE
  5
B18
100
AcDbEntity
  8
DISEGNO
100
AcDbLine
 10
37.541623
 20
139.40605
 30
0.0
 11
38.541623
 21
138.40605
 31
0.0
  0
LINE
  5
B19
100
AcDbEntity
  8
DISEGNO
100
AcDbLine
 10
37.541623
 20
137.40605
 30
0.0
 11
38.541623
 21
138.40605
 31
0.0
  0
LINE
  5
B1A
100
AcDbEntity
  8
DISEGNO
100
AcDbLine
 10
37.541623
 20
137.40605
 30
0.0
 11
37.541623
 21
98.90605
 31
0.0
1001
ACAD
1000
ASC_BOUNDS
1002
{
1070
    19
1002
}
  0
ENDSEC
  0
SECTION
  2
OBJECTS
  0
DICTIONARY
  5
C
100
AcDbDictionary
  3
ACAD_GROUP
350
D
  3
ACAD_MLINESTYLE
350
E
  0
DICTIONARY
  5
D
102
{ACAD_REACTORS
330
C
102
}
100
AcDbDictionary
  0
DICTIONARY
  5
E
102
{ACAD_REACTORS
330
C
102
}
100
AcDbDictionary
  3
STANDARD
350
1C
  0
MLINESTYLE
  5
1C
102
{ACAD_REACTORS
330
E
102
}
100
AcDbMlineStyle
  2
STANDARD
 70
     0
  3

 62
     0
 51
90.0
 52
90.0
 71
     2
 49
0.5
 62
   256
  6
BYLAYER
 49
-0.5
 62
   256
  6
BYLAYER
  0
ENDSEC
  0
EOF
