  0
SECTION
  2
HEADER
  9
$ACADVER
  1
AC1012
  9
$DWGCODEPAGE
  3
iso8859-1
  9
$INSBASE
 10
0.0
 20
0.0
 30
0.0
  9
$EXTMIN
 10
33.637079
 20
47.060606
 30
0.0
  9
$EXTMAX
 10
194.686193
 20
268.775122
 30
0.0
  9
$LIMMIN
 10
0.0
 20
0.0
  9
$LIMMAX
 10
210.0
 20
297.0
  9
$ORTHOMODE
 70
     1
  9
$REGENMODE
 70
     1
  9
$FILLMODE
 70
     1
  9
$QTEXTMODE
 70
     0
  9
$MIRRTEXT
 70
     1
  9
$DRAGMODE
 70
     2
  9
$LTSCALE
 40
1.0
  9
$OSMODE
 70
     0
  9
$ATTMODE
 70
     1
  9
$TEXTSIZE
 40
3.0
  9
$TRACEWID
 40
1.0
  9
$TEXTSTYLE
  7
STANDARD
  9
$CLAYER
  8
OGGETTI
  9
$CELTYPE
  6
CONTINUOUS
  9
$CECOLOR
 62
   256
  9
$CELTSCALE
 40
1.0
  9
$DELOBJ
 70
     1
  9
$DISPSILH
 70
     0
  9
$DIMSCALE
 40
0.0
  9
$DIMASZ
 40
2.6
  9
$DIMEXO
 40
0.63
  9
$DIMDLI
 40
3.75
  9
$DIMRND
 40
0.0
  9
$DIMDLE
 40
0.0
  9
$DIMEXE
 40
1.25
  9
$DIMTP
 40
0.02
  9
$DIMTM
 40
0.0
  9
$DIMTXT
 40
2.6
  9
$DIMCEN
 40
2.1
  9
$DIMTSZ
 40
0.0
  9
$DIMTOL
 70
     0
  9
$DIMLIM
 70
     0
  9
$DIMTIH
 70
     0
  9
$DIMTOH
 70
     0
  9
$DIMSE1
 70
     0
  9
$DIMSE2
 70
     0
  9
$DIMTAD
 70
     1
  9
$DIMZIN
 70
     8
  9
$DIMBLK
  1

  9
$DIMASO
 70
     1
  9
$DIMSHO
 70
     1
  9
$DIMPOST
  1

  9
$DIMAPOST
  1

  9
$DIMALT
 70
     0
  9
$DIMALTD
 70
     2
  9
$DIMALTF
 40
0.0394
  9
$DIMLFAC
 40
1.0
  9
$DIMTOFL
 70
     1
  9
$DIMTVP
 40
1.0
  9
$DIMTIX
 70
     0
  9
$DIMSOXD
 70
     0
  9
$DIMSAH
 70
     0
  9
$DIMBLK1
  1

  9
$DIMBLK2
  1

  9
$DIMSTYLE
  2
ISO-25
  9
$DIMCLRD
 70
     0
  9
$DIMCLRE
 70
     0
  9
$DIMCLRT
 70
     0
  9
$DIMTFAC
 40
1.0
  9
$DIMGAP
 40
0.63
  9
$DIMJUST
 70
     0
  9
$DIMSD1
 70
     0
  9
$DIMSD2
 70
     0
  9
$DIMTOLJ
 70
     1
  9
$DIMTZIN
 70
     0
  9
$DIMALTZ
 70
     0
  9
$DIMALTTZ
 70
     0
  9
$DIMFIT
 70
     3
  9
$DIMUPT
 70
     0
  9
$DIMUNIT
 70
     2
  9
$DIMDEC
 70
     2
  9
$DIMTDEC
 70
     2
  9
$DIMALTU
 70
     2
  9
$DIMALTTD
 70
     2
  9
$DIMTXSTY
  7
STANDARD
  9
$DIMAUNIT
 70
     0
  9
$LUNITS
 70
     2
  9
$LUPREC
 70
     2
  9
$SKETCHINC
 40
1.0
  9
$FILLETRAD
 40
0.5
  9
$AUNITS
 70
     0
  9
$AUPREC
 70
     0
  9
$MENU
  1
.
  9
$ELEVATION
 40
0.0
  9
$PELEVATION
 40
0.0
  9
$THICKNESS
 40
0.0
  9
$LIMCHECK
 70
     0
  9
$BLIPMODE
 70
     1
  9
$CHAMFERA
 40
0.5
  9
$CHAMFERB
 40
0.5
  9
$CHAMFERC
 40
20.0
  9
$CHAMFERD
 40
0.0
  9
$SKPOLY
 70
     0
  9
$TDCREATE
 40
2450892.577570139
  9
$TDUPDATE
 40
2451030.451567013
  9
$TDINDWG
 40
0.3395232639
  9
$TDUSRTIMER
 40
0.3395232639
  9
$USRTIMER
 70
     1
  9
$ANGBASE
 50
0.0
  9
$ANGDIR
 70
     0
  9
$PDMODE
 70
     0
  9
$PDSIZE
 40
0.0
  9
$PLINEWID
 40
0.0
  9
$COORDS
 70
     2
  9
$SPLFRAME
 70
     0
  9
$SPLINETYPE
 70
     6
  9
$SPLINESEGS
 70
     8
  9
$ATTDIA
 70
     0
  9
$ATTREQ
 70
     1
  9
$HANDLING
 70
     1
  9
$HANDSEED
  5
8CF
  9
$SURFTAB1
 70
     6
  9
$SURFTAB2
 70
     6
  9
$SURFTYPE
 70
     6
  9
$SURFU
 70
     6
  9
$SURFV
 70
     6
  9
$UCSNAME
  2

  9
$UCSORG
 10
0.0
 20
0.0
 30
0.0
  9
$UCSXDIR
 10
1.0
 20
0.0
 30
0.0
  9
$UCSYDIR
 10
0.0
 20
1.0
 30
0.0
  9
$PUCSNAME
  2

  9
$PUCSORG
 10
0.0
 20
0.0
 30
0.0
  9
$PUCSXDIR
 10
1.0
 20
0.0
 30
0.0
  9
$PUCSYDIR
 10
0.0
 20
1.0
 30
0.0
  9
$USERI1
 70
     0
  9
$USERI2
 70
     0
  9
$USERI3
 70
     0
  9
$USERI4
 70
     0
  9
$USERI5
 70
     0
  9
$USERR1
 40
0.0
  9
$USERR2
 40
0.0
  9
$USERR3
 40
0.0
  9
$USERR4
 40
0.0
  9
$USERR5
 40
0.0
  9
$WORLDVIEW
 70
     1
  9
$SHADEDGE
 70
     3
  9
$SHADEDIF
 70
    70
  9
$TILEMODE
 70
     1
  9
$MAXACTVP
 70
    16
  9
$PINSBASE
 10
0.0
 20
0.0
 30
0.0
  9
$PLIMCHECK
 70
     0
  9
$PEXTMIN
 10
1.000000E+20
 20
1.000000E+20
 30
1.000000E+20
  9
$PEXTMAX
 10
-1.000000E+20
 20
-1.000000E+20
 30
-1.000000E+20
  9
$PLIMMIN
 10
0.0
 20
0.0
  9
$PLIMMAX
 10
210.0
 20
297.0
  9
$UNITMODE
 70
     0
  9
$VISRETAIN
 70
     0
  9
$PLINEGEN
 70
     0
  9
$PSLTSCALE
 70
     1
  9
$TREEDEPTH
 70
  3020
  9
$PICKSTYLE
 70
     1
  9
$CMLSTYLE
  2
STANDARD
  9
$CMLJUST
 70
     0
  9
$CMLSCALE
 40
1.0
  9
$SAVEIMAGES
 70
     0
  0
ENDSEC
  0
SECTION
  2
CLASSES
  0
ENDSEC
  0
SECTION
  2
TABLES
  0
TABLE
  2
VPORT
  5
8
100
AcDbSymbolTable
 70
    11
  0
VPORT
  5
8CE
100
AcDbSymbolTableRecord
100
AcDbViewportTableRecord
  2
*ACTIVE
 70
     0
 10
0.0
 20
0.0
 11
1.0
 21
1.0
 12
146.080933
 22
180.379704
 13
0.0
 23
0.0
 14
5.0
 24
5.0
 15
5.0
 25
5.0
 16
0.0
 26
0.0
 36
1.0
 17
0.0
 27
0.0
 37
0.0
 40
238.132727
 41
1.873134
 42
50.0
 43
0.0
 44
0.0
 50
0.0
 51
0.0
 71
     0
 72
   100
 73
     1
 74
     0
 75
     0
 76
     0
 77
     0
 78
     0
  0
ENDTAB
  0
TABLE
  2
LTYPE
  5
5
100
AcDbSymbolTable
 70
     4
  0
LTYPE
  5
14
100
AcDbSymbolTableRecord
100
AcDbLinetypeTableRecord
  2
BYBLOCK
 70
     0
  3

 72
    65
 73
     0
 40
0.0
  0
LTYPE
  5
15
100
AcDbSymbolTableRecord
100
AcDbLinetypeTableRecord
  2
BYLAYER
 70
     0
  3

 72
    65
 73
     0
 40
0.0
  0
LTYPE
  5
16
100
AcDbSymbolTableRecord
100
AcDbLinetypeTableRecord
  2
CONTINUOUS
 70
    64
  3
Solid line
 72
    65
 73
     0
 40
0.0
  0
LTYPE
  5
F8
100
AcDbSymbolTableRecord
100
AcDbLinetypeTableRecord
  2
LINEA-LINEETTA
 70
    64
  3
____ _ ____ _ ____ _ ____ _ ____ _ ____ _ ____ 
 72
    65
 73
     4
 40
2.0
 49
1.25
 74
     0
 49
-0.25
 74
     0
 49
0.25
 74
     0
 49
-0.25
 74
     0
  0
LTYPE
  5
F9
100
AcDbSymbolTableRecord
100
AcDbLinetypeTableRecord
  2
NASCOSTA
 70
    64
  3
__ __ __ __ __ __ __ __ __ __ __ __ __ __ __ __
 72
    65
 73
     2
 40
0.375
 49
0.25
 74
     0
 49
-0.125
 74
     0
  0
LTYPE
  5
5DD
100
AcDbSymbolTableRecord
100
AcDbLinetypeTableRecord
  2
LINEA-LINEETTAX2
 70
    64
  3
________  __  ________  __  ________  __  _____
 72
    65
 73
     4
 40
4.0
 49
2.5
 74
     0
 49
-0.5
 74
     0
 49
0.5
 74
     0
 49
-0.5
 74
     0
  0
ENDTAB
  0
TABLE
  2
LAYER
  5
2
100
AcDbSymbolTable
 70
    16
  0
LAYER
  5
F
100
AcDbSymbolTableRecord
100
AcDbLayerTableRecord
  2
0
 70
     0
 62
     7
  6
CONTINUOUS
  0
LAYER
  5
61
100
AcDbSymbolTableRecord
100
AcDbLayerTableRecord
  2
RIQUADRO025
 70
    64
 62
     7
  6
CONTINUOUS
  0
LAYER
  5
62
100
AcDbSymbolTableRecord
100
AcDbLayerTableRecord
  2
RIQUADRO035
 70
    64
 62
     2
  6
CONTINUOUS
  0
LAYER
  5
63
100
AcDbSymbolTableRecord
100
AcDbLayerTableRecord
  2
RIQUADRO050
 70
    64
 62
     6
  6
CONTINUOUS
  0
LAYER
  5
64
100
AcDbSymbolTableRecord
100
AcDbLayerTableRecord
  2
RIQUADRO070
 70
    64
 62
     5
  6
CONTINUOUS
  0
LAYER
  5
65
100
AcDbSymbolTableRecord
100
AcDbLayerTableRecord
  2
RIQUADRO100
 70
    64
 62
     1
  6
CONTINUOUS
  0
LAYER
  5
66
100
AcDbSymbolTableRecord
100
AcDbLayerTableRecord
  2
RIQUADRO140
 70
    64
 62
     3
  6
CONTINUOUS
  0
LAYER
  5
67
100
AcDbSymbolTableRecord
100
AcDbLayerTableRecord
  2
RIQUADRO200
 70
    64
 62
     8
  6
CONTINUOUS
  0
LAYER
  5
68
100
AcDbSymbolTableRecord
100
AcDbLayerTableRecord
  2
BT
 70
    64
 62
     7
  6
CONTINUOUS
  0
LAYER
  5
FA
100
AcDbSymbolTableRecord
100
AcDbLayerTableRecord
  2
OGGETTI
 70
    64
 62
   250
  6
CONTINUOUS
  0
LAYER
  5
FB
100
AcDbSymbolTableRecord
100
AcDbLayerTableRecord
  2
QUOTE
 70
    64
 62
     1
  6
CONTINUOUS
  0
LAYER
  5
FC
100
AcDbSymbolTableRecord
100
AcDbLayerTableRecord
  2
NASCOSTA
 70
    64
 62
     2
  6
NASCOSTA
  0
LAYER
  5
FD
100
AcDbSymbolTableRecord
100
AcDbLayerTableRecord
  2
TESTO
 70
    64
 62
     6
  6
CONTINUOUS
  0
LAYER
  5
FE
100
AcDbSymbolTableRecord
100
AcDbLayerTableRecord
  2
CENTRO
 70
    64
 62
     3
  6
LINEA-LINEETTAX2
  0
LAYER
  5
136
100
AcDbSymbolTableRecord
100
AcDbLayerTableRecord
  2
DEFPOINTS
 70
    64
 62
     7
  6
CONTINUOUS
  0
LAYER
  5
873
100
AcDbSymbolTableRecord
100
AcDbLayerTableRecord
  2
SEZIONE
 70
    64
 62
     8
  6
CONTINUOUS
  0
ENDTAB
  0
TABLE
  2
STYLE
  5
3
100
AcDbSymbolTable
 70
     2
  0
STYLE
  5
10
100
AcDbSymbolTableRecord
100
AcDbTextStyleTableRecord
  2
STANDARD
 70
    64
 40
3.0
 41
1.0
 50
0.0
 71
     0
 42
3.0
  3
ISOCP
  4

  0
STYLE
  5
69
100
AcDbSymbolTableRecord
100
AcDbTextStyleTableRecord
  2
ISOCP
 70
    64
 40
0.0
 41
1.0
 50
0.0
 71
     0
 42
2.5
  3
isocp
  4

  0
ENDTAB
  0
TABLE
  2
VIEW
  5
6
100
AcDbSymbolTable
 70
     0
  0
ENDTAB
  0
TABLE
  2
UCS
  5
7
100
AcDbSymbolTable
 70
     0
  0
ENDTAB
  0
TABLE
  2
APPID
  5
9
100
AcDbSymbolTable
 70
     1
  0
APPID
  5
11
100
AcDbSymbolTableRecord
100
AcDbRegAppTableRecord
  2
ACAD
 70
     0
  0
ENDTAB
  0
TABLE
  2
DIMSTYLE
  5
A
100
AcDbSymbolTable
 70
     8
  0
DIMSTYLE
105
1D
100
AcDbSymbolTableRecord
100
AcDbDimStyleTableRecord
  2
STANDARD
 70
     0
  3

  4

  5

  6

  7

 40
1.0
 41
0.18
 42
0.0625
 43
0.38
 44
0.18
 45
0.0
 46
0.0
 47
0.0
 48
0.0
140
0.18
141
0.09
142
0.0
143
25.4
144
1.0
145
0.0
146
1.0
147
0.09
 71
     0
 72
     0
 73
     1
 74
     1
 75
     0
 76
     0
 77
     0
 78
     0
170
     0
171
     2
172
     0
173
     0
174
     0
175
     0
176
     0
177
     0
178
     0
270
     2
271
     4
272
     4
273
     2
274
     2
340
10
275
     0
280
     0
281
     0
282
     0
283
     1
284
     0
285
     0
286
     0
287
     3
288
     0
  0
DIMSTYLE
105
24
100
AcDbSymbolTableRecord
100
AcDbDimStyleTableRecord
  2
ISO-25
 70
     0
  3

  4

  5

  6

  7

 40
1.0
 41
2.5
 42
0.625
 43
3.75
 44
1.25
 45
0.0
 46
0.0
 47
0.0
 48
0.0
140
2.5
141
2.5
142
0.0
143
0.0394
144
1.0
145
1.0
146
1.0
147
0.625
 71
     0
 72
     0
 73
     1
 74
     0
 75
     0
 76
     0
 77
     1
 78
     8
170
     0
171
     2
172
     1
173
     0
174
     0
175
     0
176
     0
177
     0
178
     0
270
     2
271
     4
272
     4
273
     2
274
     2
340
10
275
     0
280
     0
281
     0
282
     0
283
     1
284
     0
285
     0
286
     0
287
     3
288
     0
  0
DIMSTYLE
105
25
100
AcDbSymbolTableRecord
100
AcDbDimStyleTableRecord
  2
ISO-35
 70
     0
  3

  4

  5

  6

  7

 40
1.0
 41
3.5
 42
0.875
 43
5.25
 44
1.75
 45
0.0
 46
0.0
 47
0.0
 48
0.0
140
3.5
141
3.5
142
0.0
143
0.0394
144
1.0
145
1.4
146
1.0
147
0.875
 71
     0
 72
     0
 73
     1
 74
     0
 75
     0
 76
     0
 77
     1
 78
     8
170
     0
171
     2
172
     1
173
     0
174
     0
175
     0
176
     0
177
     0
178
     0
270
     2
271
     4
272
     4
273
     2
274
     2
340
10
275
     0
280
     0
281
     0
282
     0
283
     1
284
     0
285
     0
286
     0
287
     3
288
     0
  0
DIMSTYLE
105
26
100
AcDbSymbolTableRecord
100
AcDbDimStyleTableRecord
  2
ISO-5
 70
     0
  3

  4

  5

  6

  7

 40
1.0
 41
5.0
 42
1.25
 43
7.5
 44
2.5
 45
0.0
 46
0.0
 47
0.0
 48
0.0
140
5.0
141
5.0
142
0.0
143
0.0394
144
1.0
145
2.0
146
1.0
147
1.25
 71
     0
 72
     0
 73
     1
 74
     0
 75
     0
 76
     0
 77
     1
 78
     8
170
     0
171
     2
172
     1
173
     0
174
     0
175
     0
176
     0
177
     0
178
     0
270
     2
271
     4
272
     4
273
     2
274
     2
340
10
275
     0
280
     0
281
     0
282
     0
283
     1
284
     0
285
     0
286
     0
287
     3
288
     0
  0
DIMSTYLE
105
27
100
AcDbSymbolTableRecord
100
AcDbDimStyleTableRecord
  2
ISO-7
 70
     0
  3

  4

  5

  6

  7

 40
1.0
 41
7.0
 42
1.75
 43
10.5
 44
3.5
 45
0.0
 46
0.0
 47
0.0
 48
0.0
140
7.0
141
7.0
142
0.0
143
0.0394
144
1.0
145
2.8
146
1.0
147
1.75
 71
     0
 72
     0
 73
     1
 74
     0
 75
     0
 76
     0
 77
     1
 78
     8
170
     0
171
     2
172
     1
173
     0
174
     0
175
     0
176
     0
177
     0
178
     0
270
     2
271
     4
272
     4
273
     2
274
     2
340
10
275
     0
280
     0
281
     0
282
     0
283
     1
284
     0
285
     0
286
     0
287
     3
288
     0
  0
DIMSTYLE
105
28
100
AcDbSymbolTableRecord
100
AcDbDimStyleTableRecord
  2
ISO1
 70
     0
  3

  4

  5

  6

  7

 40
1.0
 41
10.0
 42
2.5
 43
15.0
 44
5.0
 45
0.0
 46
0.0
 47
0.0
 48
0.0
140
10.0
141
10.0
142
0.0
143
0.0394
144
1.0
145
4.0
146
1.0
147
2.5
 71
     0
 72
     0
 73
     1
 74
     0
 75
     0
 76
     0
 77
     1
 78
     8
170
     0
171
     2
172
     1
173
     0
174
     0
175
     0
176
     0
177
     0
178
     0
270
     2
271
     4
272
     4
273
     2
274
     2
340
10
275
     0
280
     0
281
     0
282
     0
283
     1
284
     0
285
     0
286
     0
287
     3
288
     0
  0
DIMSTYLE
105
29
100
AcDbSymbolTableRecord
100
AcDbDimStyleTableRecord
  2
ISO1-4
 70
     0
  3

  4

  5

  6

  7

 40
1.0
 41
14.0
 42
3.5
 43
21.0
 44
7.0
 45
0.0
 46
0.0
 47
0.0
 48
0.0
140
14.0
141
14.0
142
0.0
143
0.0394
144
1.0
145
5.6
146
1.0
147
3.5
 71
     0
 72
     0
 73
     1
 74
     0
 75
     0
 76
     0
 77
     1
 78
     8
170
     0
171
     2
172
     1
173
     0
174
     0
175
     0
176
     0
177
     0
178
     0
270
     2
271
     4
272
     4
273
     2
274
     2
340
10
275
     0
280
     0
281
     0
282
     0
283
     1
284
     0
285
     0
286
     0
287
     3
288
     0
  0
DIMSTYLE
105
2A
100
AcDbSymbolTableRecord
100
AcDbDimStyleTableRecord
  2
ISO2
 70
     0
  3

  4

  5

  6

  7

 40
1.0
 41
20.0
 42
5.0
 43
30.0
 44
10.0
 45
0.0
 46
0.0
 47
0.0
 48
0.0
140
20.0
141
20.0
142
0.0
143
0.0394
144
1.0
145
8.0
146
1.0
147
5.0
 71
     0
 72
     0
 73
     1
 74
     0
 75
     0
 76
     0
 77
     1
 78
     8
170
     0
171
     2
172
     1
173
     0
174
     0
175
     0
176
     0
177
     0
178
     0
270
     2
271
     4
272
     4
273
     2
274
     2
340
10
275
     0
280
     0
281
     0
282
     0
283
     1
284
     0
285
     0
286
     0
287
     3
288
     0
  0
ENDTAB
  0
TABLE
  2
BLOCK_RECORD
  5
1
100
AcDbSymbolTable
 70
    23
  0
BLOCK_RECORD
  5
1A
100
AcDbSymbolTableRecord
100
AcDbBlockTableRecord
  2
*MODEL_SPACE
  0
BLOCK_RECORD
  5
17
100
AcDbSymbolTableRecord
100
AcDbBlockTableRecord
  2
*PAPER_SPACE
  0
BLOCK_RECORD
  5
6A
100
AcDbSymbolTableRecord
100
AcDbBlockTableRecord
  2
ISO_A4
  0
BLOCK_RECORD
  5
18D
100
AcDbSymbolTableRecord
100
AcDbBlockTableRecord
  2
*D1
  0
BLOCK_RECORD
  5
1A8
100
AcDbSymbolTableRecord
100
AcDbBlockTableRecord
  2
*D2
  0
BLOCK_RECORD
  5
1DC
100
AcDbSymbolTableRecord
100
AcDbBlockTableRecord
  2
*D3
  0
BLOCK_RECORD
  5
353
100
AcDbSymbolTableRecord
100
AcDbBlockTableRecord
  2
*D4
  0
BLOCK_RECORD
  5
4E7
100
AcDbSymbolTableRecord
100
AcDbBlockTableRecord
  2
*D5
  0
BLOCK_RECORD
  5
4F4
100
AcDbSymbolTableRecord
100
AcDbBlockTableRecord
  2
*D6
  0
BLOCK_RECORD
  5
63D
100
AcDbSymbolTableRecord
100
AcDbBlockTableRecord
  2
*D7
  0
BLOCK_RECORD
  5
64D
100
AcDbSymbolTableRecord
100
AcDbBlockTableRecord
  2
*D8
  0
BLOCK_RECORD
  5
65C
100
AcDbSymbolTableRecord
100
AcDbBlockTableRecord
  2
*D9
  0
BLOCK_RECORD
  5
730
100
AcDbSymbolTableRecord
100
AcDbBlockTableRecord
  2
*D10
  0
BLOCK_RECORD
  5
73F
100
AcDbSymbolTableRecord
100
AcDbBlockTableRecord
  2
*D11
  0
BLOCK_RECORD
  5
74E
100
AcDbSymbolTableRecord
100
AcDbBlockTableRecord
  2
*D12
  0
BLOCK_RECORD
  5
75A
100
AcDbSymbolTableRecord
100
AcDbBlockTableRecord
  2
*D13
  0
BLOCK_RECORD
  5
766
100
AcDbSymbolTableRecord
100
AcDbBlockTableRecord
  2
*D14
  0
BLOCK_RECORD
  5
7A4
100
AcDbSymbolTableRecord
100
AcDbBlockTableRecord
  2
*X15
  0
BLOCK_RECORD
  5
80C
100
AcDbSymbolTableRecord
100
AcDbBlockTableRecord
  2
*X16
  0
BLOCK_RECORD
  5
838
100
AcDbSymbolTableRecord
100
AcDbBlockTableRecord
  2
*D17
  0
BLOCK_RECORD
  5
845
100
AcDbSymbolTableRecord
100
AcDbBlockTableRecord
  2
*D18
  0
BLOCK_RECORD
  5
88F
100
AcDbSymbolTableRecord
100
AcDbBlockTableRecord
  2
*D19
  0
BLOCK_RECORD
  5
8A1
100
AcDbSymbolTableRecord
100
AcDbBlockTableRecord
  2
*D20
  0
BLOCK_RECORD
  5
8AF
100
AcDbSymbolTableRecord
100
AcDbBlockTableRecord
  2
*D21
  0
BLOCK_RECORD
  5
8C0
100
AcDbSymbolTableRecord
100
AcDbBlockTableRecord
  2
*D22
  0
ENDTAB
  0
ENDSEC
  0
SECTION
  2
BLOCKS
  0
BLOCK
  5
1B
100
AcDbEntity
  8
0
100
AcDbBlockBegin
  2
*MODEL_SPACE
 70
     0
 10
0.0
 20
0.0
 30
0.0
  3
*MODEL_SPACE
  1

  0
ENDBLK
  5
1C
100
AcDbEntity
  8
0
100
AcDbBlockEnd
  0
BLOCK
  5
18
100
AcDbEntity
 67
     1
  8
0
100
AcDbBlockBegin
  2
*PAPER_SPACE
 70
     0
 10
0.0
 20
0.0
 30
0.0
  3
*PAPER_SPACE
  1

  0
ENDBLK
  5
19
100
AcDbEntity
 67
     1
  8
0
100
AcDbBlockEnd
  0
BLOCK
  5
E0
100
AcDbEntity
  8
0
100
AcDbBlockBegin
  2
ISO_A4
 70
     2
 10
0.0
 20
0.0
 30
0.0
  3
ISO_A4
  1

  0
LINE
  5
6B
100
AcDbEntity
  8
RIQUADRO200
100
AcDbLine
 10
0.0
 20
0.0
 30
0.0
 11
10.0
 21
0.0
 31
0.0
  0
LINE
  5
6C
100
AcDbEntity
  8
RIQUADRO200
100
AcDbLine
 10
0.0
 20
0.0
 30
0.0
 11
0.0
 21
10.0
 31
0.0
  0
LINE
  5
6D
100
AcDbEntity
  8
RIQUADRO200
100
AcDbLine
 10
210.0
 20
0.0
 30
0.0
 11
200.0
 21
0.0
 31
0.0
  0
LINE
  5
6E
100
AcDbEntity
  8
RIQUADRO200
100
AcDbLine
 10
210.0
 20
0.0
 30
0.0
 11
210.0
 21
10.0
 31
0.0
  0
LINE
  5
6F
100
AcDbEntity
  8
RIQUADRO200
100
AcDbLine
 10
210.0
 20
287.0
 30
0.0
 11
210.0
 21
297.0
 31
0.0
  0
LINE
  5
70
100
AcDbEntity
  8
RIQUADRO200
100
AcDbLine
 10
210.0
 20
297.0
 30
0.0
 11
200.0
 21
297.0
 31
0.0
  0
LINE
  5
71
100
AcDbEntity
  8
RIQUADRO200
100
AcDbLine
 10
10.0
 20
297.0
 30
0.0
 11
0.0
 21
297.0
 31
0.0
  0
LINE
  5
72
100
AcDbEntity
  8
RIQUADRO200
100
AcDbLine
 10
0.0
 20
297.0
 30
0.0
 11
0.0
 21
287.0
 31
0.0
  0
LINE
  5
73
100
AcDbEntity
  8
RIQUADRO070
100
AcDbLine
 10
10.0
 20
10.0
 30
0.0
 11
200.0
 21
10.0
 31
0.0
  0
LINE
  5
74
100
AcDbEntity
  8
RIQUADRO070
100
AcDbLine
 10
200.0
 20
10.0
 30
0.0
 11
200.0
 21
287.0
 31
0.0
  0
LINE
  5
75
100
AcDbEntity
  8
RIQUADRO070
100
AcDbLine
 10
200.0
 20
287.0
 30
0.0
 11
10.0
 21
287.0
 31
0.0
  0
LINE
  5
76
100
AcDbEntity
  8
RIQUADRO070
100
AcDbLine
 10
10.0
 20
287.0
 30
0.0
 11
10.0
 21
10.0
 31
0.0
  0
LINE
  5
77
100
AcDbEntity
  8
RIQUADRO050
100
AcDbLine
 10
105.0
 20
10.0
 30
0.0
 11
105.0
 21
5.0
 31
0.0
  0
LINE
  5
78
100
AcDbEntity
  8
RIQUADRO050
100
AcDbLine
 10
55.0
 20
5.0
 30
0.0
 11
155.0
 21
5.0
 31
0.0
  0
LINE
  5
79
100
AcDbEntity
  8
RIQUADRO050
100
AcDbLine
 10
55.0
 20
5.0
 30
0.0
 11
55.0
 21
10.0
 31
0.0
  0
LINE
  5
7A
100
AcDbEntity
  8
RIQUADRO050
100
AcDbLine
 10
155.0
 20
5.0
 30
0.0
 11
155.0
 21
10.0
 31
0.0
  0
LINE
  5
7B
100
AcDbEntity
  8
RIQUADRO050
100
AcDbLine
 10
65.0
 20
5.0
 30
0.0
 11
65.0
 21
10.0
 31
0.0
  0
LINE
  5
7C
100
AcDbEntity
  8
RIQUADRO050
100
AcDbLine
 10
75.0
 20
5.0
 30
0.0
 11
75.0
 21
10.0
 31
0.0
  0
LINE
  5
7D
100
AcDbEntity
  8
RIQUADRO050
100
AcDbLine
 10
85.0
 20
5.0
 30
0.0
 11
85.0
 21
10.0
 31
0.0
  0
LINE
  5
7E
100
AcDbEntity
  8
RIQUADRO050
100
AcDbLine
 10
95.0
 20
5.0
 30
0.0
 11
95.0
 21
10.0
 31
0.0
  0
LINE
  5
7F
100
AcDbEntity
  8
RIQUADRO050
100
AcDbLine
 10
115.0
 20
5.0
 30
0.0
 11
115.0
 21
10.0
 31
0.0
  0
LINE
  5
80
100
AcDbEntity
  8
RIQUADRO050
100
AcDbLine
 10
125.0
 20
5.0
 30
0.0
 11
125.0
 21
10.0
 31
0.0
  0
LINE
  5
81
100
AcDbEntity
  8
RIQUADRO050
100
AcDbLine
 10
135.0
 20
5.0
 30
0.0
 11
135.0
 21
10.0
 31
0.0
  0
LINE
  5
82
100
AcDbEntity
  8
RIQUADRO050
100
AcDbLine
 10
145.0
 20
5.0
 30
0.0
 11
145.0
 21
10.0
 31
0.0
  0
LINE
  5
83
100
AcDbEntity
  8
RIQUADRO050
100
AcDbLine
 10
5.0
 20
148.5
 30
0.0
 11
15.0
 21
148.5
 31
0.0
  0
LINE
  5
84
100
AcDbEntity
  8
RIQUADRO050
100
AcDbLine
 10
195.0
 20
148.5
 30
0.0
 11
205.0
 21
148.5
 31
0.0
  0
LINE
  5
85
100
AcDbEntity
  8
RIQUADRO050
100
AcDbLine
 10
105.0
 20
282.0
 30
0.0
 11
105.0
 21
292.0
 31
0.0
  0
LINE
  5
86
100
AcDbEntity
  8
RIQUADRO050
100
AcDbLine
 10
105.0
 20
10.0
 30
0.0
 11
105.0
 21
15.0
 31
0.0
  0
LINE
  5
87
100
AcDbEntity
  8
RIQUADRO050
100
AcDbLine
 10
12.5
 20
151.0
 30
0.0
 11
12.5
 21
146.0
 31
0.0
  0
LINE
  5
88
100
AcDbEntity
  8
RIQUADRO050
100
AcDbLine
 10
12.5
 20
146.0
 30
0.0
 11
7.5
 21
148.5
 31
0.0
  0
LINE
  5
89
100
AcDbEntity
  8
RIQUADRO050
100
AcDbLine
 10
7.5
 20
148.5
 30
0.0
 11
12.5
 21
151.0
 31
0.0
  0
LINE
  5
8A
100
AcDbEntity
  8
RIQUADRO050
100
AcDbLine
 10
105.0
 20
7.5
 30
0.0
 11
102.5
 21
12.5
 31
0.0
  0
LINE
  5
8B
100
AcDbEntity
  8
RIQUADRO050
100
AcDbLine
 10
102.5
 20
12.5
 30
0.0
 11
107.5
 21
12.5
 31
0.0
  0
LINE
  5
8C
100
AcDbEntity
  8
RIQUADRO050
100
AcDbLine
 10
107.5
 20
12.5
 30
0.0
 11
105.0
 21
7.5
 31
0.0
  0
LINE
  5
8D
100
AcDbEntity
  8
RIQUADRO050
100
AcDbLine
 10
57.5
 20
287.0
 30
0.0
 11
57.5
 21
292.0
 31
0.0
  0
LINE
  5
8E
100
AcDbEntity
  8
RIQUADRO050
100
AcDbLine
 10
152.5
 20
287.0
 30
0.0
 11
152.5
 21
292.0
 31
0.0
  0
TEXT
  5
8F
100
AcDbEntity
  8
RIQUADRO050
100
AcDbText
 10
32.75
 20
287.5
 30
0.0
 40
4.0
  1
1
  7
ISOCP
 72
     4
 11
33.75
 21
289.5
 31
0.0
100
AcDbText
  0
TEXT
  5
90
100
AcDbEntity
  8
RIQUADRO050
100
AcDbText
 10
79.780669
 20
287.399606
 30
0.0
 40
4.0
  1
2
  7
ISOCP
 72
     4
 11
81.25
 21
289.5
 31
0.0
100
AcDbText
  0
TEXT
  5
91
100
AcDbEntity
  8
RIQUADRO050
100
AcDbText
 10
127.267157
 20
287.582843
 30
0.0
 40
4.0
  1
3
  7
ISOCP
 72
     4
 11
128.75
 21
289.5
 31
0.0
100
AcDbText
  0
TEXT
  5
92
100
AcDbEntity
  8
RIQUADRO050
100
AcDbText
 10
174.65
 20
287.5
 30
0.0
 40
4.0
  1
4
  7
ISOCP
 72
     4
 11
176.25
 21
289.5
 31
0.0
100
AcDbText
  0
LINE
  5
93
100
AcDbEntity
  8
RIQUADRO050
100
AcDbLine
 10
10.0
 20
194.5
 30
0.0
 11
5.0
 21
194.5
 31
0.0
  0
LINE
  5
94
100
AcDbEntity
  8
RIQUADRO050
100
AcDbLine
 10
10.0
 20
240.5
 30
0.0
 11
5.0
 21
240.5
 31
0.0
  0
LINE
  5
95
100
AcDbEntity
  8
RIQUADRO050
100
AcDbLine
 10
10.0
 20
102.5
 30
0.0
 11
5.0
 21
102.5
 31
0.0
  0
LINE
  5
96
100
AcDbEntity
  8
RIQUADRO050
100
AcDbLine
 10
10.0
 20
56.5
 30
0.0
 11
5.0
 21
56.5
 31
0.0
  0
TEXT
  5
97
100
AcDbEntity
  8
RIQUADRO050
100
AcDbText
 10
5.7
 20
261.5
 30
0.0
 40
4.0
  1
A
  7
ISOCP
 72
     4
 11
7.5
 21
263.5
 31
0.0
100
AcDbText
  0
TEXT
  5
98
100
AcDbEntity
  8
RIQUADRO050
100
AcDbText
 10
5.9
 20
215.5
 30
0.0
 40
4.0
  1
B
  7
ISOCP
 72
     4
 11
7.5
 21
217.5
 31
0.0
100
AcDbText
  0
TEXT
  5
99
100
AcDbEntity
  8
RIQUADRO050
100
AcDbText
 10
6.193198
 20
169.5
 30
0.0
 40
4.0
  1
C
  7
ISOCP
 72
     4
 11
7.5
 21
171.5
 31
0.0
100
AcDbText
  0
TEXT
  5
9A
100
AcDbEntity
  8
RIQUADRO050
100
AcDbText
 10
5.786091
 20
123.5
 30
0.0
 40
4.0
  1
D
  7
ISOCP
 72
     4
 11
7.5
 21
125.5
 31
0.0
100
AcDbText
  0
TEXT
  5
9B
100
AcDbEntity
  8
RIQUADRO050
100
AcDbText
 10
6.1
 20
77.5
 30
0.0
 40
4.0
  1
E
  7
ISOCP
 72
     4
 11
7.5
 21
79.5
 31
0.0
100
AcDbText
  0
TEXT
  5
9C
100
AcDbEntity
  8
RIQUADRO050
100
AcDbText
 10
6.1
 20
31.5
 30
0.0
 40
4.0
  1
F
  7
ISOCP
 72
     4
 11
7.5
 21
33.5
 31
0.0
100
AcDbText
  0
TEXT
  5
9D
100
AcDbEntity
  8
RIQUADRO050
100
AcDbText
 10
200.7
 20
261.5
 30
0.0
 40
4.0
  1
A
  7
ISOCP
 72
     4
 11
202.5
 21
263.5
 31
0.0
100
AcDbText
  0
LINE
  5
9E
100
AcDbEntity
  8
RIQUADRO050
100
AcDbLine
 10
205.0
 20
240.5
 30
0.0
 11
200.0
 21
240.5
 31
0.0
  0
TEXT
  5
9F
100
AcDbEntity
  8
RIQUADRO050
100
AcDbText
 10
200.9
 20
215.5
 30
0.0
 40
4.0
  1
B
  7
ISOCP
 72
     4
 11
202.5
 21
217.5
 31
0.0
100
AcDbText
  0
LINE
  5
A0
100
AcDbEntity
  8
RIQUADRO050
100
AcDbLine
 10
205.0
 20
194.5
 30
0.0
 11
200.0
 21
194.5
 31
0.0
  0
TEXT
  5
A1
100
AcDbEntity
  8
RIQUADRO050
100
AcDbText
 10
201.193198
 20
169.5
 30
0.0
 40
4.0
  1
C
  7
ISOCP
 72
     4
 11
202.5
 21
171.5
 31
0.0
100
AcDbText
  0
TEXT
  5
A2
100
AcDbEntity
  8
RIQUADRO050
100
AcDbText
 10
200.786091
 20
123.5
 30
0.0
 40
4.0
  1
D
  7
ISOCP
 72
     4
 11
202.5
 21
125.5
 31
0.0
100
AcDbText
  0
LINE
  5
A3
100
AcDbEntity
  8
RIQUADRO050
100
AcDbLine
 10
205.0
 20
102.5
 30
0.0
 11
200.0
 21
102.5
 31
0.0
  0
TEXT
  5
A4
100
AcDbEntity
  8
RIQUADRO050
100
AcDbText
 10
201.1
 20
77.5
 30
0.0
 40
4.0
  1
E
  7
ISOCP
 72
     4
 11
202.5
 21
79.5
 31
0.0
100
AcDbText
  0
LINE
  5
A5
100
AcDbEntity
  8
RIQUADRO050
100
AcDbLine
 10
205.0
 20
56.5
 30
0.0
 11
200.0
 21
56.5
 31
0.0
  0
TEXT
  5
A6
100
AcDbEntity
  8
RIQUADRO050
100
AcDbText
 10
201.1
 20
31.5
 30
0.0
 40
4.0
  1
F
  7
ISOCP
 72
     4
 11
202.5
 21
33.5
 31
0.0
100
AcDbText
  0
ATTDEF
  5
A7
100
AcDbEntity
  8
BT
100
AcDbText
 10
0.0
 20
0.0
 30
0.0
 40
2.5
  1
10.0
  7
ISOCP
100
AcDbAttributeDefinition
  3
MinX
  2
MINX
 70
     9
  0
ATTDEF
  5
A8
100
AcDbEntity
  8
BT
100
AcDbText
 10
0.0
 20
0.0
 30
0.0
 40
2.5
  1
46.0
  7
ISOCP
100
AcDbAttributeDefinition
  3
MinY
  2
MINY
 70
     9
  0
ATTDEF
  5
A9
100
AcDbEntity
  8
BT
100
AcDbText
 10
0.0
 20
0.0
 30
0.0
 40
2.5
  1
200.0
  7
ISOCP
100
AcDbAttributeDefinition
  3
MaxX
  2
MAXX
 70
     9
  0
ATTDEF
  5
AA
100
AcDbEntity
  8
BT
100
AcDbText
 10
0.0
 20
0.0
 30
0.0
 40
2.5
  1
281.0
  7
ISOCP
100
AcDbAttributeDefinition
  3
MaxY
  2
MAXY
 70
     9
  0
LINE
  5
AB
100
AcDbEntity
  8
RIQUADRO070
100
AcDbLine
 10
105.0
 20
20.0
 30
0.0
 11
200.0
 21
20.0
 31
0.0
  0
LINE
  5
AC
100
AcDbEntity
  8
RIQUADRO070
100
AcDbLine
 10
30.0
 20
30.0
 30
0.0
 11
200.0
 21
30.0
 31
0.0
  0
LINE
  5
AD
100
AcDbEntity
  8
RIQUADRO070
100
AcDbLine
 10
30.0
 20
40.0
 30
0.0
 11
200.0
 21
40.0
 31
0.0
  0
LINE
  5
AE
100
AcDbEntity
  8
RIQUADRO070
100
AcDbLine
 10
30.0
 20
10.0
 30
0.0
 11
30.0
 21
40.0
 31
0.0
  0
LINE
  5
AF
100
AcDbEntity
  8
RIQUADRO070
100
AcDbLine
 10
105.0
 20
10.0
 30
0.0
 11
105.0
 21
30.0
 31
0.0
  0
LINE
  5
B0
100
AcDbEntity
  8
RIQUADRO070
100
AcDbLine
 10
180.0
 20
10.0
 30
0.0
 11
180.0
 21
20.0
 31
0.0
  0
LINE
  5
B1
100
AcDbEntity
  8
RIQUADRO070
100
AcDbLine
 10
165.0
 20
10.0
 30
0.0
 11
165.0
 21
20.0
 31
0.0
  0
LINE
  5
B2
100
AcDbEntity
  8
RIQUADRO070
100
AcDbLine
 10
180.0
 20
30.0
 30
0.0
 11
180.0
 21
40.0
 31
0.0
  0
LINE
  5
B3
100
AcDbEntity
  8
RIQUADRO070
100
AcDbLine
 10
150.0
 20
30.0
 30
0.0
 11
150.0
 21
40.0
 31
0.0
  0
LINE
  5
B4
100
AcDbEntity
  8
RIQUADRO070
100
AcDbLine
 10
125.0
 20
30.0
 30
0.0
 11
125.0
 21
40.0
 31
0.0
  0
LINE
  5
B5
100
AcDbEntity
  8
RIQUADRO070
100
AcDbLine
 10
87.0
 20
30.0
 30
0.0
 11
87.0
 21
40.0
 31
0.0
  0
LINE
  5
B6
100
AcDbEntity
  8
RIQUADRO070
100
AcDbLine
 10
62.0
 20
30.0
 30
0.0
 11
62.0
 21
40.0
 31
0.0
  0
LINE
  5
B7
100
AcDbEntity
  8
RIQUADRO070
100
AcDbLine
 10
30.0
 20
46.0
 30
0.0
 11
200.0
 21
46.0
 31
0.0
  0
LINE
  5
B8
100
AcDbEntity
  8
RIQUADRO070
100
AcDbLine
 10
45.0
 20
40.0
 30
0.0
 11
45.0
 21
46.0
 31
0.0
  0
LINE
  5
B9
100
AcDbEntity
  8
RIQUADRO070
100
AcDbLine
 10
30.0
 20
40.0
 30
0.0
 11
30.0
 21
46.0
 31
0.0
  0
LINE
  5
BA
100
AcDbEntity
  8
RIQUADRO070
100
AcDbLine
 10
62.0
 20
40.0
 30
0.0
 11
62.0
 21
46.0
 31
0.0
  0
LINE
  5
BB
100
AcDbEntity
  8
RIQUADRO070
100
AcDbLine
 10
150.0
 20
40.0
 30
0.0
 11
150.0
 21
46.0
 31
0.0
  0
LINE
  5
BC
100
AcDbEntity
  8
RIQUADRO070
100
AcDbLine
 10
30.0
 20
281.0
 30
0.0
 11
30.0
 21
287.0
 31
0.0
  0
LINE
  5
BD
100
AcDbEntity
  8
RIQUADRO070
100
AcDbLine
 10
30.0
 20
281.0
 30
0.0
 11
200.0
 21
281.0
 31
0.0
  0
LINE
  5
BE
100
AcDbEntity
  8
RIQUADRO070
100
AcDbLine
 10
42.0
 20
281.0
 30
0.0
 11
42.0
 21
287.0
 31
0.0
  0
LINE
  5
BF
100
AcDbEntity
  8
RIQUADRO070
100
AcDbLine
 10
151.0
 20
281.0
 30
0.0
 11
151.0
 21
287.0
 31
0.0
  0
LINE
  5
C0
100
AcDbEntity
  8
RIQUADRO070
100
AcDbLine
 10
171.0
 20
281.0
 30
0.0
 11
171.0
 21
287.0
 31
0.0
  0
LINE
  5
C1
100
AcDbEntity
  8
RIQUADRO070
100
AcDbLine
 10
186.0
 20
281.0
 30
0.0
 11
186.0
 21
287.0
 31
0.0
  0
TEXT
  5
C2
100
AcDbEntity
  8
RIQUADRO025
100
AcDbText
 10
32.0
 20
41.75
 30
0.0
 40
2.5
  1
Rif.
  7
ISOCP
 11
32.0
 21
43.0
 31
0.0
100
AcDbText
 73
     2
  0
TEXT
  5
C3
100
AcDbEntity
  8
RIQUADRO025
100
AcDbText
 10
32.0
 20
35.75
 30
0.0
 40
2.5
  1
Progettato da
  7
ISOCP
 11
32.0
 21
37.0
 31
0.0
100
AcDbText
 73
     2
  0
TEXT
  5
C4
100
AcDbEntity
  8
RIQUADRO025
100
AcDbText
 10
167.0
 20
15.75
 30
0.0
 40
2.5
  1
Modifica
  7
ISOCP
 11
167.0
 21
17.0
 31
0.0
100
AcDbText
 73
     2
  0
TEXT
  5
C5
100
AcDbEntity
  8
RIQUADRO025
100
AcDbText
 10
182.0
 20
15.75
 30
0.0
 40
2.5
  1
Foglio
  7
ISOCP
 11
182.0
 21
17.0
 31
0.0
100
AcDbText
 73
     2
  0
TEXT
  5
C6
100
AcDbEntity
  8
RIQUADRO025
100
AcDbText
 10
182.0
 20
35.75
 30
0.0
 40
2.5
  1
Scala
  7
ISOCP
 11
182.0
 21
37.0
 31
0.0
100
AcDbText
 73
     2
  0
TEXT
  5
C7
100
AcDbEntity
  8
RIQUADRO025
100
AcDbText
 10
152.0
 20
35.75
 30
0.0
 40
2.5
  1
Data
  7
ISOCP
 11
152.0
 21
37.0
 31
0.0
100
AcDbText
 73
     2
  0
TEXT
  5
C8
100
AcDbEntity
  8
RIQUADRO025
100
AcDbText
 10
127.0
 20
35.75
 30
0.0
 40
2.5
  1
Nome file
  7
ISOCP
 11
127.0
 21
37.0
 31
0.0
100
AcDbText
 73
     2
  0
TEXT
  5
C9
100
AcDbEntity
  8
RIQUADRO025
100
AcDbText
 10
89.0
 20
35.75
 30
0.0
 40
2.5
  1
Approvato da - data
  7
ISOCP
 11
89.0
 21
37.0
 31
0.0
100
AcDbText
 73
     2
  0
TEXT
  5
CA
100
AcDbEntity
  8
RIQUADRO025
100
AcDbText
 10
64.0
 20
35.75
 30
0.0
 40
2.5
  1
Controllato da
  7
ISOCP
 11
64.0
 21
37.0
 31
0.0
100
AcDbText
 73
     2
  0
TEXT
  5
CB
100
AcDbEntity
  8
RIQUADRO025
100
AcDbText
 10
64.0
 20
41.75
 30
0.0
 40
2.5
  1
Titolo/Nome, designazione, materiale, dimensione, ecc.
  7
ISOCP
 11
64.0
 21
43.0
 31
0.0
100
AcDbText
 73
     2
  0
TEXT
  5
CC
100
AcDbEntity
  8
RIQUADRO025
100
AcDbText
 10
47.0
 20
41.75
 30
0.0
 40
2.5
  1
Quantità
  7
ISOCP
 11
47.0
 21
43.0
 31
0.0
100
AcDbText
 73
     2
  0
TEXT
  5
CD
100
AcDbEntity
  8
RIQUADRO025
100
AcDbText
 10
152.0
 20
41.75
 30
0.0
 40
2.5
  1
N. articolo/Riferimento
  7
ISOCP
 11
152.0
 21
43.0
 31
0.0
100
AcDbText
 73
     2
  0
TEXT
  5
CE
100
AcDbEntity
  8
RIQUADRO025
100
AcDbText
 10
32.0
 20
282.75
 30
0.0
 40
2.5
  1
N. rev
  7
ISOCP
 11
32.0
 21
284.0
 31
0.0
100
AcDbText
 73
     2
  0
TEXT
  5
CF
100
AcDbEntity
  8
RIQUADRO025
100
AcDbText
 10
44.0
 20
282.75
 30
0.0
 40
2.5
  1
Nota di revisione
  7
ISOCP
 11
44.0
 21
284.0
 31
0.0
100
AcDbText
 73
     2
  0
TEXT
  5
D0
100
AcDbEntity
  8
RIQUADRO025
100
AcDbText
 10
153.0
 20
282.75
 30
0.0
 40
2.5
  1
Data
  7
ISOCP
 11
153.0
 21
284.0
 31
0.0
100
AcDbText
 73
     2
  0
TEXT
  5
D1
100
AcDbEntity
  8
RIQUADRO025
100
AcDbText
 10
171.360998
 20
282.75
 30
0.0
 40
2.5
  1
Firma
  7
ISOCP
 11
171.360998
 21
284.0
 31
0.0
100
AcDbText
 73
     2
  0
TEXT
  5
D2
100
AcDbEntity
  8
RIQUADRO025
100
AcDbText
 10
187.082994
 20
282.75
 30
0.0
 40
2.5
  1
Controllo
 41
0.9
  7
ISOCP
 11
187.082994
 21
284.0
 31
0.0
100
AcDbText
 73
     2
  0
ATTDEF
  5
D3
100
AcDbEntity
  8
RIQUADRO050
100
AcDbText
 10
46.0
 20
17.5
 30
0.0
 40
5.0
  1
XXX
  7
ISOCP
 72
     4
 11
67.5
 21
20.0
 31
0.0
100
AcDbAttributeDefinition
  3
Proprietario
  2
PROPRIETARIO
 70
     8
  0
ATTDEF
  5
D4
100
AcDbEntity
  8
RIQUADRO050
100
AcDbText
 10
142.0
 20
22.5
 30
0.0
 40
5.0
  1
XXX
  7
ISOCP
 72
     4
 11
152.5
 21
25.0
 31
0.0
100
AcDbAttributeDefinition
  3
Titolo / Nome
  2
TITOLO
 70
     8
  0
ATTDEF
  5
D5
100
AcDbEntity
  8
RIQUADRO050
100
AcDbText
 10
118.65
 20
13.864568
 30
0.0
 40
3.0
  1
X
  7
ISOCP
 72
     4
 11
135.0
 21
15.0
 31
0.0
100
AcDbAttributeDefinition
  3
Numero disegno
  2
NUMERO_DISEGNO
 70
     8
  0
ATTDEF
  5
D6
100
AcDbEntity
  8
RIQUADRO025
100
AcDbText
 10
32.0
 20
31.75
 30
0.0
 40
2.5
  1
XXX
 41
0.8
  7
ISOCP
 11
32.0
 21
33.0
 31
0.0
100
AcDbAttributeDefinition
  3
Progettato da
  2
PROGETTATO_DA
 70
     8
 74
     2
  0
ATTDEF
  5
D7
100
AcDbEntity
  8
RIQUADRO025
100
AcDbText
 10
64.0
 20
31.75
 30
0.0
 40
2.5
  1
XXX
 41
0.75
  7
ISOCP
 11
64.0
 21
33.0
 31
0.0
100
AcDbAttributeDefinition
  3
Controllato da
  2
CONTROLLATO_DA
 70
     8
 74
     2
  0
ATTDEF
  5
D8
100
AcDbEntity
  8
RIQUADRO025
100
AcDbText
 10
89.0
 20
31.75
 30
0.0
 40
2.5
  1
XXX - 00/00/00
 41
0.85
  7
ISOCP
 11
89.0
 21
33.0
 31
0.0
100
AcDbAttributeDefinition
  3
Approvato da - Data
  2
APPROVATO_DA_DATA
 70
     8
 74
     2
  0
ATTDEF
  5
D9
100
AcDbEntity
  8
RIQUADRO025
100
AcDbText
 10
127.0
 20
31.75
 30
0.0
 40
2.5
  1
XXX
  7
ISOCP
 11
127.0
 21
33.0
 31
0.0
100
AcDbAttributeDefinition
  3
Nome file
  2
NOMEFILE
 70
     8
 74
     2
  0
ATTDEF
  5
DA
100
AcDbEntity
  8
RIQUADRO025
100
AcDbText
 10
152.0
 20
31.75
 30
0.0
 40
2.5
  1
00/00/00
 41
0.9
  7
ISOCP
 11
152.0
 21
33.0
 31
0.0
100
AcDbAttributeDefinition
  3
Data
  2
DATA
 70
     8
 74
     2
  0
ATTDEF
  5
DB
100
AcDbEntity
  8
RIQUADRO025
100
AcDbText
 10
182.0
 20
31.75
 30
0.0
 40
2.5
  1
1:1
 41
0.9
  7
ISOCP
 11
182.0
 21
33.0
 31
0.0
100
AcDbAttributeDefinition
  3
Scala
  2
SCALA
 70
     8
 74
     2
  0
ATTDEF
  5
DC
100
AcDbEntity
  8
RIQUADRO025
100
AcDbText
 10
167.0
 20
11.75
 30
0.0
 40
2.5
  1
0
 41
0.85
  7
ISOCP
 11
167.0
 21
13.0
 31
0.0
100
AcDbAttributeDefinition
  3
Modifica
  2
MODIFICA
 70
     8
 74
     2
  0
ATTDEF
  5
DD
100
AcDbEntity
  8
RIQUADRO025
100
AcDbText
 10
182.0
 20
11.75
 30
0.0
 40
2.5
  1
1/1
 41
0.9
  7
ISOCP
 11
182.0
 21
13.0
 31
0.0
100
AcDbAttributeDefinition
  3
Foglio
  2
FOGLIO
 70
     8
 74
     2
  0
TEXT
  5
DE
100
AcDbEntity
  8
RIQUADRO050
100
AcDbText
 10
32.75
 20
5.5
 30
0.0
 40
4.0
  1
1
  7
ISOCP
 72
     4
 11
33.75
 21
7.5
 31
0.0
100
AcDbText
  0
TEXT
  5
DF
100
AcDbEntity
  8
RIQUADRO050
100
AcDbText
 10
174.65
 20
5.5
 30
0.0
 40
4.0
  1
4
  7
ISOCP
 72
     4
 11
176.25
 21
7.5
 31
0.0
100
AcDbText
  0
ENDBLK
  5
E1
100
AcDbEntity
  8
0
100
AcDbBlockEnd
  0
BLOCK
  5
70D
100
AcDbEntity
  8
0
100
AcDbBlockBegin
  2
*D1
 70
    65
 10
0.0
 20
0.0
 30
0.0
  3
*D1
  1

  0
LINE
  5
70E
100
AcDbEntity
  8
0
  6
BYBLOCK
 62
     0
100
AcDbLine
 10
90.021227
 20
159.451867
 30
0.0
 11
90.021227
 21
158.564518
 31
0.0
  0
LINE
  5
70F
100
AcDbEntity
  8
0
  6
BYBLOCK
 62
     0
100
AcDbLine
 10
120.021227
 20
159.451867
 30
0.0
 11
120.021227
 21
158.564518
 31
0.0
  0
LINE
  5
710
100
AcDbEntity
  8
0
  6
BYBLOCK
 62
     0
100
AcDbLine
 10
92.521227
 20
159.814518
 30
0.0
 11
117.521227
 21
159.814518
 31
0.0
  0
SOLID
  5
711
100
AcDbEntity
  8
0
  6
BYBLOCK
 62
     0
100
AcDbTrace
 10
92.521227
 20
160.231184
 30
0.0
 11
92.521227
 21
159.397851
 31
0.0
 12
90.021227
 22
159.814518
 32
0.0
 13
90.021227
 23
159.814518
 33
0.0
  0
SOLID
  5
712
100
AcDbEntity
  8
0
  6
BYBLOCK
 62
     0
100
AcDbTrace
 10
117.521227
 20
160.231184
 30
0.0
 11
117.521227
 21
159.397851
 31
0.0
 12
120.021227
 22
159.814518
 32
0.0
 13
120.021227
 23
159.814518
 33
0.0
  0
MTEXT
  5
713
100
AcDbEntity
  8
0
  6
BYBLOCK
 62
     0
100
AcDbMText
 10
105.6149
 20
161.944518
 30
0.0
 40
3.0
 41
0.0
 71
     5
 72
     1
  1
\A1;30±0.05
  0
POINT
  5
714
100
AcDbEntity
  8
DEFPOINTS
  6
BYBLOCK
 62
     0
100
AcDbPoint
 10
90.021227
 20
160.081867
 30
0.0
  0
POINT
  5
715
100
AcDbEntity
  8
DEFPOINTS
  6
BYBLOCK
 62
     0
100
AcDbPoint
 10
120.021227
 20
160.081867
 30
0.0
  0
POINT
  5
716
100
AcDbEntity
  8
DEFPOINTS
  6
BYBLOCK
 62
     0
100
AcDbPoint
 10
120.021227
 20
159.814518
 30
0.0
  0
ENDBLK
  5
717
100
AcDbEntity
  8
0
100
AcDbBlockEnd
  0
BLOCK
  5
6DF
100
AcDbEntity
  8
0
100
AcDbBlockBegin
  2
*D2
 70
    65
 10
0.0
 20
0.0
 30
0.0
  3
*D2
  1

  0
LINE
  5
6E0
100
AcDbEntity
  8
0
  6
BYBLOCK
 62
     0
100
AcDbLine
 10
120.651227
 20
201.11837
 30
0.0
 11
187.952011
 21
201.11837
 31
0.0
  0
LINE
  5
6E1
100
AcDbEntity
  8
0
  6
BYBLOCK
 62
     0
100
AcDbLine
 10
134.651227
 20
121.11837
 30
0.0
 11
187.952011
 21
121.11837
 31
0.0
  0
LINE
  5
6E2
100
AcDbEntity
  8
0
  6
BYBLOCK
 62
     0
100
AcDbLine
 10
186.702011
 20
198.61837
 30
0.0
 11
186.702011
 21
123.61837
 31
0.0
  0
SOLID
  5
6E3
100
AcDbEntity
  8
0
  6
BYBLOCK
 62
     0
100
AcDbTrace
 10
186.285344
 20
198.61837
 30
0.0
 11
187.118678
 21
198.61837
 31
0.0
 12
186.702011
 22
201.11837
 32
0.0
 13
186.702011
 23
201.11837
 33
0.0
  0
SOLID
  5
6E4
100
AcDbEntity
  8
0
  6
BYBLOCK
 62
     0
100
AcDbTrace
 10
186.285344
 20
123.61837
 30
0.0
 11
187.118678
 21
123.61837
 31
0.0
 12
186.702011
 22
121.11837
 32
0.0
 13
186.702011
 23
121.11837
 33
0.0
  0
MTEXT
  5
6E5
100
AcDbEntity
  8
0
  6
BYBLOCK
 62
     0
100
AcDbMText
 10
184.571716
 20
161.11837
 30
0.0
 40
3.0
 41
0.0
 71
     5
 72
     1
  1
\A1;80±0.02
 11
0.0
 21
1.0
 31
0.0
  0
POINT
  5
6E6
100
AcDbEntity
  8
DEFPOINTS
  6
BYBLOCK
 62
     0
100
AcDbPoint
 10
120.021227
 20
201.11837
 30
0.0
  0
POINT
  5
6E7
100
AcDbEntity
  8
DEFPOINTS
  6
BYBLOCK
 62
     0
100
AcDbPoint
 10
134.021227
 20
121.11837
 30
0.0
  0
POINT
  5
6E8
100
AcDbEntity
  8
DEFPOINTS
  6
BYBLOCK
 62
     0
100
AcDbPoint
 10
186.702011
 20
121.11837
 30
0.0
  0
ENDBLK
  5
6E9
100
AcDbEntity
  8
0
100
AcDbBlockEnd
  0
BLOCK
  5
54B
100
AcDbEntity
  8
0
100
AcDbBlockBegin
  2
*D3
 70
    65
 10
0.0
 20
0.0
 30
0.0
  3
*D3
  1

  0
LINE
  5
54C
100
AcDbEntity
  8
0
  6
BYBLOCK
 62
     0
100
AcDbLine
 10
134.651227
 20
121.11837
 30
0.0
 11
171.47843
 21
121.11837
 31
0.0
  0
LINE
  5
54D
100
AcDbEntity
  8
0
  6
BYBLOCK
 62
     0
100
AcDbLine
 10
134.651227
 20
139.11837
 30
0.0
 11
171.47843
 21
139.11837
 31
0.0
  0
LINE
  5
54E
100
AcDbEntity
  8
0
  6
BYBLOCK
 62
     0
100
AcDbLine
 10
170.22843
 20
123.61837
 30
0.0
 11
170.22843
 21
136.61837
 31
0.0
  0
SOLID
  5
54F
100
AcDbEntity
  8
0
  6
BYBLOCK
 62
     0
100
AcDbTrace
 10
169.811763
 20
123.61837
 30
0.0
 11
170.645096
 21
123.61837
 31
0.0
 12
170.22843
 22
121.11837
 32
0.0
 13
170.22843
 23
121.11837
 33
0.0
  0
SOLID
  5
550
100
AcDbEntity
  8
0
  6
BYBLOCK
 62
     0
100
AcDbTrace
 10
169.811763
 20
136.61837
 30
0.0
 11
170.645096
 21
136.61837
 31
0.0
 12
170.22843
 22
139.11837
 32
0.0
 13
170.22843
 23
139.11837
 33
0.0
  0
MTEXT
  5
551
100
AcDbEntity
  8
0
  6
BYBLOCK
 62
     0
100
AcDbMText
 10
168.09843
 20
130.11837
 30
0.0
 40
3.0
 41
0.0
 71
     5
 72
     1
  1
\A1;18
 11
0.0
 21
1.0
 31
0.0
  0
POINT
  5
552
100
AcDbEntity
  8
DEFPOINTS
  6
BYBLOCK
 62
     0
100
AcDbPoint
 10
134.021227
 20
121.11837
 30
0.0
  0
POINT
  5
553
100
AcDbEntity
  8
DEFPOINTS
  6
BYBLOCK
 62
     0
100
AcDbPoint
 10
134.021227
 20
139.11837
 30
0.0
  0
POINT
  5
554
100
AcDbEntity
  8
DEFPOINTS
  6
BYBLOCK
 62
     0
100
AcDbPoint
 10
170.22843
 20
139.11837
 30
0.0
  0
ENDBLK
  5
555
100
AcDbEntity
  8
0
100
AcDbBlockEnd
  0
BLOCK
  5
6D4
100
AcDbEntity
  8
0
100
AcDbBlockBegin
  2
*D4
 70
    65
 10
0.0
 20
0.0
 30
0.0
  3
*D4
  1

  0
LINE
  5
6D5
100
AcDbEntity
  8
0
  6
BYBLOCK
 62
     0
100
AcDbLine
 10
134.651227
 20
139.11837
 30
0.0
 11
171.588684
 21
139.11837
 31
0.0
  0
LINE
  5
6D6
100
AcDbEntity
  8
0
  6
BYBLOCK
 62
     0
100
AcDbLine
 10
120.651227
 20
201.11837
 30
0.0
 11
171.588684
 21
201.11837
 31
0.0
  0
LINE
  5
6D7
100
AcDbEntity
  8
0
  6
BYBLOCK
 62
     0
100
AcDbLine
 10
170.338684
 20
141.61837
 30
0.0
 11
170.338684
 21
198.61837
 31
0.0
  0
SOLID
  5
6D8
100
AcDbEntity
  8
0
  6
BYBLOCK
 62
     0
100
AcDbTrace
 10
169.922017
 20
141.61837
 30
0.0
 11
170.755351
 21
141.61837
 31
0.0
 12
170.338684
 22
139.11837
 32
0.0
 13
170.338684
 23
139.11837
 33
0.0
  0
SOLID
  5
6D9
100
AcDbEntity
  8
0
  6
BYBLOCK
 62
     0
100
AcDbTrace
 10
169.922017
 20
198.61837
 30
0.0
 11
170.755351
 21
198.61837
 31
0.0
 12
170.338684
 22
201.11837
 32
0.0
 13
170.338684
 23
201.11837
 33
0.0
  0
MTEXT
  5
6DA
100
AcDbEntity
  8
0
  6
BYBLOCK
 62
     0
100
AcDbMText
 10
168.208389
 20
170.11837
 30
0.0
 40
3.0
 41
0.0
 71
     5
 72
     1
  1
\A1;62
 11
0.0
 21
1.0
 31
0.0
  0
POINT
  5
6DB
100
AcDbEntity
  8
DEFPOINTS
  6
BYBLOCK
 62
     0
100
AcDbPoint
 10
134.021227
 20
139.11837
 30
0.0
  0
POINT
  5
6DC
100
AcDbEntity
  8
DEFPOINTS
  6
BYBLOCK
 62
     0
100
AcDbPoint
 10
120.021227
 20
201.11837
 30
0.0
  0
POINT
  5
6DD
100
AcDbEntity
  8
DEFPOINTS
  6
BYBLOCK
 62
     0
100
AcDbPoint
 10
170.338684
 20
201.11837
 30
0.0
  0
ENDBLK
  5
6DE
100
AcDbEntity
  8
0
100
AcDbBlockEnd
  0
BLOCK
  5
66F
100
AcDbEntity
  8
0
100
AcDbBlockBegin
  2
*D5
 70
    65
 10
0.0
 20
0.0
 30
0.0
  3
*D5
  1

  0
LINE
  5
670
100
AcDbEntity
  8
0
  6
BYBLOCK
 62
     0
100
AcDbLine
 10
135.021227
 20
121.48837
 30
0.0
 11
135.021227
 21
108.816316
 31
0.0
  0
LINE
  5
671
100
AcDbEntity
  8
0
  6
BYBLOCK
 62
     0
100
AcDbLine
 10
105.021227
 20
120.48837
 30
0.0
 11
105.021227
 21
108.816316
 31
0.0
  0
LINE
  5
672
100
AcDbEntity
  8
0
  6
BYBLOCK
 62
     0
100
AcDbLine
 10
132.521227
 20
110.066316
 30
0.0
 11
107.521227
 21
110.066316
 31
0.0
  0
SOLID
  5
673
100
AcDbEntity
  8
0
  6
BYBLOCK
 62
     0
100
AcDbTrace
 10
132.521227
 20
110.482983
 30
0.0
 11
132.521227
 21
109.649649
 31
0.0
 12
135.021227
 22
110.066316
 32
0.0
 13
135.021227
 23
110.066316
 33
0.0
  0
SOLID
  5
674
100
AcDbEntity
  8
0
  6
BYBLOCK
 62
     0
100
AcDbTrace
 10
107.521227
 20
110.482983
 30
0.0
 11
107.521227
 21
109.649649
 31
0.0
 12
105.021227
 22
110.066316
 32
0.0
 13
105.021227
 23
110.066316
 33
0.0
  0
MTEXT
  5
675
100
AcDbEntity
  8
0
  6
BYBLOCK
 62
     0
100
AcDbMText
 10
120.021227
 20
114.047497
 30
0.0
 40
3.0
 41
0.0
 71
     5
 72
     1
  1
\A1;30\S+0.01^  0.00;
  0
POINT
  5
676
100
AcDbEntity
  8
DEFPOINTS
  6
BYBLOCK
 62
     0
100
AcDbPoint
 10
135.021227
 20
122.11837
 30
0.0
  0
POINT
  5
677
100
AcDbEntity
  8
DEFPOINTS
  6
BYBLOCK
 62
     0
100
AcDbPoint
 10
105.021227
 20
121.11837
 30
0.0
  0
POINT
  5
678
100
AcDbEntity
  8
DEFPOINTS
  6
BYBLOCK
 62
     0
100
AcDbPoint
 10
105.021227
 20
110.066316
 30
0.0
  0
ENDBLK
  5
679
100
AcDbEntity
  8
0
100
AcDbBlockEnd
  0
BLOCK
  5
67A
100
AcDbEntity
  8
0
100
AcDbBlockBegin
  2
*D6
 70
    65
 10
0.0
 20
0.0
 30
0.0
  3
*D6
  1

  0
LINE
  5
67B
100
AcDbEntity
  8
0
  6
BYBLOCK
 62
     0
100
AcDbLine
 10
75.021227
 20
121.48837
 30
0.0
 11
75.021227
 21
98.068547
 31
0.0
  0
LINE
  5
67C
100
AcDbEntity
  8
0
  6
BYBLOCK
 62
     0
100
AcDbLine
 10
135.021227
 20
121.48837
 30
0.0
 11
135.021227
 21
98.068547
 31
0.0
  0
LINE
  5
67D
100
AcDbEntity
  8
0
  6
BYBLOCK
 62
     0
100
AcDbLine
 10
77.521227
 20
99.318547
 30
0.0
 11
132.521227
 21
99.318547
 31
0.0
  0
SOLID
  5
67E
100
AcDbEntity
  8
0
  6
BYBLOCK
 62
     0
100
AcDbTrace
 10
77.521227
 20
99.735214
 30
0.0
 11
77.521227
 21
98.901881
 31
0.0
 12
75.021227
 22
99.318547
 32
0.0
 13
75.021227
 23
99.318547
 33
0.0
  0
SOLID
  5
67F
100
AcDbEntity
  8
0
  6
BYBLOCK
 62
     0
100
AcDbTrace
 10
132.521227
 20
99.735214
 30
0.0
 11
132.521227
 21
98.901881
 31
0.0
 12
135.021227
 22
99.318547
 32
0.0
 13
135.021227
 23
99.318547
 33
0.0
  0
MTEXT
  5
680
100
AcDbEntity
  8
0
  6
BYBLOCK
 62
     0
100
AcDbMText
 10
105.021227
 20
103.374433
 30
0.0
 40
3.0
 41
0.0
 71
     5
 72
     1
  1
\A1;60\S+0.02^  0.00;
  0
POINT
  5
681
100
AcDbEntity
  8
DEFPOINTS
  6
BYBLOCK
 62
     0
100
AcDbPoint
 10
75.021227
 20
122.11837
 30
0.0
  0
POINT
  5
682
100
AcDbEntity
  8
DEFPOINTS
  6
BYBLOCK
 62
     0
100
AcDbPoint
 10
135.021227
 20
122.11837
 30
0.0
  0
POINT
  5
683
100
AcDbEntity
  8
DEFPOINTS
  6
BYBLOCK
 62
     0
100
AcDbPoint
 10
135.021227
 20
99.318547
 30
0.0
  0
ENDBLK
  5
684
100
AcDbEntity
  8
0
100
AcDbBlockEnd
  0
BLOCK
  5
63E
100
AcDbEntity
  8
0
100
AcDbBlockBegin
  2
*D7
 70
    65
 10
0.0
 20
0.0
 30
0.0
  3
*D7
  1

  0
LINE
  5
63F
100
AcDbEntity
  8
0
  6
BYBLOCK
 62
     0
100
AcDbLine
 10
84.261884
 20
64.825938
 30
0.0
 11
98.214262
 21
64.825938
 31
0.0
  0
ARC
  5
640
100
AcDbEntity
  8
0
  6
BYBLOCK
 62
     0
100
AcDbCircle
 10
83.631884
 20
64.825938
 30
0.0
 40
13.332377
100
AcDbArc
 50
281.19126
 51
348.80874
  0
SOLID
  5
641
100
AcDbEntity
  8
0
  6
BYBLOCK
 62
     0
100
AcDbTrace
 10
86.261748
 20
51.315811
 30
0.0
 11
86.177242
 21
52.178348
 31
0.0
 12
83.631884
 22
51.493561
 32
0.0
 13
83.631884
 23
51.493561
 33
0.0
  0
SOLID
  5
642
100
AcDbEntity
  8
0
  6
BYBLOCK
 62
     0
100
AcDbTrace
 10
96.279475
 20
62.280581
 30
0.0
 11
97.142012
 21
62.196075
 31
0.0
 12
96.964262
 22
64.825938
 32
0.0
 13
96.964262
 23
64.825938
 33
0.0
  0
MTEXT
  5
643
100
AcDbEntity
  8
0
  6
BYBLOCK
 62
     0
100
AcDbMText
 10
91.553161
 20
56.904662
 30
0.0
 40
3.0
 41
0.0
 71
     5
 72
     1
  1
\A1;90°
 11
0.707107
 21
0.707107
 31
0.0
  0
POINT
  5
644
100
AcDbEntity
  8
DEFPOINTS
  6
BYBLOCK
 62
     0
100
AcDbPoint
 10
90.298073
 20
53.279761
 30
0.0
  0
POINT
  5
645
100
AcDbEntity
  8
DEFPOINTS
  6
BYBLOCK
 62
     0
100
AcDbPoint
 10
83.631884
 20
64.825938
 30
0.0
  0
POINT
  5
646
100
AcDbEntity
  8
DEFPOINTS
  6
BYBLOCK
 62
     0
100
AcDbPoint
 10
83.631884
 20
48.825938
 30
0.0
  0
POINT
  5
647
100
AcDbEntity
  8
DEFPOINTS
  6
BYBLOCK
 62
     0
100
AcDbPoint
 10
83.631884
 20
64.825938
 30
0.0
  0
POINT
  5
648
100
AcDbEntity
  8
DEFPOINTS
  6
BYBLOCK
 62
     0
100
AcDbPoint
 10
62.62614
 20
64.825938
 30
0.0
  0
ENDBLK
  5
649
100
AcDbEntity
  8
0
100
AcDbBlockEnd
  0
BLOCK
  5
64E
100
AcDbEntity
  8
0
100
AcDbBlockBegin
  2
*D8
 70
    65
 10
0.0
 20
0.0
 30
0.0
  3
*D8
  1

  0
LINE
  5
64F
100
AcDbEntity
  8
0
  6
BYBLOCK
 62
     0
100
AcDbLine
 10
43.014203
 20
64.82656
 30
0.0
 11
28.302942
 21
64.841174
 31
0.0
  0
LINE
  5
650
100
AcDbEntity
  8
0
  6
BYBLOCK
 62
     0
100
AcDbLine
 10
43.631259
 20
51.795939
 30
0.0
 11
43.628963
 21
49.484674
 31
0.0
  0
ARC
  5
651
100
AcDbEntity
  8
0
  6
BYBLOCK
 62
     0
100
AcDbCircle
 10
43.644202
 20
64.825934
 30
0.0
 40
14.091268
100
AcDbArc
 50
190.529864
 51
259.356303
  0
SOLID
  5
652
100
AcDbEntity
  8
0
  6
BYBLOCK
 62
     0
100
AcDbTrace
 10
29.35871
 20
62.211234
 30
0.0
 11
30.221759
 21
62.290332
 31
0.0
 12
29.552942
 22
64.839932
 32
0.0
 13
29.552942
 23
64.839932
 33
0.0
  0
SOLID
  5
653
100
AcDbEntity
  8
0
  6
BYBLOCK
 62
     0
100
AcDbTrace
 10
41.081938
 20
51.408555
 30
0.0
 11
41.001126
 21
50.545664
 31
0.0
 12
43.630204
 22
50.734673
 32
0.0
 13
43.630204
 23
50.734673
 33
0.0
  0
MTEXT
  5
654
100
AcDbEntity
  8
0
  6
BYBLOCK
 62
     0
100
AcDbMText
 10
35.177911
 20
56.376446
 30
0.0
 40
3.0
 41
0.0
 71
     5
 72
     1
  1
\A1;90°
 11
0.706404
 21
-0.707809
 31
0.0
  0
POINT
  5
655
100
AcDbEntity
  8
DEFPOINTS
  6
BYBLOCK
 62
     0
100
AcDbPoint
 10
31.433814
 20
57.792426
 30
0.0
  0
POINT
  5
656
100
AcDbEntity
  8
DEFPOINTS
  6
BYBLOCK
 62
     0
100
AcDbPoint
 10
43.651002
 20
64.825927
 30
0.0
  0
POINT
  5
657
100
AcDbEntity
  8
DEFPOINTS
  6
BYBLOCK
 62
     0
100
AcDbPoint
 10
43.631884
 20
52.425938
 30
0.0
  0
POINT
  5
658
100
AcDbEntity
  8
DEFPOINTS
  6
BYBLOCK
 62
     0
100
AcDbPoint
 10
43.644202
 20
64.825934
 30
0.0
  0
POINT
  5
659
100
AcDbEntity
  8
DEFPOINTS
  6
BYBLOCK
 62
     0
100
AcDbPoint
 10
60.509163
 20
64.80918
 30
0.0
  0
ENDBLK
  5
65A
100
AcDbEntity
  8
0
100
AcDbBlockEnd
  0
BLOCK
  5
65D
100
AcDbEntity
  8
0
100
AcDbBlockBegin
  2
*D9
 70
    65
 10
0.0
 20
0.0
 30
0.0
  3
*D9
  1

  0
LINE
  5
65E
100
AcDbEntity
  8
0
  6
BYBLOCK
 62
     0
100
AcDbLine
 10
43.651002
 20
65.455927
 30
0.0
 11
43.651002
 21
76.165747
 31
0.0
  0
LINE
  5
65F
100
AcDbEntity
  8
0
  6
BYBLOCK
 62
     0
100
AcDbLine
 10
83.631884
 20
65.455938
 30
0.0
 11
83.631884
 21
76.165747
 31
0.0
  0
LINE
  5
660
100
AcDbEntity
  8
0
  6
BYBLOCK
 62
     0
100
AcDbLine
 10
46.251002
 20
74.915747
 30
0.0
 11
81.031884
 21
74.915747
 31
0.0
  0
SOLID
  5
661
100
AcDbEntity
  8
0
  6
BYBLOCK
 62
     0
100
AcDbTrace
 10
46.251002
 20
75.34908
 30
0.0
 11
46.251002
 21
74.482414
 31
0.0
 12
43.651002
 22
74.915747
 32
0.0
 13
43.651002
 23
74.915747
 33
0.0
  0
SOLID
  5
662
100
AcDbEntity
  8
0
  6
BYBLOCK
 62
     0
100
AcDbTrace
 10
81.031884
 20
75.34908
 30
0.0
 11
81.031884
 21
74.482414
 31
0.0
 12
83.631884
 22
74.915747
 32
0.0
 13
83.631884
 23
74.915747
 33
0.0
  0
MTEXT
  5
663
100
AcDbEntity
  8
0
  6
BYBLOCK
 62
     0
100
AcDbMText
 10
63.641443
 20
77.045747
 30
0.0
 40
3.0
 41
0.0
 71
     5
 72
     1
  1
\A1;{835}
  0
POINT
  5
664
100
AcDbEntity
  8
DEFPOINTS
  6
BYBLOCK
 62
     0
100
AcDbPoint
 10
43.651002
 20
64.825927
 30
0.0
  0
POINT
  5
665
100
AcDbEntity
  8
DEFPOINTS
  6
BYBLOCK
 62
     0
100
AcDbPoint
 10
83.631884
 20
64.825938
 30
0.0
  0
POINT
  5
666
100
AcDbEntity
  8
DEFPOINTS
  6
BYBLOCK
 62
     0
100
AcDbPoint
 10
83.631884
 20
74.915747
 30
0.0
  0
ENDBLK
  5
667
100
AcDbEntity
  8
0
100
AcDbBlockEnd
  0
BLOCK
  5
731
100
AcDbEntity
  8
0
100
AcDbBlockBegin
  2
*D10
 70
    65
 10
0.0
 20
0.0
 30
0.0
  3
*D10
  1

  0
LINE
  5
732
100
AcDbEntity
  8
0
  6
BYBLOCK
 62
     0
100
AcDbLine
 10
160.42929
 20
253.128392
 30
0.0
 11
160.42929
 21
260.832215
 31
0.0
  0
LINE
  5
733
100
AcDbEntity
  8
0
  6
BYBLOCK
 62
     0
100
AcDbLine
 10
180.42929
 20
253.128392
 30
0.0
 11
180.42929
 21
260.832215
 31
0.0
  0
LINE
  5
734
100
AcDbEntity
  8
0
  6
BYBLOCK
 62
     0
100
AcDbLine
 10
163.02929
 20
259.582215
 30
0.0
 11
177.82929
 21
259.582215
 31
0.0
  0
SOLID
  5
735
100
AcDbEntity
  8
0
  6
BYBLOCK
 62
     0
100
AcDbTrace
 10
163.02929
 20
260.015548
 30
0.0
 11
163.02929
 21
259.148882
 31
0.0
 12
160.42929
 22
259.582215
 32
0.0
 13
160.42929
 23
259.582215
 33
0.0
  0
SOLID
  5
736
100
AcDbEntity
  8
0
  6
BYBLOCK
 62
     0
100
AcDbTrace
 10
177.82929
 20
260.015548
 30
0.0
 11
177.82929
 21
259.148882
 31
0.0
 12
180.42929
 22
259.582215
 32
0.0
 13
180.42929
 23
259.582215
 33
0.0
  0
MTEXT
  5
737
100
AcDbEntity
  8
0
  6
BYBLOCK
 62
     0
100
AcDbMText
 10
170.42929
 20
261.712215
 30
0.0
 40
3.0
 41
0.0
 71
     5
 72
     1
  1
\A1;20
  0
POINT
  5
738
100
AcDbEntity
  8
DEFPOINTS
  6
BYBLOCK
 62
     0
100
AcDbPoint
 10
160.42929
 20
252.498392
 30
0.0
  0
POINT
  5
739
100
AcDbEntity
  8
DEFPOINTS
  6
BYBLOCK
 62
     0
100
AcDbPoint
 10
180.42929
 20
252.498392
 30
0.0
  0
POINT
  5
73A
100
AcDbEntity
  8
DEFPOINTS
  6
BYBLOCK
 62
     0
100
AcDbPoint
 10
180.42929
 20
259.582215
 30
0.0
  0
ENDBLK
  5
73B
100
AcDbEntity
  8
0
100
AcDbBlockEnd
  0
BLOCK
  5
740
100
AcDbEntity
  8
0
100
AcDbBlockBegin
  2
*D11
 70
    65
 10
0.0
 20
0.0
 30
0.0
  3
*D11
  1

  0
LINE
  5
741
100
AcDbEntity
  8
0
  6
BYBLOCK
 62
     0
100
AcDbLine
 10
170.11429
 20
234.632288
 30
0.0
 11
156.957684
 21
211.844378
 31
0.0
  0
LINE
  5
742
100
AcDbEntity
  8
0
  6
BYBLOCK
 62
     0
100
AcDbLine
 10
170.74429
 20
234.632288
 30
0.0
 11
183.900896
 21
211.844378
 31
0.0
  0
ARC
  5
743
100
AcDbEntity
  8
0
  6
BYBLOCK
 62
     0
100
AcDbCircle
 10
170.42929
 20
235.177884
 30
0.0
 40
25.693213
100
AcDbArc
 50
245.800468
 51
294.199532
  0
SOLID
  5
744
100
AcDbEntity
  8
0
  6
BYBLOCK
 62
     0
100
AcDbTrace
 10
159.69984
 20
211.356743
 30
0.0
 11
160.094643
 21
212.128262
 31
0.0
 12
157.582684
 22
212.92691
 32
0.0
 13
157.582684
 23
212.92691
 33
0.0
  0
SOLID
  5
745
100
AcDbEntity
  8
0
  6
BYBLOCK
 62
     0
100
AcDbTrace
 10
180.763937
 20
212.128262
 30
0.0
 11
181.158739
 21
211.356743
 31
0.0
 12
183.275896
 22
212.92691
 32
0.0
 13
183.275896
 23
212.92691
 33
0.0
  0
MTEXT
  5
746
100
AcDbEntity
  8
0
  6
BYBLOCK
 62
     0
100
AcDbMText
 10
170.42929
 20
211.614672
 30
0.0
 40
3.0
 41
0.0
 71
     5
 72
     1
  1
\A1;60°
 11
1.0
 21
0.0
 31
0.0
  0
POINT
  5
747
100
AcDbEntity
  8
DEFPOINTS
  6
BYBLOCK
 62
     0
100
AcDbPoint
 10
165.96771
 20
209.875009
 30
0.0
  0
POINT
  5
748
100
AcDbEntity
  8
DEFPOINTS
  6
BYBLOCK
 62
     0
100
AcDbPoint
 10
161.295315
 20
250.998392
 30
0.0
  0
POINT
  5
749
100
AcDbEntity
  8
DEFPOINTS
  6
BYBLOCK
 62
     0
100
AcDbPoint
 10
179.563264
 20
250.998392
 30
0.0
  0
POINT
  5
74A
100
AcDbEntity
  8
DEFPOINTS
  6
BYBLOCK
 62
     0
100
AcDbPoint
 10
172.161341
 20
238.177884
 30
0.0
  0
POINT
  5
74B
100
AcDbEntity
  8
DEFPOINTS
  6
BYBLOCK
 62
     0
100
AcDbPoint
 10
168.697239
 20
238.177884
 30
0.0
  0
ENDBLK
  5
74C
100
AcDbEntity
  8
0
100
AcDbBlockEnd
  0
BLOCK
  5
74F
100
AcDbEntity
  8
0
100
AcDbBlockBegin
  2
*D12
 70
    65
 10
0.0
 20
0.0
 30
0.0
  3
*D12
  1

  0
LINE
  5
750
100
AcDbEntity
  8
0
  6
BYBLOCK
 62
     0
100
AcDbLine
 10
174.413007
 20
236.877884
 30
0.0
 11
181.095569
 21
233.019705
 31
0.0
  0
LINE
  5
751
100
AcDbEntity
  8
0
  6
BYBLOCK
 62
     0
100
AcDbLine
 10
170.42929
 20
239.177884
 30
0.0
 11
172.161341
 21
238.177884
 31
0.0
  0
SOLID
  5
752
100
AcDbEntity
  8
0
  6
BYBLOCK
 62
     0
100
AcDbTrace
 10
174.629673
 20
237.253162
 30
0.0
 11
174.19634
 21
236.502607
 31
0.0
 12
172.161341
 22
238.177884
 32
0.0
 13
172.161341
 23
238.177884
 33
0.0
  0
MTEXT
  5
753
100
AcDbEntity
  8
0
  6
BYBLOCK
 62
     0
100
AcDbMText
 10
179.945269
 20
236.143685
 30
0.0
 40
3.0
 41
0.0
 71
     5
 72
     1
  1
\A1;R2
 11
0.866025
 21
-0.5
 31
0.0
  0
LINE
  5
754
100
AcDbEntity
  8
0
  6
BYBLOCK
 62
     0
100
AcDbLine
 10
168.32929
 20
239.177884
 30
0.0
 11
172.52929
 21
239.177884
 31
0.0
  0
LINE
  5
755
100
AcDbEntity
  8
0
  6
BYBLOCK
 62
     0
100
AcDbLine
 10
170.42929
 20
237.077884
 30
0.0
 11
170.42929
 21
241.277884
 31
0.0
  0
POINT
  5
756
100
AcDbEntity
  8
DEFPOINTS
  6
BYBLOCK
 62
     0
100
AcDbPoint
 10
172.161341
 20
238.177884
 30
0.0
  0
POINT
  5
757
100
AcDbEntity
  8
DEFPOINTS
  6
BYBLOCK
 62
     0
100
AcDbPoint
 10
170.42929
 20
239.177884
 30
0.0
  0
ENDBLK
  5
758
100
AcDbEntity
  8
0
100
AcDbBlockEnd
  0
BLOCK
  5
772
100
AcDbEntity
  8
0
100
AcDbBlockBegin
  2
*D13
 70
    65
 10
0.0
 20
0.0
 30
0.0
  3
*D13
  1

  0
LINE
  5
773
100
AcDbEntity
  8
0
  6
BYBLOCK
 62
     0
100
AcDbLine
 10
187.028837
 20
246.729372
 30
0.0
 11
193.621048
 21
242.979196
 31
0.0
  0
LINE
  5
774
100
AcDbEntity
  8
0
  6
BYBLOCK
 62
     0
100
AcDbLine
 10
182.161341
 20
249.498392
 30
0.0
 11
184.768928
 21
248.014988
 31
0.0
  0
SOLID
  5
775
100
AcDbEntity
  8
0
  6
BYBLOCK
 62
     0
100
AcDbTrace
 10
187.243107
 20
247.106023
 30
0.0
 11
186.814568
 21
246.35272
 31
0.0
 12
184.768928
 22
248.014988
 32
0.0
 13
184.768928
 23
248.014988
 33
0.0
  0
MTEXT
  5
776
100
AcDbEntity
  8
0
  6
BYBLOCK
 62
     0
100
AcDbMText
 10
192.508114
 20
246.062862
 30
0.0
 40
3.0
 41
0.0
 71
     5
 72
     1
  1
\A1;R3
 11
0.869196
 21
-0.494468
 31
0.0
  0
LINE
  5
777
100
AcDbEntity
  8
0
  6
BYBLOCK
 62
     0
100
AcDbLine
 10
180.061341
 20
249.498392
 30
0.0
 11
184.261341
 21
249.498392
 31
0.0
  0
LINE
  5
778
100
AcDbEntity
  8
0
  6
BYBLOCK
 62
     0
100
AcDbLine
 10
182.161341
 20
247.398392
 30
0.0
 11
182.161341
 21
251.598392
 31
0.0
  0
POINT
  5
779
100
AcDbEntity
  8
DEFPOINTS
  6
BYBLOCK
 62
     0
100
AcDbPoint
 10
184.768928
 20
248.014988
 30
0.0
  0
POINT
  5
77A
100
AcDbEntity
  8
DEFPOINTS
  6
BYBLOCK
 62
     0
100
AcDbPoint
 10
182.161341
 20
249.498392
 30
0.0
  0
ENDBLK
  5
77B
100
AcDbEntity
  8
0
100
AcDbBlockEnd
  0
BLOCK
  5
864
100
AcDbEntity
  8
0
100
AcDbBlockBegin
  2
*D14
 70
    65
 10
0.0
 20
0.0
 30
0.0
  3
*D14
  1

  0
LINE
  5
865
100
AcDbEntity
  8
0
  6
BYBLOCK
 62
     0
100
AcDbLine
 10
153.795153
 20
246.791079
 30
0.0
 11
138.820753
 21
238.52105
 31
0.0
  0
LINE
  5
866
100
AcDbEntity
  8
0
  6
BYBLOCK
 62
     0
100
AcDbLine
 10
158.697239
 20
249.498392
 30
0.0
 11
156.071121
 21
248.048046
 31
0.0
  0
SOLID
  5
867
100
AcDbEntity
  8
0
  6
BYBLOCK
 62
     0
100
AcDbTrace
 10
153.585658
 20
247.170407
 30
0.0
 11
154.004647
 21
246.411751
 31
0.0
 12
156.071121
 22
248.048046
 32
0.0
 13
156.071121
 23
248.048046
 33
0.0
  0
MTEXT
  5
868
100
AcDbEntity
  8
0
  6
BYBLOCK
 62
     0
100
AcDbMText
 10
139.972551
 20
241.590412
 30
0.0
 40
3.0
 41
0.0
 71
     5
 72
     1
  1
\A1;R3
 11
0.875373
 21
0.483449
 31
0.0
  0
LINE
  5
869
100
AcDbEntity
  8
0
  6
BYBLOCK
 62
     0
100
AcDbLine
 10
156.597239
 20
249.498392
 30
0.0
 11
160.797239
 21
249.498392
 31
0.0
  0
LINE
  5
86A
100
AcDbEntity
  8
0
  6
BYBLOCK
 62
     0
100
AcDbLine
 10
158.697239
 20
247.398392
 30
0.0
 11
158.697239
 21
251.598392
 31
0.0
  0
POINT
  5
86B
100
AcDbEntity
  8
DEFPOINTS
  6
BYBLOCK
 62
     0
100
AcDbPoint
 10
156.071121
 20
248.048046
 30
0.0
  0
POINT
  5
86C
100
AcDbEntity
  8
DEFPOINTS
  6
BYBLOCK
 62
     0
100
AcDbPoint
 10
158.697239
 20
249.498392
 30
0.0
  0
ENDBLK
  5
86D
100
AcDbEntity
  8
0
100
AcDbBlockEnd
  0
BLOCK
  5
7A5
100
AcDbEntity
  8
0
100
AcDbBlockBegin
  2
*X15
 70
    65
 10
0.0
 20
0.0
 30
0.0
  3
*X15
  1

  0
LINE
  5
7A7
100
AcDbEntity
  8
0
  6
CONTINUOUS
 62
     0
100
AcDbLine
 10
98.151708
 20
195.362981
 30
0.0
 11
98.273681
 21
195.484954
 31
0.0
  0
LINE
  5
7A8
100
AcDbEntity
  8
0
  6
CONTINUOUS
 62
     0
100
AcDbLine
 10
97.927558
 20
195.363337
 30
0.0
 11
98.191506
 21
195.627285
 31
0.0
  0
LINE
  5
7A9
100
AcDbEntity
  8
0
  6
CONTINUOUS
 62
     0
100
AcDbLine
 10
97.703407
 20
195.363693
 30
0.0
 11
98.109331
 21
195.769617
 31
0.0
  0
LINE
  5
7AA
100
AcDbEntity
  8
0
  6
CONTINUOUS
 62
     0
100
AcDbLine
 10
97.479257
 20
195.364049
 30
0.0
 11
98.027156
 21
195.911948
 31
0.0
  0
LINE
  5
7AB
100
AcDbEntity
  8
0
  6
CONTINUOUS
 62
     0
100
AcDbLine
 10
97.255107
 20
195.364405
 30
0.0
 11
97.944981
 21
196.054279
 31
0.0
  0
LINE
  5
7AC
100
AcDbEntity
  8
0
  6
CONTINUOUS
 62
     0
100
AcDbLine
 10
97.030956
 20
195.364761
 30
0.0
 11
97.862806
 21
196.196611
 31
0.0
  0
LINE
  5
7AD
100
AcDbEntity
  8
0
  6
CONTINUOUS
 62
     0
100
AcDbLine
 10
96.806806
 20
195.365117
 30
0.0
 11
97.780631
 21
196.338942
 31
0.0
  0
LINE
  5
7AE
100
AcDbEntity
  8
0
  6
CONTINUOUS
 62
     0
100
AcDbLine
 10
96.582655
 20
195.365473
 30
0.0
 11
97.698456
 21
196.481273
 31
0.0
  0
LINE
  5
7AF
100
AcDbEntity
  8
0
  6
CONTINUOUS
 62
     0
100
AcDbLine
 10
96.358505
 20
195.365829
 30
0.0
 11
97.616281
 21
196.623605
 31
0.0
  0
LINE
  5
7B0
100
AcDbEntity
  8
0
  6
CONTINUOUS
 62
     0
100
AcDbLine
 10
96.241421
 20
195.473251
 30
0.0
 11
97.534106
 21
196.765936
 31
0.0
  0
LINE
  5
7B1
100
AcDbEntity
  8
0
  6
CONTINUOUS
 62
     0
100
AcDbLine
 10
96.159246
 20
195.615582
 30
0.0
 11
97.451931
 21
196.908267
 31
0.0
  0
LINE
  5
7B2
100
AcDbEntity
  8
0
  6
CONTINUOUS
 62
     0
100
AcDbLine
 10
96.077071
 20
195.757913
 30
0.0
 11
97.369756
 21
197.050599
 31
0.0
  0
LINE
  5
7B3
100
AcDbEntity
  8
0
  6
CONTINUOUS
 62
     0
100
AcDbLine
 10
95.994896
 20
195.900245
 30
0.0
 11
97.287581
 21
197.19293
 31
0.0
  0
LINE
  5
7B4
100
AcDbEntity
  8
0
  6
CONTINUOUS
 62
     0
100
AcDbLine
 10
95.91272
 20
196.042576
 30
0.0
 11
97.205406
 21
197.335261
 31
0.0
  0
LINE
  5
7B5
100
AcDbEntity
  8
0
  6
CONTINUOUS
 62
     0
100
AcDbLine
 10
95.830545
 20
196.184908
 30
0.0
 11
97.123231
 21
197.477593
 31
0.0
  0
LINE
  5
7B6
100
AcDbEntity
  8
0
  6
CONTINUOUS
 62
     0
100
AcDbLine
 10
95.74837
 20
196.327239
 30
0.0
 11
97.041056
 21
197.619924
 31
0.0
  0
LINE
  5
7B7
100
AcDbEntity
  8
0
  6
CONTINUOUS
 62
     0
100
AcDbLine
 10
95.666195
 20
196.46957
 30
0.0
 11
96.958881
 21
197.762255
 31
0.0
  0
LINE
  5
7B8
100
AcDbEntity
  8
0
  6
CONTINUOUS
 62
     0
100
AcDbLine
 10
95.58402
 20
196.611902
 30
0.0
 11
96.876705
 21
197.904587
 31
0.0
  0
LINE
  5
7B9
100
AcDbEntity
  8
0
  6
CONTINUOUS
 62
     0
100
AcDbLine
 10
95.501845
 20
196.754233
 30
0.0
 11
96.79453
 21
198.046918
 31
0.0
  0
LINE
  5
7BA
100
AcDbEntity
  8
0
  6
CONTINUOUS
 62
     0
100
AcDbLine
 10
95.41967
 20
196.896564
 30
0.0
 11
96.712355
 21
198.18925
 31
0.0
  0
LINE
  5
7BB
100
AcDbEntity
  8
0
  6
CONTINUOUS
 62
     0
100
AcDbLine
 10
95.337495
 20
197.038896
 30
0.0
 11
96.63018
 21
198.331581
 31
0.0
  0
LINE
  5
7BC
100
AcDbEntity
  8
0
  6
CONTINUOUS
 62
     0
100
AcDbLine
 10
95.25532
 20
197.181227
 30
0.0
 11
96.548005
 21
198.473912
 31
0.0
  0
LINE
  5
7BD
100
AcDbEntity
  8
0
  6
CONTINUOUS
 62
     0
100
AcDbLine
 10
95.173145
 20
197.323558
 30
0.0
 11
96.46583
 21
198.616244
 31
0.0
  0
LINE
  5
7BE
100
AcDbEntity
  8
0
  6
CONTINUOUS
 62
     0
100
AcDbLine
 10
95.09097
 20
197.46589
 30
0.0
 11
96.383655
 21
198.758575
 31
0.0
  0
LINE
  5
7BF
100
AcDbEntity
  8
0
  6
CONTINUOUS
 62
     0
100
AcDbLine
 10
95.006136
 20
197.605562
 30
0.0
 11
96.30148
 21
198.900906
 31
0.0
  0
LINE
  5
7C0
100
AcDbEntity
  8
0
  6
CONTINUOUS
 62
     0
100
AcDbLine
 10
94.914967
 20
197.7389
 30
0.0
 11
96.219305
 21
199.043238
 31
0.0
  0
LINE
  5
7C1
100
AcDbEntity
  8
0
  6
CONTINUOUS
 62
     0
100
AcDbLine
 10
94.817623
 20
197.866062
 30
0.0
 11
96.13713
 21
199.185569
 31
0.0
  0
LINE
  5
7C2
100
AcDbEntity
  8
0
  6
CONTINUOUS
 62
     0
100
AcDbLine
 10
94.714235
 20
197.987181
 30
0.0
 11
96.054955
 21
199.3279
 31
0.0
  0
LINE
  5
7C3
100
AcDbEntity
  8
0
  6
CONTINUOUS
 62
     0
100
AcDbLine
 10
94.604878
 20
198.10233
 30
0.0
 11
95.97278
 21
199.470232
 31
0.0
  0
LINE
  5
7C4
100
AcDbEntity
  8
0
  6
CONTINUOUS
 62
     0
100
AcDbLine
 10
94.489577
 20
198.211535
 30
0.0
 11
95.890605
 21
199.612563
 31
0.0
  0
LINE
  5
7C5
100
AcDbEntity
  8
0
  6
CONTINUOUS
 62
     0
100
AcDbLine
 10
94.368305
 20
198.31477
 30
0.0
 11
95.805438
 21
199.751902
 31
0.0
  0
LINE
  5
7C6
100
AcDbEntity
  8
0
  6
CONTINUOUS
 62
     0
100
AcDbLine
 10
94.240987
 20
198.411958
 30
0.0
 11
95.713922
 21
199.884893
 31
0.0
  0
LINE
  5
7C7
100
AcDbEntity
  8
0
  6
CONTINUOUS
 62
     0
100
AcDbLine
 10
94.10749
 20
198.502967
 30
0.0
 11
95.616241
 21
200.011719
 31
0.0
  0
LINE
  5
7C8
100
AcDbEntity
  8
0
  6
CONTINUOUS
 62
     0
100
AcDbLine
 10
93.967621
 20
198.587605
 30
0.0
 11
95.512521
 21
200.132505
 31
0.0
  0
LINE
  5
7C9
100
AcDbEntity
  8
0
  6
CONTINUOUS
 62
     0
100
AcDbLine
 10
93.821118
 20
198.665608
 30
0.0
 11
95.402835
 21
200.247325
 31
0.0
  0
LINE
  5
7CA
100
AcDbEntity
  8
0
  6
CONTINUOUS
 62
     0
100
AcDbLine
 10
93.667635
 20
198.736632
 30
0.0
 11
95.287204
 21
200.3562
 31
0.0
  0
LINE
  5
7CB
100
AcDbEntity
  8
0
  6
CONTINUOUS
 62
     0
100
AcDbLine
 10
93.506723
 20
198.800226
 30
0.0
 11
95.1656
 21
200.459103
 31
0.0
  0
LINE
  5
7CC
100
AcDbEntity
  8
0
  6
CONTINUOUS
 62
     0
100
AcDbLine
 10
93.3378
 20
198.85581
 30
0.0
 11
95.037944
 21
200.555953
 31
0.0
  0
LINE
  5
7CD
100
AcDbEntity
  8
0
  6
CONTINUOUS
 62
     0
100
AcDbLine
 10
93.16011
 20
198.902625
 30
0.0
 11
94.904099
 21
200.646615
 31
0.0
  0
LINE
  5
7CE
100
AcDbEntity
  8
0
  6
CONTINUOUS
 62
     0
100
AcDbLine
 10
92.972653
 20
198.939675
 30
0.0
 11
94.763871
 21
200.730893
 31
0.0
  0
LINE
  5
7CF
100
AcDbEntity
  8
0
  6
CONTINUOUS
 62
     0
100
AcDbLine
 10
92.774086
 20
198.965615
 30
0.0
 11
94.616991
 21
200.80852
 31
0.0
  0
LINE
  5
7D0
100
AcDbEntity
  8
0
  6
CONTINUOUS
 62
     0
100
AcDbLine
 10
92.562539
 20
198.978574
 30
0.0
 11
94.46311
 21
200.879145
 31
0.0
  0
LINE
  5
7D1
100
AcDbEntity
  8
0
  6
CONTINUOUS
 62
     0
100
AcDbLine
 10
92.329897
 20
198.970438
 30
0.0
 11
94.301771
 21
200.942313
 31
0.0
  0
LINE
  5
7D2
100
AcDbEntity
  8
0
  6
CONTINUOUS
 62
     0
100
AcDbLine
 10
92.106197
 20
198.971245
 30
0.0
 11
94.132384
 21
200.997432
 31
0.0
  0
LINE
  5
7D3
100
AcDbEntity
  8
0
  6
CONTINUOUS
 62
     0
100
AcDbLine
 10
91.882497
 20
198.972051
 30
0.0
 11
93.954182
 21
201.043736
 31
0.0
  0
LINE
  5
7D4
100
AcDbEntity
  8
0
  6
CONTINUOUS
 62
     0
100
AcDbLine
 10
91.658797
 20
198.972857
 30
0.0
 11
93.766149
 21
201.08021
 31
0.0
  0
LINE
  5
7D5
100
AcDbEntity
  8
0
  6
CONTINUOUS
 62
     0
100
AcDbLine
 10
91.435097
 20
198.973664
 30
0.0
 11
93.566919
 21
201.105486
 31
0.0
  0
LINE
  5
7D6
100
AcDbEntity
  8
0
  6
CONTINUOUS
 62
     0
100
AcDbLine
 10
91.211397
 20
198.97447
 30
0.0
 11
93.354584
 21
201.117657
 31
0.0
  0
LINE
  5
7D7
100
AcDbEntity
  8
0
  6
CONTINUOUS
 62
     0
100
AcDbLine
 10
90.987697
 20
198.975276
 30
0.0
 11
93.13079
 21
201.11837
 31
0.0
  0
LINE
  5
7D8
100
AcDbEntity
  8
0
  6
CONTINUOUS
 62
     0
100
AcDbLine
 10
90.763997
 20
198.976083
 30
0.0
 11
92.906284
 21
201.11837
 31
0.0
  0
LINE
  5
7D9
100
AcDbEntity
  8
0
  6
CONTINUOUS
 62
     0
100
AcDbLine
 10
90.540296
 20
198.976889
 30
0.0
 11
92.681777
 21
201.11837
 31
0.0
  0
LINE
  5
7DA
100
AcDbEntity
  8
0
  6
CONTINUOUS
 62
     0
100
AcDbLine
 10
90.316596
 20
198.977695
 30
0.0
 11
92.457271
 21
201.11837
 31
0.0
  0
LINE
  5
7DB
100
AcDbEntity
  8
0
  6
CONTINUOUS
 62
     0
100
AcDbLine
 10
90.092896
 20
198.978502
 30
0.0
 11
92.232765
 21
201.11837
 31
0.0
  0
LINE
  5
7DC
100
AcDbEntity
  8
0
  6
CONTINUOUS
 62
     0
100
AcDbLine
 10
90.021227
 20
199.131339
 30
0.0
 11
92.008258
 21
201.11837
 31
0.0
  0
LINE
  5
7DD
100
AcDbEntity
  8
0
  6
CONTINUOUS
 62
     0
100
AcDbLine
 10
90.021227
 20
199.355845
 30
0.0
 11
91.783752
 21
201.11837
 31
0.0
  0
LINE
  5
7DE
100
AcDbEntity
  8
0
  6
CONTINUOUS
 62
     0
100
AcDbLine
 10
90.021227
 20
199.580352
 30
0.0
 11
91.559245
 21
201.11837
 31
0.0
  0
LINE
  5
7DF
100
AcDbEntity
  8
0
  6
CONTINUOUS
 62
     0
100
AcDbLine
 10
90.021227
 20
199.804858
 30
0.0
 11
91.334739
 21
201.11837
 31
0.0
  0
LINE
  5
7E0
100
AcDbEntity
  8
0
  6
CONTINUOUS
 62
     0
100
AcDbLine
 10
90.021227
 20
200.029364
 30
0.0
 11
91.110233
 21
201.11837
 31
0.0
  0
LINE
  5
7E1
100
AcDbEntity
  8
0
  6
CONTINUOUS
 62
     0
100
AcDbLine
 10
90.021227
 20
200.253871
 30
0.0
 11
90.885726
 21
201.11837
 31
0.0
  0
LINE
  5
7E2
100
AcDbEntity
  8
0
  6
CONTINUOUS
 62
     0
100
AcDbLine
 10
90.021227
 20
200.478377
 30
0.0
 11
90.66122
 21
201.11837
 31
0.0
  0
ENDBLK
  5
7E3
100
AcDbEntity
  8
0
100
AcDbBlockEnd
  0
BLOCK
  5
80D
100
AcDbEntity
  8
0
100
AcDbBlockBegin
  2
*X16
 70
    65
 10
0.0
 20
0.0
 30
0.0
  3
*X16
  1

  0
LINE
  5
80F
100
AcDbEntity
  8
0
  6
CONTINUOUS
 62
     0
100
AcDbLine
 10
113.169784
 20
195.339128
 30
0.0
 11
114.268705
 21
196.438048
 31
0.0
  0
LINE
  5
810
100
AcDbEntity
  8
0
  6
CONTINUOUS
 62
     0
100
AcDbLine
 10
116.713874
 20
198.883217
 30
0.0
 11
118.949027
 21
201.11837
 31
0.0
  0
LINE
  5
811
100
AcDbEntity
  8
0
  6
CONTINUOUS
 62
     0
100
AcDbLine
 10
112.945634
 20
195.339484
 30
0.0
 11
114.575386
 21
196.969236
 31
0.0
  0
LINE
  5
812
100
AcDbEntity
  8
0
  6
CONTINUOUS
 62
     0
100
AcDbLine
 10
116.382358
 20
198.776208
 30
0.0
 11
118.72452
 21
201.11837
 31
0.0
  0
LINE
  5
813
100
AcDbEntity
  8
0
  6
CONTINUOUS
 62
     0
100
AcDbLine
 10
112.721484
 20
195.33984
 30
0.0
 11
114.88234
 21
197.500696
 31
0.0
  0
LINE
  5
814
100
AcDbEntity
  8
0
  6
CONTINUOUS
 62
     0
100
AcDbLine
 10
115.946988
 20
198.565344
 30
0.0
 11
118.500014
 21
201.11837
 31
0.0
  0
LINE
  5
815
100
AcDbEntity
  8
0
  6
CONTINUOUS
 62
     0
100
AcDbLine
 10
112.497333
 20
195.340196
 30
0.0
 11
118.275507
 21
201.11837
 31
0.0
  0
LINE
  5
816
100
AcDbEntity
  8
0
  6
CONTINUOUS
 62
     0
100
AcDbLine
 10
112.273183
 20
195.340552
 30
0.0
 11
118.051001
 21
201.11837
 31
0.0
  0
LINE
  5
817
100
AcDbEntity
  8
0
  6
CONTINUOUS
 62
     0
100
AcDbLine
 10
112.049032
 20
195.340908
 30
0.0
 11
117.826495
 21
201.11837
 31
0.0
  0
LINE
  5
818
100
AcDbEntity
  8
0
  6
CONTINUOUS
 62
     0
100
AcDbLine
 10
111.824882
 20
195.341264
 30
0.0
 11
117.601988
 21
201.11837
 31
0.0
  0
LINE
  5
819
100
AcDbEntity
  8
0
  6
CONTINUOUS
 62
     0
100
AcDbLine
 10
111.802523
 20
195.543411
 30
0.0
 11
117.377482
 21
201.11837
 31
0.0
  0
LINE
  5
81A
100
AcDbEntity
  8
0
  6
CONTINUOUS
 62
     0
100
AcDbLine
 10
112.109204
 20
196.074599
 30
0.0
 11
117.152975
 21
201.11837
 31
0.0
  0
LINE
  5
81B
100
AcDbEntity
  8
0
  6
CONTINUOUS
 62
     0
100
AcDbLine
 10
112.415886
 20
196.605787
 30
0.0
 11
116.928469
 21
201.11837
 31
0.0
  0
LINE
  5
81C
100
AcDbEntity
  8
0
  6
CONTINUOUS
 62
     0
100
AcDbLine
 10
112.722567
 20
197.136975
 30
0.0
 11
116.70355
 21
201.117958
 31
0.0
  0
LINE
  5
81D
100
AcDbEntity
  8
0
  6
CONTINUOUS
 62
     0
100
AcDbLine
 10
113.029249
 20
197.668163
 30
0.0
 11
116.465635
 21
201.104548
 31
0.0
  0
LINE
  5
81E
100
AcDbEntity
  8
0
  6
CONTINUOUS
 62
     0
100
AcDbLine
 10
113.33593
 20
198.199351
 30
0.0
 11
116.204291
 21
201.067711
 31
0.0
  0
LINE
  5
81F
100
AcDbEntity
  8
0
  6
CONTINUOUS
 62
     0
100
AcDbLine
 10
113.642612
 20
198.730538
 30
0.0
 11
115.909272
 21
200.997199
 31
0.0
  0
LINE
  5
820
100
AcDbEntity
  8
0
  6
CONTINUOUS
 62
     0
100
AcDbLine
 10
113.949293
 20
199.261726
 30
0.0
 11
115.557184
 21
200.869617
 31
0.0
  0
LINE
  5
821
100
AcDbEntity
  8
0
  6
CONTINUOUS
 62
     0
100
AcDbLine
 10
114.281449
 20
199.818389
 30
0.0
 11
115.053259
 21
200.590199
 31
0.0
  0
LINE
  5
822
100
AcDbEntity
  8
0
  6
CONTINUOUS
 62
     0
100
AcDbLine
 10
113.393935
 20
195.338772
 30
0.0
 11
113.962023
 21
195.906861
 31
0.0
  0
LINE
  5
823
100
AcDbEntity
  8
0
  6
CONTINUOUS
 62
     0
100
AcDbLine
 10
116.997616
 20
198.942453
 30
0.0
 11
119.173533
 21
201.11837
 31
0.0
  0
LINE
  5
824
100
AcDbEntity
  8
0
  6
CONTINUOUS
 62
     0
100
AcDbLine
 10
113.618085
 20
195.338416
 30
0.0
 11
113.655342
 21
195.375673
 31
0.0
  0
LINE
  5
825
100
AcDbEntity
  8
0
  6
CONTINUOUS
 62
     0
100
AcDbLine
 10
117.251409
 20
198.97174
 30
0.0
 11
119.398039
 21
201.11837
 31
0.0
  0
LINE
  5
826
100
AcDbEntity
  8
0
  6
CONTINUOUS
 62
     0
100
AcDbLine
 10
117.474022
 20
198.969847
 30
0.0
 11
119.571886
 21
201.067711
 31
0.0
  0
LINE
  5
827
100
AcDbEntity
  8
0
  6
CONTINUOUS
 62
     0
100
AcDbLine
 10
117.699326
 20
198.970644
 30
0.0
 11
119.68414
 21
200.955457
 31
0.0
  0
LINE
  5
828
100
AcDbEntity
  8
0
  6
CONTINUOUS
 62
     0
100
AcDbLine
 10
117.92463
 20
198.971442
 30
0.0
 11
119.796393
 21
200.843204
 31
0.0
  0
LINE
  5
829
100
AcDbEntity
  8
0
  6
CONTINUOUS
 62
     0
100
AcDbLine
 10
118.149934
 20
198.972239
 30
0.0
 11
119.908646
 21
200.730951
 31
0.0
  0
LINE
  5
82A
100
AcDbEntity
  8
0
  6
CONTINUOUS
 62
     0
100
AcDbLine
 10
118.375238
 20
198.973036
 30
0.0
 11
120.020899
 21
200.618698
 31
0.0
  0
LINE
  5
82B
100
AcDbEntity
  8
0
  6
CONTINUOUS
 62
     0
100
AcDbLine
 10
118.600542
 20
198.973834
 30
0.0
 11
120.021227
 21
200.394519
 31
0.0
  0
LINE
  5
82C
100
AcDbEntity
  8
0
  6
CONTINUOUS
 62
     0
100
AcDbLine
 10
118.825845
 20
198.974631
 30
0.0
 11
120.021227
 21
200.170013
 31
0.0
  0
LINE
  5
82D
100
AcDbEntity
  8
0
  6
CONTINUOUS
 62
     0
100
AcDbLine
 10
119.051149
 20
198.975429
 30
0.0
 11
120.021227
 21
199.945506
 31
0.0
  0
LINE
  5
82E
100
AcDbEntity
  8
0
  6
CONTINUOUS
 62
     0
100
AcDbLine
 10
119.276453
 20
198.976226
 30
0.0
 11
120.021227
 21
199.721
 31
0.0
  0
LINE
  5
82F
100
AcDbEntity
  8
0
  6
CONTINUOUS
 62
     0
100
AcDbLine
 10
119.501757
 20
198.977024
 30
0.0
 11
120.021227
 21
199.496494
 31
0.0
  0
LINE
  5
830
100
AcDbEntity
  8
0
  6
CONTINUOUS
 62
     0
100
AcDbLine
 10
119.727061
 20
198.977821
 30
0.0
 11
120.021227
 21
199.271987
 31
0.0
  0
LINE
  5
831
100
AcDbEntity
  8
0
  6
CONTINUOUS
 62
     0
100
AcDbLine
 10
119.952365
 20
198.978618
 30
0.0
 11
120.021227
 21
199.047481
 31
0.0
  0
ENDBLK
  5
832
100
AcDbEntity
  8
0
100
AcDbBlockEnd
  0
BLOCK
  5
859
100
AcDbEntity
  8
0
100
AcDbBlockBegin
  2
*D17
 70
    65
 10
0.0
 20
0.0
 30
0.0
  3
*D17
  1

  0
LINE
  5
85A
100
AcDbEntity
  8
0
  6
BYBLOCK
 62
     0
100
AcDbLine
 10
104.391227
 20
207.797862
 30
0.0
 11
42.821549
 21
207.797862
 31
0.0
  0
LINE
  5
85B
100
AcDbEntity
  8
0
  6
BYBLOCK
 62
     0
100
AcDbLine
 10
75.391227
 20
121.11837
 30
0.0
 11
42.821549
 21
121.11837
 31
0.0
  0
LINE
  5
85C
100
AcDbEntity
  8
0
  6
BYBLOCK
 62
     0
100
AcDbLine
 10
44.071549
 20
205.197862
 30
0.0
 11
44.071549
 21
123.71837
 31
0.0
  0
SOLID
  5
85D
100
AcDbEntity
  8
0
  6
BYBLOCK
 62
     0
100
AcDbTrace
 10
43.638216
 20
205.197862
 30
0.0
 11
44.504882
 21
205.197862
 31
0.0
 12
44.071549
 22
207.797862
 32
0.0
 13
44.071549
 23
207.797862
 33
0.0
  0
SOLID
  5
85E
100
AcDbEntity
  8
0
  6
BYBLOCK
 62
     0
100
AcDbTrace
 10
43.638216
 20
123.71837
 30
0.0
 11
44.504882
 21
123.71837
 31
0.0
 12
44.071549
 22
121.11837
 32
0.0
 13
44.071549
 23
121.11837
 33
0.0
  0
MTEXT
  5
85F
100
AcDbEntity
  8
0
  6
BYBLOCK
 62
     0
100
AcDbMText
 10
40.015663
 20
164.458116
 30
0.0
 40
3.0
 41
0.0
 71
     5
 72
     1
  1
\A1;86.68\S+0.02^  0.00;
 11
0.0
 21
1.0
 31
0.0
  0
POINT
  5
860
100
AcDbEntity
  8
DEFPOINTS
  6
BYBLOCK
 62
     0
100
AcDbPoint
 10
105.021227
 20
207.797862
 30
0.0
  0
POINT
  5
861
100
AcDbEntity
  8
DEFPOINTS
  6
BYBLOCK
 62
     0
100
AcDbPoint
 10
76.021227
 20
121.11837
 30
0.0
  0
POINT
  5
862
100
AcDbEntity
  8
DEFPOINTS
  6
BYBLOCK
 62
     0
100
AcDbPoint
 10
44.071549
 20
121.11837
 30
0.0
  0
ENDBLK
  5
863
100
AcDbEntity
  8
0
100
AcDbBlockEnd
  0
BLOCK
  5
84F
100
AcDbEntity
  8
0
100
AcDbBlockBegin
  2
*D18
 70
    65
 10
0.0
 20
0.0
 30
0.0
  3
*D18
  1

  0
LINE
  5
850
100
AcDbEntity
  8
0
  6
BYBLOCK
 62
     0
100
AcDbLine
 10
110.149699
 20
201.488651
 30
0.0
 11
99.892754
 21
198.107072
 31
0.0
  0
LINE
  5
851
100
AcDbEntity
  8
0
  6
BYBLOCK
 62
     0
100
AcDbLine
 10
97.42349
 20
197.292989
 30
0.0
 11
74.046069
 21
189.585763
 31
0.0
  0
SOLID
  5
852
100
AcDbEntity
  8
0
  6
BYBLOCK
 62
     0
100
AcDbTrace
 10
110.014019
 20
201.900196
 30
0.0
 11
110.28538
 21
201.077107
 31
0.0
 12
112.618964
 22
202.302735
 32
0.0
 13
112.618964
 23
202.302735
 33
0.0
  0
SOLID
  5
853
100
AcDbEntity
  8
0
  6
BYBLOCK
 62
     0
100
AcDbTrace
 10
99.757074
 20
198.518617
 30
0.0
 11
100.028435
 21
197.695528
 31
0.0
 12
97.42349
 22
197.292989
 32
0.0
 13
97.42349
 23
197.292989
 33
0.0
  0
MTEXT
  5
854
100
AcDbEntity
  8
0
  6
BYBLOCK
 62
     0
100
AcDbMText
 10
76.697623
 20
192.702718
 30
0.0
 40
3.0
 41
0.0
 71
     5
 72
     1
  1
\A1;\U+220516
 11
0.949717
 21
0.313109
 31
0.0
  0
POINT
  5
855
100
AcDbEntity
  8
DEFPOINTS
  6
BYBLOCK
 62
     0
100
AcDbPoint
 10
97.42349
 20
197.292989
 30
0.0
  0
POINT
  5
856
100
AcDbEntity
  8
DEFPOINTS
  6
BYBLOCK
 62
     0
100
AcDbPoint
 10
112.618964
 20
202.302735
 30
0.0
  0
ENDBLK
  5
857
100
AcDbEntity
  8
0
100
AcDbBlockEnd
  0
BLOCK
  5
890
100
AcDbEntity
  8
0
100
AcDbBlockBegin
  2
*D19
 70
    65
 10
0.0
 20
0.0
 30
0.0
  3
*D19
  1

  0
LINE
  5
891
100
AcDbEntity
  8
0
  6
BYBLOCK
 62
     0
100
AcDbLine
 10
93.021227
 20
201.24837
 30
0.0
 11
93.021227
 21
211.047195
 31
0.0
  0
LINE
  5
892
100
AcDbEntity
  8
0
  6
BYBLOCK
 62
     0
100
AcDbLine
 10
117.021227
 20
201.24837
 30
0.0
 11
117.021227
 21
211.047195
 31
0.0
  0
LINE
  5
893
100
AcDbEntity
  8
0
  6
BYBLOCK
 62
     0
100
AcDbLine
 10
95.621227
 20
209.797195
 30
0.0
 11
114.421227
 21
209.797195
 31
0.0
  0
SOLID
  5
894
100
AcDbEntity
  8
0
  6
BYBLOCK
 62
     0
100
AcDbTrace
 10
95.621227
 20
210.230529
 30
0.0
 11
95.621227
 21
209.363862
 31
0.0
 12
93.021227
 22
209.797195
 32
0.0
 13
93.021227
 23
209.797195
 33
0.0
  0
SOLID
  5
895
100
AcDbEntity
  8
0
  6
BYBLOCK
 62
     0
100
AcDbTrace
 10
114.421227
 20
210.230529
 30
0.0
 11
114.421227
 21
209.363862
 31
0.0
 12
117.021227
 22
209.797195
 32
0.0
 13
117.021227
 23
209.797195
 33
0.0
  0
MTEXT
  5
896
100
AcDbEntity
  8
0
  6
BYBLOCK
 62
     0
100
AcDbMText
 10
105.021227
 20
211.927195
 30
0.0
 40
3.0
 41
0.0
 71
     5
 72
     1
  1
\A1;24
  0
POINT
  5
897
100
AcDbEntity
  8
DEFPOINTS
  6
BYBLOCK
 62
     0
100
AcDbPoint
 10
93.021227
 20
200.61837
 30
0.0
  0
POINT
  5
898
100
AcDbEntity
  8
DEFPOINTS
  6
BYBLOCK
 62
     0
100
AcDbPoint
 10
117.021227
 20
200.61837
 30
0.0
  0
POINT
  5
899
100
AcDbEntity
  8
DEFPOINTS
  6
BYBLOCK
 62
     0
100
AcDbPoint
 10
117.021227
 20
209.797195
 30
0.0
  0
ENDBLK
  5
89A
100
AcDbEntity
  8
0
100
AcDbBlockEnd
  0
BLOCK
  5
8A2
100
AcDbEntity
  8
0
100
AcDbBlockBegin
  2
*D20
 70
    65
 10
0.0
 20
0.0
 30
0.0
  3
*D20
  1

  0
LINE
  5
8A3
100
AcDbEntity
  8
0
  6
BYBLOCK
 62
     0
100
AcDbLine
 10
93.021227
 20
241.24837
 30
0.0
 11
93.021227
 21
253.58024
 31
0.0
  0
LINE
  5
8A4
100
AcDbEntity
  8
0
  6
BYBLOCK
 62
     0
100
AcDbLine
 10
117.021227
 20
241.24837
 30
0.0
 11
117.021227
 21
253.58024
 31
0.0
  0
LINE
  5
8A5
100
AcDbEntity
  8
0
  6
BYBLOCK
 62
     0
100
AcDbLine
 10
95.621227
 20
252.33024
 30
0.0
 11
114.421227
 21
252.33024
 31
0.0
  0
SOLID
  5
8A6
100
AcDbEntity
  8
0
  6
BYBLOCK
 62
     0
100
AcDbTrace
 10
95.621227
 20
252.763574
 30
0.0
 11
95.621227
 21
251.896907
 31
0.0
 12
93.021227
 22
252.33024
 32
0.0
 13
93.021227
 23
252.33024
 33
0.0
  0
SOLID
  5
8A7
100
AcDbEntity
  8
0
  6
BYBLOCK
 62
     0
100
AcDbTrace
 10
114.421227
 20
252.763574
 30
0.0
 11
114.421227
 21
251.896907
 31
0.0
 12
117.021227
 22
252.33024
 32
0.0
 13
117.021227
 23
252.33024
 33
0.0
  0
MTEXT
  5
8A8
100
AcDbEntity
  8
0
  6
BYBLOCK
 62
     0
100
AcDbMText
 10
105.021227
 20
254.46024
 30
0.0
 40
3.0
 41
0.0
 71
     5
 72
     1
  1
\A1;24
  0
POINT
  5
8A9
100
AcDbEntity
  8
DEFPOINTS
  6
BYBLOCK
 62
     0
100
AcDbPoint
 10
93.021227
 20
240.61837
 30
0.0
  0
POINT
  5
8AA
100
AcDbEntity
  8
DEFPOINTS
  6
BYBLOCK
 62
     0
100
AcDbPoint
 10
117.021227
 20
240.61837
 30
0.0
  0
POINT
  5
8AB
100
AcDbEntity
  8
DEFPOINTS
  6
BYBLOCK
 62
     0
100
AcDbPoint
 10
117.021227
 20
252.33024
 30
0.0
  0
ENDBLK
  5
8AC
100
AcDbEntity
  8
0
100
AcDbBlockEnd
  0
BLOCK
  5
8B0
100
AcDbEntity
  8
0
100
AcDbBlockBegin
  2
*D21
 70
    65
 10
0.0
 20
0.0
 30
0.0
  3
*D21
  1

  0
LINE
  5
8B1
100
AcDbEntity
  8
0
  6
BYBLOCK
 62
     0
100
AcDbLine
 10
96.021227
 20
241.24837
 30
0.0
 11
96.021227
 21
252.066977
 31
0.0
  0
LINE
  5
8B2
100
AcDbEntity
  8
0
  6
BYBLOCK
 62
     0
100
AcDbLine
 10
114.021227
 20
241.24837
 30
0.0
 11
114.021227
 21
252.066977
 31
0.0
  0
LINE
  5
8B3
100
AcDbEntity
  8
0
  6
BYBLOCK
 62
     0
100
AcDbLine
 10
98.621227
 20
250.816977
 30
0.0
 11
111.421227
 21
250.816977
 31
0.0
  0
SOLID
  5
8B4
100
AcDbEntity
  8
0
  6
BYBLOCK
 62
     0
100
AcDbTrace
 10
98.621227
 20
251.25031
 30
0.0
 11
98.621227
 21
250.383644
 31
0.0
 12
96.021227
 22
250.816977
 32
0.0
 13
96.021227
 23
250.816977
 33
0.0
  0
SOLID
  5
8B5
100
AcDbEntity
  8
0
  6
BYBLOCK
 62
     0
100
AcDbTrace
 10
111.421227
 20
251.25031
 30
0.0
 11
111.421227
 21
250.383644
 31
0.0
 12
114.021227
 22
250.816977
 32
0.0
 13
114.021227
 23
250.816977
 33
0.0
  0
MTEXT
  5
8B6
100
AcDbEntity
  8
0
  6
BYBLOCK
 62
     0
100
AcDbMText
 10
105.021227
 20
252.946977
 30
0.0
 40
3.0
 41
0.0
 71
     5
 72
     1
  1
\A1;18
  0
POINT
  5
8B7
100
AcDbEntity
  8
DEFPOINTS
  6
BYBLOCK
 62
     0
100
AcDbPoint
 10
96.021227
 20
240.61837
 30
0.0
  0
POINT
  5
8B8
100
AcDbEntity
  8
DEFPOINTS
  6
BYBLOCK
 62
     0
100
AcDbPoint
 10
114.021227
 20
240.61837
 30
0.0
  0
POINT
  5
8B9
100
AcDbEntity
  8
DEFPOINTS
  6
BYBLOCK
 62
     0
100
AcDbPoint
 10
114.021227
 20
250.816977
 30
0.0
  0
ENDBLK
  5
8BA
100
AcDbEntity
  8
0
100
AcDbBlockEnd
  0
BLOCK
  5
8C1
100
AcDbEntity
  8
0
100
AcDbBlockBegin
  2
*D22
 70
    65
 10
0.0
 20
0.0
 30
0.0
  3
*D22
  1

  0
LINE
  5
8C2
100
AcDbEntity
  8
0
  6
BYBLOCK
 62
     0
100
AcDbLine
 10
96.021227
 20
201.24837
 30
0.0
 11
96.021227
 21
217.245765
 31
0.0
  0
LINE
  5
8C3
100
AcDbEntity
  8
0
  6
BYBLOCK
 62
     0
100
AcDbLine
 10
114.021227
 20
201.24837
 30
0.0
 11
114.021227
 21
217.245765
 31
0.0
  0
LINE
  5
8C4
100
AcDbEntity
  8
0
  6
BYBLOCK
 62
     0
100
AcDbLine
 10
98.621227
 20
215.995765
 30
0.0
 11
111.421227
 21
215.995765
 31
0.0
  0
SOLID
  5
8C5
100
AcDbEntity
  8
0
  6
BYBLOCK
 62
     0
100
AcDbTrace
 10
98.621227
 20
216.429099
 30
0.0
 11
98.621227
 21
215.562432
 31
0.0
 12
96.021227
 22
215.995765
 32
0.0
 13
96.021227
 23
215.995765
 33
0.0
  0
SOLID
  5
8C6
100
AcDbEntity
  8
0
  6
BYBLOCK
 62
     0
100
AcDbTrace
 10
111.421227
 20
216.429099
 30
0.0
 11
111.421227
 21
215.562432
 31
0.0
 12
114.021227
 22
215.995765
 32
0.0
 13
114.021227
 23
215.995765
 33
0.0
  0
MTEXT
  5
8C7
100
AcDbEntity
  8
0
  6
BYBLOCK
 62
     0
100
AcDbMText
 10
105.021227
 20
218.125765
 30
0.0
 40
3.0
 41
0.0
 71
     5
 72
     1
  1
\A1;18
  0
POINT
  5
8C8
100
AcDbEntity
  8
DEFPOINTS
  6
BYBLOCK
 62
     0
100
AcDbPoint
 10
96.021227
 20
200.61837
 30
0.0
  0
POINT
  5
8C9
100
AcDbEntity
  8
DEFPOINTS
  6
BYBLOCK
 62
     0
100
AcDbPoint
 10
114.021227
 20
200.61837
 30
0.0
  0
POINT
  5
8CA
100
AcDbEntity
  8
DEFPOINTS
  6
BYBLOCK
 62
     0
100
AcDbPoint
 10
114.021227
 20
215.995765
 30
0.0
  0
ENDBLK
  5
8CB
100
AcDbEntity
  8
0
100
AcDbBlockEnd
  0
ENDSEC
  0
SECTION
  2
ENTITIES
  0
LINE
  5
105
100
AcDbEntity
  8
OGGETTI
100
AcDbLine
 10
105.021227
 20
121.11837
 30
0.0
 11
134.021227
 21
121.11837
 31
0.0
  0
LINE
  5
106
100
AcDbEntity
  8
OGGETTI
100
AcDbLine
 10
135.021227
 20
122.11837
 30
0.0
 11
135.021227
 21
138.11837
 31
0.0
  0
LINE
  5
107
100
AcDbEntity
  8
OGGETTI
100
AcDbLine
 10
134.021227
 20
139.11837
 30
0.0
 11
112.021227
 21
139.11837
 31
0.0
  0
LINE
  5
10C
100
AcDbEntity
  8
OGGETTI
100
AcDbLine
 10
105.021227
 20
121.11837
 30
0.0
 11
76.021227
 21
121.11837
 31
0.0
  0
LINE
  5
10D
100
AcDbEntity
  8
OGGETTI
100
AcDbLine
 10
75.021227
 20
122.11837
 30
0.0
 11
75.021227
 21
138.11837
 31
0.0
  0
LINE
  5
10E
100
AcDbEntity
  8
OGGETTI
100
AcDbLine
 10
76.021227
 20
139.11837
 30
0.0
 11
98.021227
 21
139.11837
 31
0.0
  0
LINE
  5
115
100
AcDbEntity
  8
OGGETTI
100
AcDbLine
 10
75.021227
 20
138.11837
 30
0.0
 11
76.021227
 21
139.11837
 31
0.0
  0
LINE
  5
116
100
AcDbEntity
  8
OGGETTI
100
AcDbLine
 10
135.021227
 20
138.11837
 30
0.0
 11
134.021227
 21
139.11837
 31
0.0
  0
LINE
  5
117
100
AcDbEntity
  8
OGGETTI
100
AcDbLine
 10
135.021227
 20
122.11837
 30
0.0
 11
134.021227
 21
121.11837
 31
0.0
  0
LINE
  5
118
100
AcDbEntity
  8
OGGETTI
100
AcDbLine
 10
75.021227
 20
122.11837
 30
0.0
 11
76.021227
 21
121.11837
 31
0.0
  0
MTEXT
  5
121
100
AcDbEntity
  8
OGGETTI
100
AcDbMText
 10
32.315819
 20
28.71264
 30
0.0
 40
16.0
 41
71.279818
 71
     1
 72
     1
  1

  0
TEXT
  5
3A4
100
AcDbEntity
  8
QUOTE
100
AcDbText
 10
173.110681
 20
257.29952
 30
0.0
 40
3.0
  1

100
AcDbText
  0
MTEXT
  5
6A0
100
AcDbEntity
  8
TESTO
  6
CONTINUOUS
100
AcDbMText
 10
47.231009
 20
79.559233
 30
0.0
 40
2.6
 41
0.0
 71
     9
 72
     1
  1

  0
MTEXT
  5
6A2
100
AcDbEntity
  8
TESTO
  6
CONTINUOUS
100
AcDbMText
 10
47.177656
 20
79.559233
 30
0.0
 40
2.6
 41
0.0
 71
     9
 72
     1
  1

  0
MTEXT
  5
6A4
100
AcDbEntity
  8
TESTO
  6
CONTINUOUS
100
AcDbMText
 10
46.409256
 20
79.880663
 30
0.0
 40
2.6
 41
0.0
 71
     9
 72
     1
  1

  0
LINE
  5
6A7
100
AcDbEntity
  8
OGGETTI
100
AcDbLine
 10
112.021227
 20
139.11837
 30
0.0
 11
112.021227
 21
240.61837
 31
0.0
  0
LINE
  5
6A8
100
AcDbEntity
  8
OGGETTI
100
AcDbLine
 10
98.021227
 20
139.11837
 30
0.0
 11
98.021227
 21
240.61837
 31
0.0
  0
LINE
  5
6CE
100
AcDbEntity
  8
OGGETTI
  6
CONTINUOUS
100
AcDbLine
 10
108.790287
 20
240.71837
 30
0.0
 11
105.45424
 21
234.940167
 31
0.0
  0
LINE
  5
6D0
100
AcDbEntity
  8
OGGETTI
  6
CONTINUOUS
100
AcDbLine
 10
101.252167
 20
240.71837
 30
0.0
 11
104.588214
 21
234.940167
 31
0.0
1001
ACAD
1000
ASC_BOUNDS
1002
{
1070
    19
1002
}
  0
LINE
  5
6D3
100
AcDbEntity
  8
OGGETTI
  6
CONTINUOUS
100
AcDbLine
 10
100.559347
 20
241.11837
 30
0.0
 11
98.521227
 21
241.11837
 31
0.0
1001
ACAD
1000
ASC_BOUNDS
1002
{
1070
    19
1002
}
  0
LINE
  5
6EA
100
AcDbEntity
  8
OGGETTI
  6
CONTINUOUS
100
AcDbLine
 10
112.021227
 20
240.61837
 30
0.0
 11
111.521227
 21
241.11837
 31
0.0
1001
ACAD
1000
ASC_BOUNDS
1002
{
1070
    19
1002
}
  0
LINE
  5
6EB
100
AcDbEntity
  8
OGGETTI
  6
CONTINUOUS
100
AcDbLine
 10
98.521227
 20
241.11837
 30
0.0
 11
98.021227
 21
240.61837
 31
0.0
1001
ACAD
1000
ASC_BOUNDS
1002
{
1070
    19
1002
}
  0
LINE
  5
887
100
AcDbEntity
  8
OGGETTI
  6
CONTINUOUS
100
AcDbLine
 10
111.521227
 20
241.11837
 30
0.0
 11
109.483107
 21
241.11837
 31
0.0
  0
ARC
  5
8BD
100
AcDbEntity
  8
OGGETTI
  6
CONTINUOUS
100
AcDbCircle
 10
109.483107
 20
240.31837
 30
0.0
 40
0.8
100
AcDbArc
 50
90.0
 51
150.0
  0
ARC
  5
8BE
100
AcDbEntity
  8
OGGETTI
  6
CONTINUOUS
100
AcDbCircle
 10
100.559347
 20
240.31837
 30
0.0
 40
0.8
100
AcDbArc
 50
30.0
 51
90.0
1001
ACAD
1000
ASC_BOUNDS
1002
{
1070
    19
1002
}
  0
ARC
  5
8BF
100
AcDbEntity
  8
OGGETTI
  6
CONTINUOUS
100
AcDbCircle
 10
105.021227
 20
235.190167
 30
0.0
 40
0.5
100
AcDbArc
 50
210.0
 51
330.0
  0
VIEWPORT
  5
22
100
AcDbEntity
 67
     1
  8
0
100
AcDbViewport
 10
272.205225
 20
154.724298
 30
0.0
 40
544.41045
 41
309.448596
 68
    -1
 69
     1
1001
ACAD
1000
MVIEW
1002
{
1070
    16
1010
0.0
1020
0.0
1030
0.0
1010
0.0
1020
0.0
1030
1.0
1040
0.0
1040
309.448596
1040
272.205225
1040
154.724298
1040
50.0
1040
0.0
1040
0.0
1070
     0
1070
   100
1070
     1
1070
     0
1070
     0
1070
     0
1070
     0
1070
     0
1040
0.0
1040
0.0
1040
0.0
1040
1.0
1040
1.0
1040
10.0
1040
10.0
1070
     0
1002
{
1002
}
1002
}
  0
ENDSEC
  0
SECTION
  2
OBJECTS
  0
DICTIONARY
  5
C
100
AcDbDictionary
  3
ACAD_GROUP
350
D
  3
ACAD_MLINESTYLE
350
E
  0
DICTIONARY
  5
D
102
{ACAD_REACTORS
330
C
102
}
100
AcDbDictionary
  0
DICTIONARY
  5
E
102
{ACAD_REACTORS
330
C
102
}
100
AcDbDictionary
  3
STANDARD
350
13
  0
MLINESTYLE
  5
13
102
{ACAD_REACTORS
330
E
102
}
100
AcDbMlineStyle
  2
STANDARD
 70
     0
  3

 62
     0
 51
90.0
 52
90.0
 71
     2
 49
0.5
 62
   256
  6
BYLAYER
 49
-0.5
 62
   256
  6
BYLAYER
  0
ENDSEC
  0
EOF
