  0
SECTION
  2
HEADER
  9
$ACADVER
  1
AC1012
  9
$DWGCODEPAGE
  3
iso8859-1
  9
$INSBASE
 10
0.0
 20
0.0
 30
0.0
  9
$EXTMIN
 10
3.780143
 20
29.197461
 30
0.0
  9
$EXTMAX
 10
181.569564
 20
224.589959
 30
0.0
  9
$LIMMIN
 10
0.0
 20
0.0
  9
$LIMMAX
 10
200.0
 20
250.0
  9
$ORTHOMODE
 70
     0
  9
$REGENMODE
 70
     1
  9
$FILLMODE
 70
     1
  9
$QTEXTMODE
 70
     0
  9
$MIRRTEXT
 70
     1
  9
$DRAGMODE
 70
     2
  9
$LTSCALE
 40
0.841751
  9
$OSMODE
 70
     0
  9
$ATTMODE
 70
     1
  9
$TEXTSIZE
 40
2.6
  9
$TRACEWID
 40
1.0
  9
$TEXTSTYLE
  7
STANDARD
  9
$CLAYER
  8
OGGETTO
  9
$CELTYPE
  6
CONTINUOUS
  9
$CECOLOR
 62
   256
  9
$CELTSCALE
 40
1.0
  9
$DELOBJ
 70
     1
  9
$DISPSILH
 70
     0
  9
$DIMSCALE
 40
1.0
  9
$DIMASZ
 40
2.5
  9
$DIMEXO
 40
0.625
  9
$DIMDLI
 40
3.75
  9
$DIMRND
 40
0.0
  9
$DIMDLE
 40
0.0
  9
$DIMEXE
 40
1.25
  9
$DIMTP
 40
0.0
  9
$DIMTM
 40
0.0
  9
$DIMTXT
 40
2.5
  9
$DIMCEN
 40
2.5
  9
$DIMTSZ
 40
0.0
  9
$DIMTOL
 70
     0
  9
$DIMLIM
 70
     0
  9
$DIMTIH
 70
     1
  9
$DIMTOH
 70
     0
  9
$DIMSE1
 70
     0
  9
$DIMSE2
 70
     0
  9
$DIMTAD
 70
     1
  9
$DIMZIN
 70
     8
  9
$DIMBLK
  1

  9
$DIMASO
 70
     1
  9
$DIMSHO
 70
     1
  9
$DIMPOST
  1

  9
$DIMAPOST
  1

  9
$DIMALT
 70
     0
  9
$DIMALTD
 70
     2
  9
$DIMALTF
 40
0.0394
  9
$DIMLFAC
 40
1.0
  9
$DIMTOFL
 70
     1
  9
$DIMTVP
 40
1.0
  9
$DIMTIX
 70
     0
  9
$DIMSOXD
 70
     0
  9
$DIMSAH
 70
     0
  9
$DIMBLK1
  1

  9
$DIMBLK2
  1

  9
$DIMSTYLE
  2
ISO-25
  9
$DIMCLRD
 70
     0
  9
$DIMCLRE
 70
     0
  9
$DIMCLRT
 70
     0
  9
$DIMTFAC
 40
1.0
  9
$DIMGAP
 40
0.625
  9
$DIMJUST
 70
     0
  9
$DIMSD1
 70
     0
  9
$DIMSD2
 70
     0
  9
$DIMTOLJ
 70
     1
  9
$DIMTZIN
 70
     0
  9
$DIMALTZ
 70
     0
  9
$DIMALTTZ
 70
     0
  9
$DIMFIT
 70
     3
  9
$DIMUPT
 70
     0
  9
$DIMUNIT
 70
     2
  9
$DIMDEC
 70
     4
  9
$DIMTDEC
 70
     4
  9
$DIMALTU
 70
     2
  9
$DIMALTTD
 70
     2
  9
$DIMTXSTY
  7
STANDARD
  9
$DIMAUNIT
 70
     0
  9
$LUNITS
 70
     2
  9
$LUPREC
 70
     2
  9
$SKETCHINC
 40
1.0
  9
$FILLETRAD
 40
7.0
  9
$AUNITS
 70
     0
  9
$AUPREC
 70
     2
  9
$MENU
  1
.
  9
$ELEVATION
 40
0.0
  9
$PELEVATION
 40
0.0
  9
$THICKNESS
 40
0.0
  9
$LIMCHECK
 70
     0
  9
$BLIPMODE
 70
     1
  9
$CHAMFERA
 40
8.417508
  9
$CHAMFERB
 40
8.417508
  9
$CHAMFERC
 40
16.835017
  9
$CHAMFERD
 40
0.0
  9
$SKPOLY
 70
     0
  9
$TDCREATE
 40
2450962.329882870
  9
$TDUPDATE
 40
2452000.491989930
  9
$TDINDWG
 40
0.2320193287
  9
$TDUSRTIMER
 40
0.2320193287
  9
$USRTIMER
 70
     1
  9
$ANGBASE
 50
0.0
  9
$ANGDIR
 70
     0
  9
$PDMODE
 70
     0
  9
$PDSIZE
 40
0.0
  9
$PLINEWID
 40
0.0
  9
$COORDS
 70
     0
  9
$SPLFRAME
 70
     0
  9
$SPLINETYPE
 70
     6
  9
$SPLINESEGS
 70
     8
  9
$ATTDIA
 70
     0
  9
$ATTREQ
 70
     1
  9
$HANDLING
 70
     1
  9
$HANDSEED
  5
D4F
  9
$SURFTAB1
 70
     6
  9
$SURFTAB2
 70
     6
  9
$SURFTYPE
 70
     6
  9
$SURFU
 70
     6
  9
$SURFV
 70
     6
  9
$UCSNAME
  2

  9
$UCSORG
 10
0.0
 20
0.0
 30
0.0
  9
$UCSXDIR
 10
1.0
 20
0.0
 30
0.0
  9
$UCSYDIR
 10
0.0
 20
1.0
 30
0.0
  9
$PUCSNAME
  2

  9
$PUCSORG
 10
0.0
 20
0.0
 30
0.0
  9
$PUCSXDIR
 10
1.0
 20
0.0
 30
0.0
  9
$PUCSYDIR
 10
0.0
 20
1.0
 30
0.0
  9
$USERI1
 70
     0
  9
$USERI2
 70
     0
  9
$USERI3
 70
     0
  9
$USERI4
 70
     0
  9
$USERI5
 70
     0
  9
$USERR1
 40
0.0
  9
$USERR2
 40
0.0
  9
$USERR3
 40
0.0
  9
$USERR4
 40
0.0
  9
$USERR5
 40
0.0
  9
$WORLDVIEW
 70
     1
  9
$SHADEDGE
 70
     3
  9
$SHADEDIF
 70
    70
  9
$TILEMODE
 70
     1
  9
$MAXACTVP
 70
    16
  9
$PINSBASE
 10
0.0
 20
0.0
 30
0.0
  9
$PLIMCHECK
 70
     0
  9
$PEXTMIN
 10
1.000000E+20
 20
1.000000E+20
 30
1.000000E+20
  9
$PEXTMAX
 10
-1.000000E+20
 20
-1.000000E+20
 30
-1.000000E+20
  9
$PLIMMIN
 10
0.0
 20
0.0
  9
$PLIMMAX
 10
420.0
 20
297.0
  9
$UNITMODE
 70
     0
  9
$VISRETAIN
 70
     0
  9
$PLINEGEN
 70
     0
  9
$PSLTSCALE
 70
     1
  9
$TREEDEPTH
 70
  3020
  9
$PICKSTYLE
 70
     1
  9
$CMLSTYLE
  2
STANDARD
  9
$CMLJUST
 70
     0
  9
$CMLSCALE
 40
1.0
  9
$SAVEIMAGES
 70
     0
  0
ENDSEC
  0
SECTION
  2
CLASSES
  0
ENDSEC
  0
SECTION
  2
TABLES
  0
TABLE
  2
VPORT
  5
8
100
AcDbSymbolTable
 70
     2
  0
VPORT
  5
D4E
100
AcDbSymbolTableRecord
100
AcDbViewportTableRecord
  2
*ACTIVE
 70
     0
 10
0.0
 20
0.0
 11
1.0
 21
1.0
 12
111.791448
 22
134.948935
 13
0.0
 23
0.0
 14
5.0
 24
5.0
 15
5.0
 25
5.0
 16
0.0
 26
0.0
 36
1.0
 17
0.0
 27
0.0
 37
0.0
 40
168.392421
 41
1.873134
 42
50.0
 43
0.0
 44
0.0
 50
0.0
 51
0.0
 71
     0
 72
   100
 73
     1
 74
     0
 75
     0
 76
     0
 77
     0
 78
     0
  0
ENDTAB
  0
TABLE
  2
LTYPE
  5
5
100
AcDbSymbolTable
 70
     3
  0
LTYPE
  5
14
100
AcDbSymbolTableRecord
100
AcDbLinetypeTableRecord
  2
BYBLOCK
 70
     0
  3

 72
    65
 73
     0
 40
0.0
  0
LTYPE
  5
15
100
AcDbSymbolTableRecord
100
AcDbLinetypeTableRecord
  2
BYLAYER
 70
     0
  3

 72
    65
 73
     0
 40
0.0
  0
LTYPE
  5
16
100
AcDbSymbolTableRecord
100
AcDbLinetypeTableRecord
  2
CONTINUOUS
 70
    64
  3
Solid line
 72
    65
 73
     0
 40
0.0
  0
LTYPE
  5
62
100
AcDbSymbolTableRecord
100
AcDbLinetypeTableRecord
  2
LINEA-LINEETTEX2
 70
    64
  3
____________    ____    ____    ____________   
 72
    65
 73
     6
 40
5.0
 49
2.5
 74
     0
 49
-0.5
 74
     0
 49
0.5
 74
     0
 49
-0.5
 74
     0
 49
0.5
 74
     0
 49
-0.5
 74
     0
  0
LTYPE
  5
63
100
AcDbSymbolTableRecord
100
AcDbLinetypeTableRecord
  2
TRATTEGGIATA
 70
    64
  3
__ __ __ __ __ __ __ __ __ __ __ __ __ __ __ __
 72
    65
 73
     2
 40
0.75
 49
0.5
 74
     0
 49
-0.25
 74
     0
  0
ENDTAB
  0
TABLE
  2
LAYER
  5
2
100
AcDbSymbolTable
 70
     8
  0
LAYER
  5
F
100
AcDbSymbolTableRecord
100
AcDbLayerTableRecord
  2
0
 70
     0
 62
     7
  6
CONTINUOUS
  0
LAYER
  5
64
100
AcDbSymbolTableRecord
100
AcDbLayerTableRecord
  2
OGGETTO
 70
    64
 62
   250
  6
CONTINUOUS
  0
LAYER
  5
65
100
AcDbSymbolTableRecord
100
AcDbLayerTableRecord
  2
QUOTE
 70
    64
 62
     1
  6
CONTINUOUS
  0
LAYER
  5
66
100
AcDbSymbolTableRecord
100
AcDbLayerTableRecord
  2
CENTRO
 70
    64
 62
     3
  6
LINEA-LINEETTEX2
  0
LAYER
  5
67
100
AcDbSymbolTableRecord
100
AcDbLayerTableRecord
  2
NASCOSTA
 70
    64
 62
     5
  6
TRATTEGGIATA
  0
LAYER
  5
68
100
AcDbSymbolTableRecord
100
AcDbLayerTableRecord
  2
SEZIONE
 70
    64
 62
     8
  6
CONTINUOUS
  0
LAYER
  5
94
100
AcDbSymbolTableRecord
100
AcDbLayerTableRecord
  2
DEFPOINTS
 70
    64
 62
     7
  6
CONTINUOUS
  0
LAYER
  5
D2D
100
AcDbSymbolTableRecord
100
AcDbLayerTableRecord
  2
TESTO
 70
    64
 62
     6
  6
CONTINUOUS
  0
ENDTAB
  0
TABLE
  2
STYLE
  5
3
100
AcDbSymbolTable
 70
     2
  0
STYLE
  5
10
100
AcDbSymbolTableRecord
100
AcDbTextStyleTableRecord
  2
STANDARD
 70
    64
 40
2.6
 41
1.0
 50
0.0
 71
     0
 42
2.6
  3
ISOCP
  4

  0
STYLE
  5
6A
100
AcDbSymbolTableRecord
100
AcDbTextStyleTableRecord
  2

 70
    65
 40
0.0
 41
1.0
 50
0.0
 71
     0
 42
2.104377
  3
ltypeshp.shx
  4

  0
ENDTAB
  0
TABLE
  2
VIEW
  5
6
100
AcDbSymbolTable
 70
     0
  0
ENDTAB
  0
TABLE
  2
UCS
  5
7
100
AcDbSymbolTable
 70
     0
  0
ENDTAB
  0
TABLE
  2
APPID
  5
9
100
AcDbSymbolTable
 70
     1
  0
APPID
  5
11
100
AcDbSymbolTableRecord
100
AcDbRegAppTableRecord
  2
ACAD
 70
     0
  0
ENDTAB
  0
TABLE
  2
DIMSTYLE
  5
A
100
AcDbSymbolTable
 70
     9
  0
DIMSTYLE
105
1D
100
AcDbSymbolTableRecord
100
AcDbDimStyleTableRecord
  2
STANDARD
 70
     0
  3

  4

  5

  6

  7

 40
1.0
 41
0.18
 42
0.0625
 43
0.38
 44
0.18
 45
0.0
 46
0.0
 47
0.0
 48
0.0
140
0.18
141
0.09
142
0.0
143
25.4
144
1.0
145
0.0
146
1.0
147
0.09
 71
     0
 72
     0
 73
     1
 74
     1
 75
     0
 76
     0
 77
     0
 78
     0
170
     0
171
     2
172
     0
173
     0
174
     0
175
     0
176
     0
177
     0
178
     0
270
     2
271
     4
272
     4
273
     2
274
     2
340
10
275
     0
280
     0
281
     0
282
     0
283
     1
284
     0
285
     0
286
     0
287
     3
288
     0
  0
DIMSTYLE
105
24
100
AcDbSymbolTableRecord
100
AcDbDimStyleTableRecord
  2
ISO-25
 70
     0
  3

  4

  5

  6

  7

 40
1.0
 41
2.5
 42
0.625
 43
3.75
 44
1.25
 45
0.0
 46
0.0
 47
0.0
 48
0.0
140
2.5
141
2.5
142
0.0
143
0.0394
144
1.0
145
1.0
146
1.0
147
0.625
 71
     0
 72
     0
 73
     1
 74
     0
 75
     0
 76
     0
 77
     1
 78
     8
170
     0
171
     2
172
     1
173
     0
174
     0
175
     0
176
     0
177
     0
178
     0
270
     2
271
     4
272
     4
273
     2
274
     2
340
10
275
     0
280
     0
281
     0
282
     0
283
     1
284
     0
285
     0
286
     0
287
     3
288
     0
  0
DIMSTYLE
105
25
100
AcDbSymbolTableRecord
100
AcDbDimStyleTableRecord
  2
ISO-35
 70
     0
  3

  4

  5

  6

  7

 40
1.0
 41
3.5
 42
0.875
 43
5.25
 44
1.75
 45
0.0
 46
0.0
 47
0.0
 48
0.0
140
3.5
141
3.5
142
0.0
143
0.0394
144
1.0
145
1.4
146
1.0
147
0.875
 71
     0
 72
     0
 73
     1
 74
     0
 75
     0
 76
     0
 77
     1
 78
     8
170
     0
171
     2
172
     1
173
     0
174
     0
175
     0
176
     0
177
     0
178
     0
270
     2
271
     4
272
     4
273
     2
274
     2
340
10
275
     0
280
     0
281
     0
282
     0
283
     1
284
     0
285
     0
286
     0
287
     3
288
     0
  0
DIMSTYLE
105
26
100
AcDbSymbolTableRecord
100
AcDbDimStyleTableRecord
  2
ISO-5
 70
     0
  3

  4

  5

  6

  7

 40
1.0
 41
5.0
 42
1.25
 43
7.5
 44
2.5
 45
0.0
 46
0.0
 47
0.0
 48
0.0
140
5.0
141
5.0
142
0.0
143
0.0394
144
1.0
145
2.0
146
1.0
147
1.25
 71
     0
 72
     0
 73
     1
 74
     0
 75
     0
 76
     0
 77
     1
 78
     8
170
     0
171
     2
172
     1
173
     0
174
     0
175
     0
176
     0
177
     0
178
     0
270
     2
271
     4
272
     4
273
     2
274
     2
340
10
275
     0
280
     0
281
     0
282
     0
283
     1
284
     0
285
     0
286
     0
287
     3
288
     0
  0
DIMSTYLE
105
27
100
AcDbSymbolTableRecord
100
AcDbDimStyleTableRecord
  2
ISO-7
 70
     0
  3

  4

  5

  6

  7

 40
1.0
 41
7.0
 42
1.75
 43
10.5
 44
3.5
 45
0.0
 46
0.0
 47
0.0
 48
0.0
140
7.0
141
7.0
142
0.0
143
0.0394
144
1.0
145
2.8
146
1.0
147
1.75
 71
     0
 72
     0
 73
     1
 74
     0
 75
     0
 76
     0
 77
     1
 78
     8
170
     0
171
     2
172
     1
173
     0
174
     0
175
     0
176
     0
177
     0
178
     0
270
     2
271
     4
272
     4
273
     2
274
     2
340
10
275
     0
280
     0
281
     0
282
     0
283
     1
284
     0
285
     0
286
     0
287
     3
288
     0
  0
DIMSTYLE
105
28
100
AcDbSymbolTableRecord
100
AcDbDimStyleTableRecord
  2
ISO1
 70
     0
  3

  4

  5

  6

  7

 40
1.0
 41
10.0
 42
2.5
 43
15.0
 44
5.0
 45
0.0
 46
0.0
 47
0.0
 48
0.0
140
10.0
141
10.0
142
0.0
143
0.0394
144
1.0
145
4.0
146
1.0
147
2.5
 71
     0
 72
     0
 73
     1
 74
     0
 75
     0
 76
     0
 77
     1
 78
     8
170
     0
171
     2
172
     1
173
     0
174
     0
175
     0
176
     0
177
     0
178
     0
270
     2
271
     4
272
     4
273
     2
274
     2
340
10
275
     0
280
     0
281
     0
282
     0
283
     1
284
     0
285
     0
286
     0
287
     3
288
     0
  0
DIMSTYLE
105
29
100
AcDbSymbolTableRecord
100
AcDbDimStyleTableRecord
  2
ISO1-4
 70
     0
  3

  4

  5

  6

  7

 40
1.0
 41
14.0
 42
3.5
 43
21.0
 44
7.0
 45
0.0
 46
0.0
 47
0.0
 48
0.0
140
14.0
141
14.0
142
0.0
143
0.0394
144
1.0
145
5.6
146
1.0
147
3.5
 71
     0
 72
     0
 73
     1
 74
     0
 75
     0
 76
     0
 77
     1
 78
     8
170
     0
171
     2
172
     1
173
     0
174
     0
175
     0
176
     0
177
     0
178
     0
270
     2
271
     4
272
     4
273
     2
274
     2
340
10
275
     0
280
     0
281
     0
282
     0
283
     1
284
     0
285
     0
286
     0
287
     3
288
     0
  0
DIMSTYLE
105
2A
100
AcDbSymbolTableRecord
100
AcDbDimStyleTableRecord
  2
ISO2
 70
     0
  3

  4

  5

  6

  7

 40
1.0
 41
20.0
 42
5.0
 43
30.0
 44
10.0
 45
0.0
 46
0.0
 47
0.0
 48
0.0
140
20.0
141
20.0
142
0.0
143
0.0394
144
1.0
145
8.0
146
1.0
147
5.0
 71
     0
 72
     0
 73
     1
 74
     0
 75
     0
 76
     0
 77
     1
 78
     8
170
     0
171
     2
172
     1
173
     0
174
     0
175
     0
176
     0
177
     0
178
     0
270
     2
271
     4
272
     4
273
     2
274
     2
340
10
275
     0
280
     0
281
     0
282
     0
283
     1
284
     0
285
     0
286
     0
287
     3
288
     0
  0
DIMSTYLE
105
D0F
100
AcDbSymbolTableRecord
100
AcDbDimStyleTableRecord
  2
ISO-25$2
 70
     0
  3

  4

  5

  6

  7

 40
1.0
 41
2.6
 42
0.53
 43
3.16
 44
1.05
 45
0.0
 46
0.0
 47
0.2
 48
0.0
140
2.6
141
2.1
142
0.0
143
0.0394
144
1.0
145
1.0
146
1.0
147
0.53
 71
     0
 72
     0
 73
     0
 74
     0
 75
     0
 76
     0
 77
     1
 78
     8
170
     0
171
     2
172
     1
173
     0
174
     0
175
     0
176
     0
177
     0
178
     0
270
     2
271
     2
272
     2
273
     2
274
     2
340
10
275
     0
280
     0
281
     0
282
     0
283
     1
284
     0
285
     0
286
     0
287
     3
288
     0
  0
ENDTAB
  0
TABLE
  2
BLOCK_RECORD
  5
1
100
AcDbSymbolTable
 70
    23
  0
BLOCK_RECORD
  5
1A
100
AcDbSymbolTableRecord
100
AcDbBlockTableRecord
  2
*MODEL_SPACE
  0
BLOCK_RECORD
  5
17
100
AcDbSymbolTableRecord
100
AcDbBlockTableRecord
  2
*PAPER_SPACE
  0
BLOCK_RECORD
  5
D8
100
AcDbSymbolTableRecord
100
AcDbBlockTableRecord
  2
*D0
  0
BLOCK_RECORD
  5
E5
100
AcDbSymbolTableRecord
100
AcDbBlockTableRecord
  2
*D1
  0
BLOCK_RECORD
  5
1B8
100
AcDbSymbolTableRecord
100
AcDbBlockTableRecord
  2
*X2
  0
BLOCK_RECORD
  5
993
100
AcDbSymbolTableRecord
100
AcDbBlockTableRecord
  2
*X3
  0
BLOCK_RECORD
  5
A02
100
AcDbSymbolTableRecord
100
AcDbBlockTableRecord
  2
*D4
  0
BLOCK_RECORD
  5
A11
100
AcDbSymbolTableRecord
100
AcDbBlockTableRecord
  2
*D5
  0
BLOCK_RECORD
  5
A54
100
AcDbSymbolTableRecord
100
AcDbBlockTableRecord
  2
*D6
  0
BLOCK_RECORD
  5
A6E
100
AcDbSymbolTableRecord
100
AcDbBlockTableRecord
  2
*D7
  0
BLOCK_RECORD
  5
A8D
100
AcDbSymbolTableRecord
100
AcDbBlockTableRecord
  2
*D8
  0
BLOCK_RECORD
  5
A9D
100
AcDbSymbolTableRecord
100
AcDbBlockTableRecord
  2
*D9
  0
BLOCK_RECORD
  5
AD9
100
AcDbSymbolTableRecord
100
AcDbBlockTableRecord
  2
*D10
  0
BLOCK_RECORD
  5
B30
100
AcDbSymbolTableRecord
100
AcDbBlockTableRecord
  2
*D11
  0
BLOCK_RECORD
  5
B68
100
AcDbSymbolTableRecord
100
AcDbBlockTableRecord
  2
*D12
  0
BLOCK_RECORD
  5
B77
100
AcDbSymbolTableRecord
100
AcDbBlockTableRecord
  2
*D13
  0
BLOCK_RECORD
  5
BA0
100
AcDbSymbolTableRecord
100
AcDbBlockTableRecord
  2
*D14
  0
BLOCK_RECORD
  5
BBE
100
AcDbSymbolTableRecord
100
AcDbBlockTableRecord
  2
*D15
  0
BLOCK_RECORD
  5
BCD
100
AcDbSymbolTableRecord
100
AcDbBlockTableRecord
  2
*D16
  0
BLOCK_RECORD
  5
BE1
100
AcDbSymbolTableRecord
100
AcDbBlockTableRecord
  2
*D17
  0
BLOCK_RECORD
  5
BF0
100
AcDbSymbolTableRecord
100
AcDbBlockTableRecord
  2
*D18
  0
BLOCK_RECORD
  5
C1B
100
AcDbSymbolTableRecord
100
AcDbBlockTableRecord
  2
*D19
  0
BLOCK_RECORD
  5
D10
100
AcDbSymbolTableRecord
100
AcDbBlockTableRecord
  2
*D20
  0
BLOCK_RECORD
  5
D1E
100
AcDbSymbolTableRecord
100
AcDbBlockTableRecord
  2
*D21
  0
BLOCK_RECORD
  5
D2F
100
AcDbSymbolTableRecord
100
AcDbBlockTableRecord
  2
*D22
  0
ENDTAB
  0
ENDSEC
  0
SECTION
  2
BLOCKS
  0
BLOCK
  5
1B
100
AcDbEntity
  8
0
100
AcDbBlockBegin
  2
*MODEL_SPACE
 70
     0
 10
0.0
 20
0.0
 30
0.0
  3
*MODEL_SPACE
  1

  0
ENDBLK
  5
1C
100
AcDbEntity
  8
0
100
AcDbBlockEnd
  0
BLOCK
  5
18
100
AcDbEntity
 67
     1
  8
0
100
AcDbBlockBegin
  2
*PAPER_SPACE
 70
     0
 10
0.0
 20
0.0
 30
0.0
  3
*PAPER_SPACE
  1

  0
ENDBLK
  5
19
100
AcDbEntity
 67
     1
  8
0
100
AcDbBlockEnd
  0
BLOCK
  5
C28
100
AcDbEntity
  8
0
100
AcDbBlockBegin
  2
*D0
 70
    65
 10
0.0
 20
0.0
 30
0.0
  3
*D0
  1

  0
LINE
  5
C29
100
AcDbEntity
  8
0
  6
BYBLOCK
 62
     0
100
AcDbLine
 10
74.854616
 20
98.36281
 30
0.0
 11
78.364999
 21
99.46963
 31
0.0
  0
LINE
  5
C2A
100
AcDbEntity
  8
0
  6
BYBLOCK
 62
     0
100
AcDbLine
 10
78.16238
 20
87.871924
 30
0.0
 11
81.672763
 21
88.978743
 31
0.0
  0
LINE
  5
C2B
100
AcDbEntity
  8
0
  6
BYBLOCK
 62
     0
100
AcDbLine
 10
77.994308
 20
97.14625
 30
0.0
 11
80.036475
 21
90.669324
 31
0.0
  0
SOLID
  5
C2C
100
AcDbEntity
  8
0
  6
BYBLOCK
 62
     0
100
AcDbTrace
 10
78.328804
 20
97.251717
 30
0.0
 11
77.659811
 21
97.040784
 31
0.0
 12
77.361509
 22
99.15323
 32
0.0
 13
77.361509
 23
99.15323
 33
0.0
  0
SOLID
  5
C2D
100
AcDbEntity
  8
0
  6
BYBLOCK
 62
     0
100
AcDbTrace
 10
80.370971
 20
90.774791
 30
0.0
 11
79.701978
 21
90.563858
 31
0.0
 12
80.669273
 22
88.662344
 32
0.0
 13
80.669273
 23
88.662344
 33
0.0
  0
MTEXT
  5
C2E
100
AcDbEntity
  8
0
  6
BYBLOCK
 62
     0
100
AcDbMText
 10
80.756968
 20
94.456904
 30
0.0
 40
2.6
 41
0.0
 71
     5
 72
     1
  1
\A1;11
 11
0.300706
 21
-0.953717
 31
0.0
  0
POINT
  5
C2F
100
AcDbEntity
  8
DEFPOINTS
  6
BYBLOCK
 62
     0
100
AcDbPoint
 10
74.352871
 20
98.20461
 30
0.0
  0
POINT
  5
C30
100
AcDbEntity
  8
DEFPOINTS
  6
BYBLOCK
 62
     0
100
AcDbPoint
 10
77.660635
 20
87.713724
 30
0.0
  0
POINT
  5
C31
100
AcDbEntity
  8
DEFPOINTS
  6
BYBLOCK
 62
     0
100
AcDbPoint
 10
80.669273
 20
88.662344
 30
0.0
  0
ENDBLK
  5
C32
100
AcDbEntity
  8
0
100
AcDbBlockEnd
  0
BLOCK
  5
C33
100
AcDbEntity
  8
0
100
AcDbBlockBegin
  2
*D1
 70
    65
 10
0.0
 20
0.0
 30
0.0
  3
*D1
  1

  0
LINE
  5
C34
100
AcDbEntity
  8
0
  6
BYBLOCK
 62
     0
100
AcDbLine
 10
106.775565
 20
97.86372
 30
0.0
 11
108.782545
 21
97.230922
 31
0.0
  0
LINE
  5
C35
100
AcDbEntity
  8
0
  6
BYBLOCK
 62
     0
100
AcDbLine
 10
100.0
 20
100.000048
 30
0.0
 11
104.768585
 21
98.496519
 31
0.0
  0
SOLID
  5
C36
100
AcDbEntity
  8
0
  6
BYBLOCK
 62
     0
100
AcDbTrace
 10
106.881031
 20
98.198217
 30
0.0
 11
106.670098
 21
97.529223
 31
0.0
 12
104.768585
 22
98.496519
 32
0.0
 13
104.768585
 23
98.496519
 33
0.0
  0
MTEXT
  5
C37
100
AcDbEntity
  8
0
  6
BYBLOCK
 62
     0
100
AcDbMText
 10
102.933409
 20
100.98986
 30
0.0
 40
2.6
 41
0.0
 71
     5
 72
     1
  1
\A1;R5
 11
0.953717
 21
-0.300706
 31
0.0
  0
POINT
  5
C38
100
AcDbEntity
  8
DEFPOINTS
  6
BYBLOCK
 62
     0
100
AcDbPoint
 10
104.768585
 20
98.496519
 30
0.0
  0
POINT
  5
C39
100
AcDbEntity
  8
DEFPOINTS
  6
BYBLOCK
 62
     0
100
AcDbPoint
 10
100.0
 20
100.000048
 30
0.0
  0
ENDBLK
  5
C3A
100
AcDbEntity
  8
0
100
AcDbBlockEnd
  0
BLOCK
  5
1B9
100
AcDbEntity
  8
0
 48
2.0
100
AcDbBlockBegin
  2
*X2
 70
    65
 10
0.0
 20
0.0
 30
0.0
  3
*X2
  1

  0
LINE
  5
1BB
100
AcDbEntity
  8
0
  6
CONTINUOUS
 62
     0
 48
2.0
100
AcDbLine
 10
96.578526
 20
96.35402
 30
0.0
 11
98.399331
 21
98.174824
 31
0.0
  0
LINE
  5
1BC
100
AcDbEntity
  8
0
  6
CONTINUOUS
 62
     0
 48
2.0
100
AcDbLine
 10
96.46449
 20
96.46449
 30
0.0
 11
98.219725
 21
98.219725
 31
0.0
  0
LINE
  5
1BD
100
AcDbEntity
  8
0
  6
CONTINUOUS
 62
     0
 48
2.0
100
AcDbLine
 10
96.354018
 20
96.578525
 30
0.0
 11
98.044212
 21
98.268719
 31
0.0
  0
LINE
  5
1BE
100
AcDbEntity
  8
0
  6
CONTINUOUS
 62
     0
 48
2.0
100
AcDbLine
 10
96.247117
 20
96.69613
 30
0.0
 11
97.872609
 21
98.321621
 31
0.0
  0
LINE
  5
1BF
100
AcDbEntity
  8
0
  6
CONTINUOUS
 62
     0
 48
2.0
100
AcDbLine
 10
96.143803
 20
96.817322
 30
0.0
 11
97.704752
 21
98.378272
 31
0.0
  0
LINE
  5
1C0
100
AcDbEntity
  8
0
  6
CONTINUOUS
 62
     0
 48
2.0
100
AcDbLine
 10
96.044102
 20
96.942128
 30
0.0
 11
97.5405
 21
98.438525
 31
0.0
  0
LINE
  5
1C1
100
AcDbEntity
  8
0
  6
CONTINUOUS
 62
     0
 48
2.0
100
AcDbLine
 10
95.948055
 20
97.070587
 30
0.0
 11
97.379723
 21
98.502255
 31
0.0
  0
LINE
  5
1C2
100
AcDbEntity
  8
0
  6
CONTINUOUS
 62
     0
 48
2.0
100
AcDbLine
 10
95.855712
 20
97.20275
 30
0.0
 11
97.222309
 21
98.569347
 31
0.0
  0
LINE
  5
1C3
100
AcDbEntity
  8
0
  6
CONTINUOUS
 62
     0
 48
2.0
100
AcDbLine
 10
95.767137
 20
97.338682
 30
0.0
 11
97.068155
 21
98.6397
 31
0.0
  0
LINE
  5
1C4
100
AcDbEntity
  8
0
  6
CONTINUOUS
 62
     0
 48
2.0
100
AcDbLine
 10
95.682409
 20
97.47846
 30
0.0
 11
96.917172
 21
98.713223
 31
0.0
  0
LINE
  5
1C5
100
AcDbEntity
  8
0
  6
CONTINUOUS
 62
     0
 48
2.0
100
AcDbLine
 10
95.601621
 20
97.622179
 30
0.0
 11
96.769278
 21
98.789836
 31
0.0
  0
LINE
  5
1C6
100
AcDbEntity
  8
0
  6
CONTINUOUS
 62
     0
 48
2.0
100
AcDbLine
 10
95.524885
 20
97.769949
 30
0.0
 11
96.624402
 21
98.869466
 31
0.0
  0
LINE
  5
1C7
100
AcDbEntity
  8
0
  6
CONTINUOUS
 62
     0
 48
2.0
100
AcDbLine
 10
95.45233
 20
97.9219
 30
0.0
 11
96.482479
 21
98.95205
 31
0.0
  0
LINE
  5
1C8
100
AcDbEntity
  8
0
  6
CONTINUOUS
 62
     0
 48
2.0
100
AcDbLine
 10
95.384109
 20
98.078186
 30
0.0
 11
96.343454
 21
99.037531
 31
0.0
  0
LINE
  5
1C9
100
AcDbEntity
  8
0
  6
CONTINUOUS
 62
     0
 48
2.0
100
AcDbLine
 10
95.3204
 20
98.238984
 30
0.0
 11
96.207276
 21
99.125859
 31
0.0
  0
LINE
  5
1CA
100
AcDbEntity
  8
0
  6
CONTINUOUS
 62
     0
 48
2.0
100
AcDbLine
 10
95.261411
 20
98.4045
 30
0.0
 11
96.073902
 21
99.216992
 31
0.0
  0
LINE
  5
1CB
100
AcDbEntity
  8
0
  6
CONTINUOUS
 62
     0
 48
2.0
100
AcDbLine
 10
96.696133
 20
96.24712
 30
0.0
 11
98.583235
 21
98.134223
 31
0.0
  0
LINE
  5
1CC
100
AcDbEntity
  8
0
  6
CONTINUOUS
 62
     0
 48
2.0
100
AcDbLine
 10
96.817326
 20
96.143807
 30
0.0
 11
98.771677
 21
98.098158
 31
0.0
  0
LINE
  5
1CD
100
AcDbEntity
  8
0
  6
CONTINUOUS
 62
     0
 48
2.0
100
AcDbLine
 10
96.942134
 20
96.044108
 30
0.0
 11
98.964925
 21
98.0669
 31
0.0
  0
LINE
  5
1CE
100
AcDbEntity
  8
0
  6
CONTINUOUS
 62
     0
 48
2.0
100
AcDbLine
 10
97.070594
 20
95.948062
 30
0.0
 11
99.163293
 21
98.040761
 31
0.0
  0
LINE
  5
1CF
100
AcDbEntity
  8
0
  6
CONTINUOUS
 62
     0
 48
2.0
100
AcDbLine
 10
97.202759
 20
95.855721
 30
0.0
 11
99.367143
 21
98.020105
 31
0.0
  0
LINE
  5
1D0
100
AcDbEntity
  8
0
  6
CONTINUOUS
 62
     0
 48
2.0
100
AcDbLine
 10
97.338692
 20
95.767148
 30
0.0
 11
99.5769
 21
98.005355
 31
0.0
  0
LINE
  5
1D1
100
AcDbEntity
  8
0
  6
CONTINUOUS
 62
     0
 48
2.0
100
AcDbLine
 10
97.478472
 20
95.682421
 30
0.0
 11
99.793064
 21
97.997012
 31
0.0
  0
LINE
  5
1D2
100
AcDbEntity
  8
0
  6
CONTINUOUS
 62
     0
 48
2.0
100
AcDbLine
 10
97.622193
 20
95.601635
 30
0.0
 11
100.016233
 21
97.995676
 31
0.0
  0
LINE
  5
1D3
100
AcDbEntity
  8
0
  6
CONTINUOUS
 62
     0
 48
2.0
100
AcDbLine
 10
97.769965
 20
95.5249
 30
0.0
 11
100.247134
 21
98.00207
 31
0.0
  0
LINE
  5
1D4
100
AcDbEntity
  8
0
  6
CONTINUOUS
 62
     0
 48
2.0
100
AcDbLine
 10
97.921918
 20
95.452348
 30
0.0
 11
100.486655
 21
98.017084
 31
0.0
  0
LINE
  5
1D5
100
AcDbEntity
  8
0
  6
CONTINUOUS
 62
     0
 48
2.0
100
AcDbLine
 10
98.078206
 20
95.384129
 30
0.0
 11
100.735911
 21
98.041834
 31
0.0
  0
LINE
  5
1D6
100
AcDbEntity
  8
0
  6
CONTINUOUS
 62
     0
 48
2.0
100
AcDbLine
 10
98.239005
 20
95.320422
 30
0.0
 11
100.996328
 21
98.077745
 31
0.0
  0
LINE
  5
1D7
100
AcDbEntity
  8
0
  6
CONTINUOUS
 62
     0
 48
2.0
100
AcDbLine
 10
98.404524
 20
95.261434
 30
0.0
 11
101.269782
 21
98.126693
 31
0.0
  0
LINE
  5
1D8
100
AcDbEntity
  8
0
  6
CONTINUOUS
 62
     0
 48
2.0
100
AcDbLine
 10
98.575005
 20
95.207409
 30
0.0
 11
101.558828
 21
98.191231
 31
0.0
  0
LINE
  5
1D9
100
AcDbEntity
  8
0
  6
CONTINUOUS
 62
     0
 48
2.0
100
AcDbLine
 10
98.750732
 20
95.158629
 30
0.0
 11
101.867102
 21
98.274999
 31
0.0
  0
LINE
  5
1DA
100
AcDbEntity
  8
0
  6
CONTINUOUS
 62
     0
 48
2.0
100
AcDbLine
 10
98.932041
 20
95.115433
 30
0.0
 11
102.200112
 21
98.383503
 31
0.0
  0
LINE
  5
1DB
100
AcDbEntity
  8
0
  6
CONTINUOUS
 62
     0
 48
2.0
100
AcDbLine
 10
99.119332
 20
95.078216
 30
0.0
 11
102.566959
 21
98.525844
 31
0.0
  0
LINE
  5
1DC
100
AcDbEntity
  8
0
  6
CONTINUOUS
 62
     0
 48
2.0
100
AcDbLine
 10
99.31308
 20
95.047458
 30
0.0
 11
102.984887
 21
98.719265
 31
0.0
  0
LINE
  5
1DD
100
AcDbEntity
  8
0
  6
CONTINUOUS
 62
     0
 48
2.0
100
AcDbLine
 10
99.513865
 20
95.023736
 30
0.0
 11
103.496008
 21
99.00588
 31
0.0
  0
LINE
  5
1DE
100
AcDbEntity
  8
0
  6
CONTINUOUS
 62
     0
 48
2.0
100
AcDbLine
 10
99.722395
 20
95.00776
 30
0.0
 11
105.068214
 21
100.353579
 31
0.0
  0
LINE
  5
1DF
100
AcDbEntity
  8
0
  6
CONTINUOUS
 62
     0
 48
2.0
100
AcDbLine
 10
101.524213
 20
95.238034
 30
0.0
 11
104.762014
 21
98.475834
 31
0.0
  0
LINE
  5
1E0
100
AcDbEntity
  8
0
  6
CONTINUOUS
 62
     0
 48
2.0
100
AcDbLine
 10
101.876023
 20
95.365338
 30
0.0
 11
104.63471
 21
98.124024
 31
0.0
  0
LINE
  5
1E1
100
AcDbEntity
  8
0
  6
CONTINUOUS
 62
     0
 48
2.0
100
AcDbLine
 10
102.290988
 20
95.555796
 30
0.0
 11
104.444252
 21
97.70906
 31
0.0
  0
LINE
  5
1E2
100
AcDbEntity
  8
0
  6
CONTINUOUS
 62
     0
 48
2.0
100
AcDbLine
 10
102.854986
 20
95.895288
 30
0.0
 11
104.10476
 21
97.145061
 31
0.0
  0
ENDBLK
  5
1E3
100
AcDbEntity
  8
0
 48
2.0
100
AcDbBlockEnd
  0
BLOCK
  5
994
100
AcDbEntity
  8
0
 48
2.0
100
AcDbBlockBegin
  2
*X3
 70
    65
 10
0.0
 20
0.0
 30
0.0
  3
*X3
  1

  0
LINE
  5
996
100
AcDbEntity
  8
0
  6
CONTINUOUS
 62
     0
 48
2.0
100
AcDbLine
 10
103.684439
 20
99.126959
 30
0.0
 11
105.557373
 21
100.999893
 31
0.0
  0
LINE
  5
997
100
AcDbEntity
  8
0
  6
CONTINUOUS
 62
     0
 48
2.0
100
AcDbLine
 10
103.697964
 20
99.135994
 30
0.0
 11
105.548338
 21
100.986368
 31
0.0
  0
LINE
  5
998
100
AcDbEntity
  8
0
  6
CONTINUOUS
 62
     0
 48
2.0
100
AcDbLine
 10
103.711634
 20
99.145174
 30
0.0
 11
105.539158
 21
100.972697
 31
0.0
  0
LINE
  5
999
100
AcDbEntity
  8
0
  6
CONTINUOUS
 62
     0
 48
2.0
100
AcDbLine
 10
103.725455
 20
99.154505
 30
0.0
 11
105.529827
 21
100.958877
 31
0.0
  0
LINE
  5
99A
100
AcDbEntity
  8
0
  6
CONTINUOUS
 62
     0
 48
2.0
100
AcDbLine
 10
103.739432
 20
99.163991
 30
0.0
 11
105.520341
 21
100.9449
 31
0.0
  0
LINE
  5
99B
100
AcDbEntity
  8
0
  6
CONTINUOUS
 62
     0
 48
2.0
100
AcDbLine
 10
103.753571
 20
99.17364
 30
0.0
 11
105.510692
 21
100.930761
 31
0.0
  0
LINE
  5
99C
100
AcDbEntity
  8
0
  6
CONTINUOUS
 62
     0
 48
2.0
100
AcDbLine
 10
103.767879
 20
99.183458
 30
0.0
 11
105.500874
 21
100.916453
 31
0.0
  0
LINE
  5
99D
100
AcDbEntity
  8
0
  6
CONTINUOUS
 62
     0
 48
2.0
100
AcDbLine
 10
103.782363
 20
99.193452
 30
0.0
 11
105.49088
 21
100.901969
 31
0.0
  0
LINE
  5
99E
100
AcDbEntity
  8
0
  6
CONTINUOUS
 62
     0
 48
2.0
100
AcDbLine
 10
103.797031
 20
99.20363
 30
0.0
 11
105.480702
 21
100.887301
 31
0.0
  0
LINE
  5
99F
100
AcDbEntity
  8
0
  6
CONTINUOUS
 62
     0
 48
2.0
100
AcDbLine
 10
103.811892
 20
99.214001
 30
0.0
 11
105.470331
 21
100.87244
 31
0.0
  0
LINE
  5
9A0
100
AcDbEntity
  8
0
  6
CONTINUOUS
 62
     0
 48
2.0
100
AcDbLine
 10
103.826953
 20
99.224572
 30
0.0
 11
105.45976
 21
100.857379
 31
0.0
  0
LINE
  5
9A1
100
AcDbEntity
  8
0
  6
CONTINUOUS
 62
     0
 48
2.0
100
AcDbLine
 10
103.842225
 20
99.235354
 30
0.0
 11
105.448978
 21
100.842106
 31
0.0
  0
LINE
  5
9A2
100
AcDbEntity
  8
0
  6
CONTINUOUS
 62
     0
 48
2.0
100
AcDbLine
 10
103.857719
 20
99.246357
 30
0.0
 11
105.437975
 21
100.826613
 31
0.0
  0
LINE
  5
9A3
100
AcDbEntity
  8
0
  6
CONTINUOUS
 62
     0
 48
2.0
100
AcDbLine
 10
103.873445
 20
99.257593
 30
0.0
 11
105.426739
 21
100.810887
 31
0.0
  0
LINE
  5
9A4
100
AcDbEntity
  8
0
  6
CONTINUOUS
 62
     0
 48
2.0
100
AcDbLine
 10
103.889415
 20
99.269073
 30
0.0
 11
105.415258
 21
100.794917
 31
0.0
  0
LINE
  5
9A5
100
AcDbEntity
  8
0
  6
CONTINUOUS
 62
     0
 48
2.0
100
AcDbLine
 10
103.905644
 20
99.280812
 30
0.0
 11
105.40352
 21
100.778688
 31
0.0
  0
LINE
  5
9A6
100
AcDbEntity
  8
0
  6
CONTINUOUS
 62
     0
 48
2.0
100
AcDbLine
 10
103.922146
 20
99.292824
 30
0.0
 11
105.391508
 21
100.762186
 31
0.0
  0
LINE
  5
9A7
100
AcDbEntity
  8
0
  6
CONTINUOUS
 62
     0
 48
2.0
100
AcDbLine
 10
103.938937
 20
99.305125
 30
0.0
 11
105.379207
 21
100.745395
 31
0.0
  0
LINE
  5
9A8
100
AcDbEntity
  8
0
  6
CONTINUOUS
 62
     0
 48
2.0
100
AcDbLine
 10
103.956035
 20
99.317732
 30
0.0
 11
105.366599
 21
100.728297
 31
0.0
  0
LINE
  5
9A9
100
AcDbEntity
  8
0
  6
CONTINUOUS
 62
     0
 48
2.0
100
AcDbLine
 10
103.97346
 20
99.330667
 30
0.0
 11
105.353665
 21
100.710872
 31
0.0
  0
LINE
  5
9AA
100
AcDbEntity
  8
0
  6
CONTINUOUS
 62
     0
 48
2.0
100
AcDbLine
 10
103.991234
 20
99.343951
 30
0.0
 11
105.340381
 21
100.693098
 31
0.0
  0
LINE
  5
9AB
100
AcDbEntity
  8
0
  6
CONTINUOUS
 62
     0
 48
2.0
100
AcDbLine
 10
104.009381
 20
99.357608
 30
0.0
 11
105.326723
 21
100.674951
 31
0.0
  0
LINE
  5
9AC
100
AcDbEntity
  8
0
  6
CONTINUOUS
 62
     0
 48
2.0
100
AcDbLine
 10
104.02793
 20
99.371667
 30
0.0
 11
105.312665
 21
100.656402
 31
0.0
  0
LINE
  5
9AD
100
AcDbEntity
  8
0
  6
CONTINUOUS
 62
     0
 48
2.0
100
AcDbLine
 10
104.046912
 20
99.386159
 30
0.0
 11
105.298173
 21
100.63742
 31
0.0
  0
LINE
  5
9AE
100
AcDbEntity
  8
0
  6
CONTINUOUS
 62
     0
 48
2.0
100
AcDbLine
 10
104.066362
 20
99.401119
 30
0.0
 11
105.283213
 21
100.61797
 31
0.0
  0
LINE
  5
9AF
100
AcDbEntity
  8
0
  6
CONTINUOUS
 62
     0
 48
2.0
100
AcDbLine
 10
104.086322
 20
99.416589
 30
0.0
 11
105.267743
 21
100.59801
 31
0.0
  0
LINE
  5
9B0
100
AcDbEntity
  8
0
  6
CONTINUOUS
 62
     0
 48
2.0
100
AcDbLine
 10
104.106838
 20
99.432615
 30
0.0
 11
105.251717
 21
100.577494
 31
0.0
  0
LINE
  5
9B1
100
AcDbEntity
  8
0
  6
CONTINUOUS
 62
     0
 48
2.0
100
AcDbLine
 10
104.127967
 20
99.449253
 30
0.0
 11
105.235079
 21
100.556365
 31
0.0
  0
LINE
  5
9B2
100
AcDbEntity
  8
0
  6
CONTINUOUS
 62
     0
 48
2.0
100
AcDbLine
 10
104.149772
 20
99.466568
 30
0.0
 11
105.217764
 21
100.53456
 31
0.0
  0
LINE
  5
9B3
100
AcDbEntity
  8
0
  6
CONTINUOUS
 62
     0
 48
2.0
100
AcDbLine
 10
104.172331
 20
99.484637
 30
0.0
 11
105.199695
 21
100.512001
 31
0.0
  0
LINE
  5
9B4
100
AcDbEntity
  8
0
  6
CONTINUOUS
 62
     0
 48
2.0
100
AcDbLine
 10
104.195737
 20
99.503553
 30
0.0
 11
105.180779
 21
100.488595
 31
0.0
  0
LINE
  5
9B5
100
AcDbEntity
  8
0
  6
CONTINUOUS
 62
     0
 48
2.0
100
AcDbLine
 10
104.220105
 20
99.523431
 30
0.0
 11
105.160901
 21
100.464227
 31
0.0
  0
LINE
  5
9B6
100
AcDbEntity
  8
0
  6
CONTINUOUS
 62
     0
 48
2.0
100
AcDbLine
 10
104.245578
 20
99.544414
 30
0.0
 11
105.139918
 21
100.438754
 31
0.0
  0
LINE
  5
9B7
100
AcDbEntity
  8
0
  6
CONTINUOUS
 62
     0
 48
2.0
100
AcDbLine
 10
104.272337
 20
99.566683
 30
0.0
 11
105.117649
 21
100.411995
 31
0.0
  0
LINE
  5
9B8
100
AcDbEntity
  8
0
  6
CONTINUOUS
 62
     0
 48
2.0
100
AcDbLine
 10
104.300621
 20
99.590476
 30
0.0
 11
105.093855
 21
100.383711
 31
0.0
  0
LINE
  5
9B9
100
AcDbEntity
  8
0
  6
CONTINUOUS
 62
     0
 48
2.0
100
AcDbLine
 10
104.330753
 20
99.616118
 30
0.0
 11
105.068214
 21
100.353579
 31
0.0
  0
LINE
  5
9BA
100
AcDbEntity
  8
0
  6
CONTINUOUS
 62
     0
 48
2.0
100
AcDbLine
 10
104.363189
 20
99.644064
 30
0.0
 11
105.040268
 21
100.321143
 31
0.0
  0
LINE
  5
9BB
100
AcDbEntity
  8
0
  6
CONTINUOUS
 62
     0
 48
2.0
100
AcDbLine
 10
104.398611
 20
99.674997
 30
0.0
 11
105.009335
 21
100.28572
 31
0.0
  0
LINE
  5
9BC
100
AcDbEntity
  8
0
  6
CONTINUOUS
 62
     0
 48
2.0
100
AcDbLine
 10
104.438128
 20
99.710023
 30
0.0
 11
104.974309
 21
100.246204
 31
0.0
  0
LINE
  5
9BD
100
AcDbEntity
  8
0
  6
CONTINUOUS
 62
     0
 48
2.0
100
AcDbLine
 10
104.483765
 20
99.75117
 30
0.0
 11
104.933161
 21
100.200566
 31
0.0
  0
LINE
  5
9BE
100
AcDbEntity
  8
0
  6
CONTINUOUS
 62
     0
 48
2.0
100
AcDbLine
 10
104.540134
 20
99.803049
 30
0.0
 11
104.881283
 21
100.144198
 31
0.0
  0
LINE
  5
9BF
100
AcDbEntity
  8
0
  6
CONTINUOUS
 62
     0
 48
2.0
100
AcDbLine
 10
104.625248
 20
99.883673
 30
0.0
 11
104.800659
 21
100.059084
 31
0.0
  0
ENDBLK
  5
9C0
100
AcDbEntity
  8
0
 48
2.0
100
AcDbBlockEnd
  0
BLOCK
  5
C49
100
AcDbEntity
  8
0
100
AcDbBlockBegin
  2
*D4
 70
    65
 10
0.0
 20
0.0
 30
0.0
  3
*D4
  1

  0
LINE
  5
C4A
100
AcDbEntity
  8
0
  6
BYBLOCK
 62
     0
100
AcDbLine
 10
93.26901
 20
104.720471
 30
0.0
 11
86.544868
 21
126.046726
 31
0.0
  0
LINE
  5
C4B
100
AcDbEntity
  8
0
  6
BYBLOCK
 62
     0
100
AcDbLine
 10
94.031984
 20
104.961036
 30
0.0
 11
87.307842
 21
126.287291
 31
0.0
  0
LINE
  5
C4C
100
AcDbEntity
  8
0
  6
BYBLOCK
 62
     0
100
AcDbLine
 10
84.854287
 20
124.410438
 30
0.0
 11
82.847307
 21
123.777639
 31
0.0
  0
LINE
  5
C4D
100
AcDbEntity
  8
0
  6
BYBLOCK
 62
     0
100
AcDbLine
 10
89.631221
 20
125.916599
 30
0.0
 11
96.113221
 21
127.960366
 31
0.0
  0
LINE
  5
C4E
100
AcDbEntity
  8
0
  6
BYBLOCK
 62
     0
100
AcDbLine
 10
86.861267
 20
125.043236
 30
0.0
 11
87.624241
 21
125.283801
 31
0.0
  0
SOLID
  5
C4F
100
AcDbEntity
  8
0
  6
BYBLOCK
 62
     0
100
AcDbTrace
 10
84.748821
 20
124.744934
 30
0.0
 11
84.959754
 21
124.075941
 31
0.0
 12
86.861267
 22
125.043236
 32
0.0
 13
86.861267
 23
125.043236
 33
0.0
  0
SOLID
  5
C50
100
AcDbEntity
  8
0
  6
BYBLOCK
 62
     0
100
AcDbTrace
 10
89.525755
 20
126.251096
 30
0.0
 11
89.736687
 21
125.582102
 31
0.0
 12
87.624241
 22
125.283801
 32
0.0
 13
87.624241
 23
125.283801
 33
0.0
  0
MTEXT
  5
C51
100
AcDbEntity
  8
0
  6
BYBLOCK
 62
     0
100
AcDbMText
 10
93.326594
 20
128.996459
 30
0.0
 40
2.6
 41
0.0
 71
     5
 72
     1
  1
\A1;0.8
 11
0.953717
 21
0.300706
 31
0.0
  0
POINT
  5
C52
100
AcDbEntity
  8
DEFPOINTS
  6
BYBLOCK
 62
     0
100
AcDbPoint
 10
93.42721
 20
104.218726
 30
0.0
  0
POINT
  5
C53
100
AcDbEntity
  8
DEFPOINTS
  6
BYBLOCK
 62
     0
100
AcDbPoint
 10
94.190184
 20
104.459291
 30
0.0
  0
POINT
  5
C54
100
AcDbEntity
  8
DEFPOINTS
  6
BYBLOCK
 62
     0
100
AcDbPoint
 10
87.624241
 20
125.283801
 30
0.0
  0
ENDBLK
  5
C55
100
AcDbEntity
  8
0
100
AcDbBlockEnd
  0
BLOCK
  5
C56
100
AcDbEntity
  8
0
100
AcDbBlockBegin
  2
*D5
 70
    65
 10
0.0
 20
0.0
 30
0.0
  3
*D5
  1

  0
LINE
  5
C57
100
AcDbEntity
  8
0
  6
BYBLOCK
 62
     0
100
AcDbLine
 10
106.73099
 20
104.720471
 30
0.0
 11
113.344012
 21
125.694299
 31
0.0
  0
LINE
  5
C58
100
AcDbEntity
  8
0
  6
BYBLOCK
 62
     0
100
AcDbLine
 10
105.968016
 20
104.961036
 30
0.0
 11
112.581038
 21
125.934863
 31
0.0
  0
LINE
  5
C59
100
AcDbEntity
  8
0
  6
BYBLOCK
 62
     0
100
AcDbLine
 10
115.034593
 20
124.05801
 30
0.0
 11
117.041573
 21
123.425212
 31
0.0
  0
LINE
  5
C5A
100
AcDbEntity
  8
0
  6
BYBLOCK
 62
     0
100
AcDbLine
 10
110.257659
 20
125.564172
 30
0.0
 11
103.775659
 21
127.607938
 31
0.0
  0
LINE
  5
C5B
100
AcDbEntity
  8
0
  6
BYBLOCK
 62
     0
100
AcDbLine
 10
113.027613
 20
124.690809
 30
0.0
 11
112.264639
 21
124.931373
 31
0.0
  0
SOLID
  5
C5C
100
AcDbEntity
  8
0
  6
BYBLOCK
 62
     0
100
AcDbTrace
 10
115.140059
 20
124.392507
 30
0.0
 11
114.929126
 21
123.723514
 31
0.0
 12
113.027613
 22
124.690809
 32
0.0
 13
113.027613
 23
124.690809
 33
0.0
  0
SOLID
  5
C5D
100
AcDbEntity
  8
0
  6
BYBLOCK
 62
     0
100
AcDbTrace
 10
110.363125
 20
125.898668
 30
0.0
 11
110.152193
 21
125.229675
 31
0.0
 12
112.264639
 22
124.931373
 32
0.0
 13
112.264639
 23
124.931373
 33
0.0
  0
MTEXT
  5
C5E
100
AcDbEntity
  8
0
  6
BYBLOCK
 62
     0
100
AcDbMText
 10
106.562286
 20
128.644031
 30
0.0
 40
2.6
 41
0.0
 71
     5
 72
     1
  1
\A1;0.8
 11
0.953717
 21
-0.300706
 31
0.0
  0
POINT
  5
C5F
100
AcDbEntity
  8
DEFPOINTS
  6
BYBLOCK
 62
     0
100
AcDbPoint
 10
106.57279
 20
104.218726
 30
0.0
  0
POINT
  5
C60
100
AcDbEntity
  8
DEFPOINTS
  6
BYBLOCK
 62
     0
100
AcDbPoint
 10
105.809816
 20
104.459291
 30
0.0
  0
POINT
  5
C61
100
AcDbEntity
  8
DEFPOINTS
  6
BYBLOCK
 62
     0
100
AcDbPoint
 10
112.264639
 20
124.931373
 30
0.0
  0
ENDBLK
  5
C62
100
AcDbEntity
  8
0
100
AcDbBlockEnd
  0
BLOCK
  5
C63
100
AcDbEntity
  8
0
100
AcDbBlockBegin
  2
*D6
 70
    65
 10
0.0
 20
0.0
 30
0.0
  3
*D6
  1

  0
LINE
  5
C64
100
AcDbEntity
  8
0
  6
BYBLOCK
 62
     0
100
AcDbLine
 10
93.526094
 20
190.0
 30
0.0
 11
136.786487
 21
190.0
 31
0.0
  0
LINE
  5
C65
100
AcDbEntity
  8
0
  6
BYBLOCK
 62
     0
100
AcDbLine
 10
116.526094
 20
160.0
 30
0.0
 11
136.786487
 21
160.0
 31
0.0
  0
LINE
  5
C66
100
AcDbEntity
  8
0
  6
BYBLOCK
 62
     0
100
AcDbLine
 10
135.734298
 20
187.895623
 30
0.0
 11
135.734298
 21
162.104377
 31
0.0
  0
SOLID
  5
C67
100
AcDbEntity
  8
0
  6
BYBLOCK
 62
     0
100
AcDbTrace
 10
135.383568
 20
187.895623
 30
0.0
 11
136.085027
 21
187.895623
 31
0.0
 12
135.734298
 22
190.0
 32
0.0
 13
135.734298
 23
190.0
 33
0.0
  0
SOLID
  5
C68
100
AcDbEntity
  8
0
  6
BYBLOCK
 62
     0
100
AcDbTrace
 10
135.383568
 20
162.104377
 30
0.0
 11
136.085027
 21
162.104377
 31
0.0
 12
135.734298
 22
160.0
 32
0.0
 13
135.734298
 23
160.0
 33
0.0
  0
MTEXT
  5
C69
100
AcDbEntity
  8
0
  6
BYBLOCK
 62
     0
100
AcDbMText
 10
133.904298
 20
175.0
 30
0.0
 40
2.6
 41
0.0
 71
     5
 72
     1
  1
\A1;30
 11
0.0
 21
1.0
 31
0.0
  0
POINT
  5
C6A
100
AcDbEntity
  8
DEFPOINTS
  6
BYBLOCK
 62
     0
100
AcDbPoint
 10
93.0
 20
190.0
 30
0.0
  0
POINT
  5
C6B
100
AcDbEntity
  8
DEFPOINTS
  6
BYBLOCK
 62
     0
100
AcDbPoint
 10
116.0
 20
160.0
 30
0.0
  0
POINT
  5
C6C
100
AcDbEntity
  8
DEFPOINTS
  6
BYBLOCK
 62
     0
100
AcDbPoint
 10
135.734298
 20
160.0
 30
0.0
  0
ENDBLK
  5
C6D
100
AcDbEntity
  8
0
100
AcDbBlockEnd
  0
BLOCK
  5
C6E
100
AcDbEntity
  8
0
100
AcDbBlockBegin
  2
*D7
 70
    65
 10
0.0
 20
0.0
 30
0.0
  3
*D7
  1

  0
LINE
  5
C6F
100
AcDbEntity
  8
0
  6
BYBLOCK
 62
     0
100
AcDbLine
 10
79.473906
 20
164.6
 30
0.0
 11
65.66518
 21
164.6
 31
0.0
  0
LINE
  5
C70
100
AcDbEntity
  8
0
  6
BYBLOCK
 62
     0
100
AcDbLine
 10
79.473906
 20
173.0
 30
0.0
 11
65.66518
 21
173.0
 31
0.0
  0
LINE
  5
C71
100
AcDbEntity
  8
0
  6
BYBLOCK
 62
     0
100
AcDbLine
 10
66.717369
 20
162.495623
 30
0.0
 11
66.717369
 21
160.391246
 31
0.0
  0
LINE
  5
C72
100
AcDbEntity
  8
0
  6
BYBLOCK
 62
     0
100
AcDbLine
 10
66.717369
 20
175.104377
 30
0.0
 11
66.717369
 21
177.208754
 31
0.0
  0
LINE
  5
C73
100
AcDbEntity
  8
0
  6
BYBLOCK
 62
     0
100
AcDbLine
 10
66.717369
 20
164.6
 30
0.0
 11
66.717369
 21
173.0
 31
0.0
  0
SOLID
  5
C74
100
AcDbEntity
  8
0
  6
BYBLOCK
 62
     0
100
AcDbTrace
 10
66.366639
 20
162.495623
 30
0.0
 11
67.068098
 21
162.495623
 31
0.0
 12
66.717369
 22
164.6
 32
0.0
 13
66.717369
 23
164.6
 33
0.0
  0
SOLID
  5
C75
100
AcDbEntity
  8
0
  6
BYBLOCK
 62
     0
100
AcDbTrace
 10
66.366639
 20
175.104377
 30
0.0
 11
67.068098
 21
175.104377
 31
0.0
 12
66.717369
 22
173.0
 32
0.0
 13
66.717369
 23
173.0
 33
0.0
  0
MTEXT
  5
C76
100
AcDbEntity
  8
0
  6
BYBLOCK
 62
     0
100
AcDbMText
 10
64.887369
 20
168.8
 30
0.0
 40
2.6
 41
0.0
 71
     5
 72
     1
  1
\A1;8.4
 11
0.0
 21
1.0
 31
0.0
  0
POINT
  5
C77
100
AcDbEntity
  8
DEFPOINTS
  6
BYBLOCK
 62
     0
100
AcDbPoint
 10
80.0
 20
164.6
 30
0.0
  0
POINT
  5
C78
100
AcDbEntity
  8
DEFPOINTS
  6
BYBLOCK
 62
     0
100
AcDbPoint
 10
80.0
 20
173.0
 30
0.0
  0
POINT
  5
C79
100
AcDbEntity
  8
DEFPOINTS
  6
BYBLOCK
 62
     0
100
AcDbPoint
 10
66.717369
 20
173.0
 30
0.0
  0
ENDBLK
  5
C7A
100
AcDbEntity
  8
0
100
AcDbBlockEnd
  0
BLOCK
  5
C7B
100
AcDbEntity
  8
0
100
AcDbBlockBegin
  2
*D8
 70
    65
 10
0.0
 20
0.0
 30
0.0
  3
*D8
  1

  0
LINE
  5
C7C
100
AcDbEntity
  8
0
  6
BYBLOCK
 62
     0
100
AcDbLine
 10
93.045852
 20
165.524092
 30
0.0
 11
94.245631
 21
179.237632
 31
0.0
  0
ARC
  5
C7D
100
AcDbEntity
  8
0
  6
BYBLOCK
 62
     0
100
AcDbCircle
 10
93.0
 20
165.0
 30
0.0
 40
13.239829
100
AcDbArc
 50
66.767256
 51
75.883628
  0
ARC
  5
C7E
100
AcDbEntity
  8
0
  6
BYBLOCK
 62
     0
100
AcDbCircle
 10
93.0
 20
165.0
 30
0.0
 40
13.239829
100
AcDbArc
 50
99.116372
 51
108.232744
  0
ARC
  5
C7F
100
AcDbEntity
  8
0
  6
BYBLOCK
 62
     0
100
AcDbCircle
 10
93.0
 20
165.0
 30
0.0
 40
13.239829
100
AcDbArc
 50
85.0
 51
90.0
  0
SOLID
  5
C80
100
AcDbEntity
  8
0
  6
BYBLOCK
 62
     0
100
AcDbTrace
 10
96.170852
 20
177.494157
 30
0.0
 11
96.287328
 21
178.185878
 31
0.0
 12
94.153927
 22
178.189447
 32
0.0
 13
94.153927
 23
178.189447
 33
0.0
  0
SOLID
  5
C81
100
AcDbEntity
  8
0
  6
BYBLOCK
 62
     0
100
AcDbTrace
 10
90.874406
 20
178.422211
 30
0.0
 11
90.930152
 21
177.72297
 31
0.0
 12
93.0
 22
178.239829
 32
0.0
 13
93.0
 23
178.239829
 33
0.0
  0
MTEXT
  5
C82
100
AcDbEntity
  8
0
  6
BYBLOCK
 62
     0
100
AcDbMText
 10
99.757907
 20
178.469611
 30
0.0
 40
2.6
 41
0.0
 71
     5
 72
     1
  1
\A1;5°
 11
0.893813
 21
-0.44844
 31
0.0
  0
POINT
  5
C83
100
AcDbEntity
  8
DEFPOINTS
  6
BYBLOCK
 62
     0
100
AcDbPoint
 10
93.385077
 20
178.234227
 30
0.0
  0
POINT
  5
C84
100
AcDbEntity
  8
DEFPOINTS
  6
BYBLOCK
 62
     0
100
AcDbPoint
 10
93.0
 20
165.0
 30
0.0
  0
POINT
  5
C85
100
AcDbEntity
  8
DEFPOINTS
  6
BYBLOCK
 62
     0
100
AcDbPoint
 10
93.0
 20
190.0
 30
0.0
  0
POINT
  5
C86
100
AcDbEntity
  8
DEFPOINTS
  6
BYBLOCK
 62
     0
100
AcDbPoint
 10
93.0
 20
165.0
 30
0.0
  0
POINT
  5
C87
100
AcDbEntity
  8
DEFPOINTS
  6
BYBLOCK
 62
     0
100
AcDbPoint
 10
92.562557
 20
160.0
 30
0.0
  0
ENDBLK
  5
C88
100
AcDbEntity
  8
0
100
AcDbBlockEnd
  0
BLOCK
  5
C89
100
AcDbEntity
  8
0
100
AcDbBlockBegin
  2
*D9
 70
    65
 10
0.0
 20
0.0
 30
0.0
  3
*D9
  1

  0
LINE
  5
C8A
100
AcDbEntity
  8
0
  6
BYBLOCK
 62
     0
100
AcDbLine
 10
80.0
 20
190.526094
 30
0.0
 11
80.0
 21
204.208087
 31
0.0
  0
LINE
  5
C8B
100
AcDbEntity
  8
0
  6
BYBLOCK
 62
     0
100
AcDbLine
 10
83.5
 20
173.526094
 30
0.0
 11
83.5
 21
204.208087
 31
0.0
  0
LINE
  5
C8C
100
AcDbEntity
  8
0
  6
BYBLOCK
 62
     0
100
AcDbLine
 10
77.895623
 20
203.155899
 30
0.0
 11
75.791246
 21
203.155899
 31
0.0
  0
LINE
  5
C8D
100
AcDbEntity
  8
0
  6
BYBLOCK
 62
     0
100
AcDbLine
 10
85.604377
 20
203.155899
 30
0.0
 11
92.51645
 21
203.155899
 31
0.0
  0
LINE
  5
C8E
100
AcDbEntity
  8
0
  6
BYBLOCK
 62
     0
100
AcDbLine
 10
80.0
 20
203.155899
 30
0.0
 11
83.5
 21
203.155899
 31
0.0
  0
SOLID
  5
C8F
100
AcDbEntity
  8
0
  6
BYBLOCK
 62
     0
100
AcDbTrace
 10
77.895623
 20
203.506628
 30
0.0
 11
77.895623
 21
202.805169
 31
0.0
 12
80.0
 22
203.155899
 32
0.0
 13
80.0
 23
203.155899
 33
0.0
  0
SOLID
  5
C90
100
AcDbEntity
  8
0
  6
BYBLOCK
 62
     0
100
AcDbTrace
 10
85.604377
 20
203.506628
 30
0.0
 11
85.604377
 21
202.805169
 31
0.0
 12
83.5
 22
203.155899
 32
0.0
 13
83.5
 23
203.155899
 33
0.0
  0
MTEXT
  5
C91
100
AcDbEntity
  8
0
  6
BYBLOCK
 62
     0
100
AcDbMText
 10
90.112602
 20
204.985899
 30
0.0
 40
2.6
 41
0.0
 71
     5
 72
     1
  1
\A1;3.5
  0
POINT
  5
C92
100
AcDbEntity
  8
DEFPOINTS
  6
BYBLOCK
 62
     0
100
AcDbPoint
 10
80.0
 20
190.0
 30
0.0
  0
POINT
  5
C93
100
AcDbEntity
  8
DEFPOINTS
  6
BYBLOCK
 62
     0
100
AcDbPoint
 10
83.5
 20
173.0
 30
0.0
  0
POINT
  5
C94
100
AcDbEntity
  8
DEFPOINTS
  6
BYBLOCK
 62
     0
100
AcDbPoint
 10
83.5
 20
203.155899
 30
0.0
  0
ENDBLK
  5
C95
100
AcDbEntity
  8
0
100
AcDbBlockEnd
  0
BLOCK
  5
C96
100
AcDbEntity
  8
0
100
AcDbBlockBegin
  2
*D10
 70
    65
 10
0.0
 20
0.0
 30
0.0
  3
*D10
  1

  0
LINE
  5
C97
100
AcDbEntity
  8
0
  6
BYBLOCK
 62
     0
100
AcDbLine
 10
80.0
 20
190.526094
 30
0.0
 11
80.0
 21
222.525454
 31
0.0
  0
LINE
  5
C98
100
AcDbEntity
  8
0
  6
BYBLOCK
 62
     0
100
AcDbLine
 10
116.0
 20
160.526094
 30
0.0
 11
116.0
 21
222.525454
 31
0.0
  0
LINE
  5
C99
100
AcDbEntity
  8
0
  6
BYBLOCK
 62
     0
100
AcDbLine
 10
82.104377
 20
221.473266
 30
0.0
 11
113.895623
 21
221.473266
 31
0.0
  0
SOLID
  5
C9A
100
AcDbEntity
  8
0
  6
BYBLOCK
 62
     0
100
AcDbTrace
 10
82.104377
 20
221.823995
 30
0.0
 11
82.104377
 21
221.122536
 31
0.0
 12
80.0
 22
221.473266
 32
0.0
 13
80.0
 23
221.473266
 33
0.0
  0
SOLID
  5
C9B
100
AcDbEntity
  8
0
  6
BYBLOCK
 62
     0
100
AcDbTrace
 10
113.895623
 20
221.823995
 30
0.0
 11
113.895623
 21
221.122536
 31
0.0
 12
116.0
 22
221.473266
 32
0.0
 13
116.0
 23
221.473266
 33
0.0
  0
MTEXT
  5
C9C
100
AcDbEntity
  8
0
  6
BYBLOCK
 62
     0
100
AcDbMText
 10
98.0
 20
223.303266
 30
0.0
 40
2.6
 41
0.0
 71
     5
 72
     1
  1
\A1;36
  0
POINT
  5
C9D
100
AcDbEntity
  8
DEFPOINTS
  6
BYBLOCK
 62
     0
100
AcDbPoint
 10
80.0
 20
190.0
 30
0.0
  0
POINT
  5
C9E
100
AcDbEntity
  8
DEFPOINTS
  6
BYBLOCK
 62
     0
100
AcDbPoint
 10
116.0
 20
160.0
 30
0.0
  0
POINT
  5
C9F
100
AcDbEntity
  8
DEFPOINTS
  6
BYBLOCK
 62
     0
100
AcDbPoint
 10
116.0
 20
221.473266
 30
0.0
  0
ENDBLK
  5
CA0
100
AcDbEntity
  8
0
100
AcDbBlockEnd
  0
BLOCK
  5
CA1
100
AcDbEntity
  8
0
100
AcDbBlockBegin
  2
*D11
 70
    65
 10
0.0
 20
0.0
 30
0.0
  3
*D11
  1

  0
LINE
  5
CA2
100
AcDbEntity
  8
0
  6
BYBLOCK
 62
     0
100
AcDbLine
 10
93.0
 20
190.53
 30
0.0
 11
93.0
 21
214.615891
 31
0.0
  0
LINE
  5
CA3
100
AcDbEntity
  8
0
  6
BYBLOCK
 62
     0
100
AcDbLine
 10
100.0
 20
190.53
 30
0.0
 11
100.0
 21
214.615891
 31
0.0
  0
LINE
  5
CA4
100
AcDbEntity
  8
0
  6
BYBLOCK
 62
     0
100
AcDbLine
 10
95.6
 20
213.565891
 30
0.0
 11
97.4
 21
213.565891
 31
0.0
  0
LINE
  5
CA5
100
AcDbEntity
  8
0
  6
BYBLOCK
 62
     0
100
AcDbLine
 10
100.0
 20
213.565891
 30
0.0
 11
112.867696
 21
213.565891
 31
0.0
  0
SOLID
  5
CA6
100
AcDbEntity
  8
0
  6
BYBLOCK
 62
     0
100
AcDbTrace
 10
95.6
 20
213.999224
 30
0.0
 11
95.6
 21
213.132557
 31
0.0
 12
93.0
 22
213.565891
 32
0.0
 13
93.0
 23
213.565891
 33
0.0
  0
SOLID
  5
CA7
100
AcDbEntity
  8
0
  6
BYBLOCK
 62
     0
100
AcDbTrace
 10
97.4
 20
213.999224
 30
0.0
 11
97.4
 21
213.132557
 31
0.0
 12
100.0
 22
213.565891
 32
0.0
 13
100.0
 23
213.565891
 33
0.0
  0
MTEXT
  5
CA8
100
AcDbEntity
  8
0
  6
BYBLOCK
 62
     0
100
AcDbMText
 10
107.733848
 20
215.395891
 30
0.0
 40
2.6
 41
0.0
 71
     5
 72
     1
  1
\A1;7±0.05
  0
POINT
  5
CA9
100
AcDbEntity
  8
DEFPOINTS
  6
BYBLOCK
 62
     0
100
AcDbPoint
 10
93.0
 20
190.0
 30
0.0
  0
POINT
  5
CAA
100
AcDbEntity
  8
DEFPOINTS
  6
BYBLOCK
 62
     0
100
AcDbPoint
 10
100.0
 20
190.0
 30
0.0
  0
POINT
  5
CAB
100
AcDbEntity
  8
DEFPOINTS
  6
BYBLOCK
 62
     0
100
AcDbPoint
 10
100.0
 20
213.565891
 30
0.0
  0
ENDBLK
  5
CAC
100
AcDbEntity
  8
0
100
AcDbBlockEnd
  0
BLOCK
  5
CAD
100
AcDbEntity
  8
0
100
AcDbBlockBegin
  2
*D12
 70
    65
 10
0.0
 20
0.0
 30
0.0
  3
*D12
  1

  0
LINE
  5
CAE
100
AcDbEntity
  8
0
  6
BYBLOCK
 62
     0
100
AcDbLine
 10
80.0
 20
190.53
 30
0.0
 11
80.0
 21
214.633461
 31
0.0
  0
LINE
  5
CAF
100
AcDbEntity
  8
0
  6
BYBLOCK
 62
     0
100
AcDbLine
 10
93.0
 20
190.53
 30
0.0
 11
93.0
 21
214.633461
 31
0.0
  0
LINE
  5
CB0
100
AcDbEntity
  8
0
  6
BYBLOCK
 62
     0
100
AcDbLine
 10
77.4
 20
213.583461
 30
0.0
 11
74.8
 21
213.583461
 31
0.0
  0
LINE
  5
CB1
100
AcDbEntity
  8
0
  6
BYBLOCK
 62
     0
100
AcDbLine
 10
95.6
 20
213.583461
 30
0.0
 11
98.2
 21
213.583461
 31
0.0
  0
LINE
  5
CB2
100
AcDbEntity
  8
0
  6
BYBLOCK
 62
     0
100
AcDbLine
 10
80.0
 20
213.583461
 30
0.0
 11
93.0
 21
213.583461
 31
0.0
  0
SOLID
  5
CB3
100
AcDbEntity
  8
0
  6
BYBLOCK
 62
     0
100
AcDbTrace
 10
77.4
 20
214.016794
 30
0.0
 11
77.4
 21
213.150127
 31
0.0
 12
80.0
 22
213.583461
 32
0.0
 13
80.0
 23
213.583461
 33
0.0
  0
SOLID
  5
CB4
100
AcDbEntity
  8
0
  6
BYBLOCK
 62
     0
100
AcDbTrace
 10
95.6
 20
214.016794
 30
0.0
 11
95.6
 21
213.150127
 31
0.0
 12
93.0
 22
213.583461
 32
0.0
 13
93.0
 23
213.583461
 33
0.0
  0
MTEXT
  5
CB5
100
AcDbEntity
  8
0
  6
BYBLOCK
 62
     0
100
AcDbMText
 10
86.5
 20
217.082562
 30
0.0
 40
2.6
 41
0.0
 71
     5
 72
     1
  1
\A1;13\S+0.02^  0.00;
  0
POINT
  5
CB6
100
AcDbEntity
  8
DEFPOINTS
  6
BYBLOCK
 62
     0
100
AcDbPoint
 10
80.0
 20
190.0
 30
0.0
  0
POINT
  5
CB7
100
AcDbEntity
  8
DEFPOINTS
  6
BYBLOCK
 62
     0
100
AcDbPoint
 10
93.0
 20
190.0
 30
0.0
  0
POINT
  5
CB8
100
AcDbEntity
  8
DEFPOINTS
  6
BYBLOCK
 62
     0
100
AcDbPoint
 10
93.0
 20
213.583461
 30
0.0
  0
ENDBLK
  5
CB9
100
AcDbEntity
  8
0
100
AcDbBlockEnd
  0
BLOCK
  5
CBA
100
AcDbEntity
  8
0
100
AcDbBlockBegin
  2
*D13
 70
    65
 10
0.0
 20
0.0
 30
0.0
  3
*D13
  1

  0
LINE
  5
CBB
100
AcDbEntity
  8
0
  6
BYBLOCK
 62
     0
100
AcDbLine
 10
116.53
 20
160.0
 30
0.0
 11
136.797722
 21
160.0
 31
0.0
  0
LINE
  5
CBC
100
AcDbEntity
  8
0
  6
BYBLOCK
 62
     0
100
AcDbLine
 10
100.53
 20
95.000048
 30
0.0
 11
136.797722
 21
95.000048
 31
0.0
  0
LINE
  5
CBD
100
AcDbEntity
  8
0
  6
BYBLOCK
 62
     0
100
AcDbLine
 10
135.747722
 20
157.4
 30
0.0
 11
135.747722
 21
97.600048
 31
0.0
  0
SOLID
  5
CBE
100
AcDbEntity
  8
0
  6
BYBLOCK
 62
     0
100
AcDbTrace
 10
135.314389
 20
157.4
 30
0.0
 11
136.181056
 21
157.4
 31
0.0
 12
135.747722
 22
160.0
 32
0.0
 13
135.747722
 23
160.0
 33
0.0
  0
SOLID
  5
CBF
100
AcDbEntity
  8
0
  6
BYBLOCK
 62
     0
100
AcDbTrace
 10
135.314389
 20
97.600048
 30
0.0
 11
136.181056
 21
97.600048
 31
0.0
 12
135.747722
 22
95.000048
 32
0.0
 13
135.747722
 23
95.000048
 33
0.0
  0
MTEXT
  5
CC0
100
AcDbEntity
  8
0
  6
BYBLOCK
 62
     0
100
AcDbMText
 10
132.248621
 20
127.500024
 30
0.0
 40
2.6
 41
0.0
 71
     5
 72
     1
  1
\A1;65\S+0.02^  0.00;
 11
0.0
 21
1.0
 31
0.0
  0
POINT
  5
CC1
100
AcDbEntity
  8
DEFPOINTS
  6
BYBLOCK
 62
     0
100
AcDbPoint
 10
116.0
 20
160.0
 30
0.0
  0
POINT
  5
CC2
100
AcDbEntity
  8
DEFPOINTS
  6
BYBLOCK
 62
     0
100
AcDbPoint
 10
100.0
 20
95.000048
 30
0.0
  0
POINT
  5
CC3
100
AcDbEntity
  8
DEFPOINTS
  6
BYBLOCK
 62
     0
100
AcDbPoint
 10
135.747722
 20
95.000048
 30
0.0
  0
ENDBLK
  5
CC4
100
AcDbEntity
  8
0
100
AcDbBlockEnd
  0
BLOCK
  5
CC5
100
AcDbEntity
  8
0
100
AcDbBlockBegin
  2
*D14
 70
    65
 10
0.0
 20
0.0
 30
0.0
  3
*D14
  1

  0
LINE
  5
CC6
100
AcDbEntity
  8
0
  6
BYBLOCK
 62
     0
100
AcDbLine
 10
79.47
 20
173.0
 30
0.0
 11
56.313716
 21
173.0
 31
0.0
  0
LINE
  5
CC7
100
AcDbEntity
  8
0
  6
BYBLOCK
 62
     0
100
AcDbLine
 10
92.032557
 20
160.0
 30
0.0
 11
56.313716
 21
160.0
 31
0.0
  0
LINE
  5
CC8
100
AcDbEntity
  8
0
  6
BYBLOCK
 62
     0
100
AcDbLine
 10
57.363716
 20
175.6
 30
0.0
 11
57.363716
 21
178.2
 31
0.0
  0
LINE
  5
CC9
100
AcDbEntity
  8
0
  6
BYBLOCK
 62
     0
100
AcDbLine
 10
57.363716
 20
157.4
 30
0.0
 11
57.363716
 21
154.8
 31
0.0
  0
LINE
  5
CCA
100
AcDbEntity
  8
0
  6
BYBLOCK
 62
     0
100
AcDbLine
 10
57.363716
 20
173.0
 30
0.0
 11
57.363716
 21
160.0
 31
0.0
  0
SOLID
  5
CCB
100
AcDbEntity
  8
0
  6
BYBLOCK
 62
     0
100
AcDbTrace
 10
56.930383
 20
175.6
 30
0.0
 11
57.79705
 21
175.6
 31
0.0
 12
57.363716
 22
173.0
 32
0.0
 13
57.363716
 23
173.0
 33
0.0
  0
SOLID
  5
CCC
100
AcDbEntity
  8
0
  6
BYBLOCK
 62
     0
100
AcDbTrace
 10
56.930383
 20
157.4
 30
0.0
 11
57.79705
 21
157.4
 31
0.0
 12
57.363716
 22
160.0
 32
0.0
 13
57.363716
 23
160.0
 33
0.0
  0
MTEXT
  5
CCD
100
AcDbEntity
  8
0
  6
BYBLOCK
 62
     0
100
AcDbMText
 10
53.864615
 20
166.5
 30
0.0
 40
2.6
 41
0.0
 71
     5
 72
     1
  1
\A1;13\S+0.20^  0.00;
 11
0.0
 21
1.0
 31
0.0
  0
POINT
  5
CCE
100
AcDbEntity
  8
DEFPOINTS
  6
BYBLOCK
 62
     0
100
AcDbPoint
 10
80.0
 20
173.0
 30
0.0
  0
POINT
  5
CCF
100
AcDbEntity
  8
DEFPOINTS
  6
BYBLOCK
 62
     0
100
AcDbPoint
 10
92.562557
 20
160.0
 30
0.0
  0
POINT
  5
CD0
100
AcDbEntity
  8
DEFPOINTS
  6
BYBLOCK
 62
     0
100
AcDbPoint
 10
57.363716
 20
160.0
 30
0.0
  0
ENDBLK
  5
CD1
100
AcDbEntity
  8
0
100
AcDbBlockEnd
  0
BLOCK
  5
CD2
100
AcDbEntity
  8
0
100
AcDbBlockBegin
  2
*D15
 70
    65
 10
0.0
 20
0.0
 30
0.0
  3
*D15
  1

  0
LINE
  5
CD3
100
AcDbEntity
  8
0
  6
BYBLOCK
 62
     0
100
AcDbLine
 10
116.53
 20
160.0
 30
0.0
 11
126.310982
 21
160.0
 31
0.0
  0
LINE
  5
CD4
100
AcDbEntity
  8
0
  6
BYBLOCK
 62
     0
100
AcDbLine
 10
93.53
 20
165.0
 30
0.0
 11
126.310982
 21
165.0
 31
0.0
  0
LINE
  5
CD5
100
AcDbEntity
  8
0
  6
BYBLOCK
 62
     0
100
AcDbLine
 10
125.260982
 20
157.4
 30
0.0
 11
125.260982
 21
154.8
 31
0.0
  0
LINE
  5
CD6
100
AcDbEntity
  8
0
  6
BYBLOCK
 62
     0
100
AcDbLine
 10
125.260982
 20
167.6
 30
0.0
 11
125.260982
 21
170.2
 31
0.0
  0
LINE
  5
CD7
100
AcDbEntity
  8
0
  6
BYBLOCK
 62
     0
100
AcDbLine
 10
125.260982
 20
160.0
 30
0.0
 11
125.260982
 21
165.0
 31
0.0
  0
SOLID
  5
CD8
100
AcDbEntity
  8
0
  6
BYBLOCK
 62
     0
100
AcDbTrace
 10
124.827649
 20
157.4
 30
0.0
 11
125.694316
 21
157.4
 31
0.0
 12
125.260982
 22
160.0
 32
0.0
 13
125.260982
 23
160.0
 33
0.0
  0
SOLID
  5
CD9
100
AcDbEntity
  8
0
  6
BYBLOCK
 62
     0
100
AcDbTrace
 10
124.827649
 20
167.6
 30
0.0
 11
125.694316
 21
167.6
 31
0.0
 12
125.260982
 22
165.0
 32
0.0
 13
125.260982
 23
165.0
 33
0.0
  0
MTEXT
  5
CDA
100
AcDbEntity
  8
0
  6
BYBLOCK
 62
     0
100
AcDbMText
 10
123.430982
 20
162.5
 30
0.0
 40
2.6
 41
0.0
 71
     5
 72
     1
  1
\A1;5
 11
0.0
 21
1.0
 31
0.0
  0
POINT
  5
CDB
100
AcDbEntity
  8
DEFPOINTS
  6
BYBLOCK
 62
     0
100
AcDbPoint
 10
116.0
 20
160.0
 30
0.0
  0
POINT
  5
CDC
100
AcDbEntity
  8
DEFPOINTS
  6
BYBLOCK
 62
     0
100
AcDbPoint
 10
93.0
 20
165.0
 30
0.0
  0
POINT
  5
CDD
100
AcDbEntity
  8
DEFPOINTS
  6
BYBLOCK
 62
     0
100
AcDbPoint
 10
125.260982
 20
165.0
 30
0.0
  0
ENDBLK
  5
CDE
100
AcDbEntity
  8
0
100
AcDbBlockEnd
  0
BLOCK
  5
CDF
100
AcDbEntity
  8
0
100
AcDbBlockBegin
  2
*D16
 70
    65
 10
0.0
 20
0.0
 30
0.0
  3
*D16
  1

  0
LINE
  5
CE0
100
AcDbEntity
  8
0
  6
BYBLOCK
 62
     0
100
AcDbLine
 10
79.47
 20
190.0
 30
0.0
 11
46.893416
 21
190.0
 31
0.0
  0
LINE
  5
CE1
100
AcDbEntity
  8
0
  6
BYBLOCK
 62
     0
100
AcDbLine
 10
99.47
 20
95.000048
 30
0.0
 11
46.893416
 21
95.000048
 31
0.0
  0
LINE
  5
CE2
100
AcDbEntity
  8
0
  6
BYBLOCK
 62
     0
100
AcDbLine
 10
47.943416
 20
187.4
 30
0.0
 11
47.943416
 21
97.600048
 31
0.0
  0
SOLID
  5
CE3
100
AcDbEntity
  8
0
  6
BYBLOCK
 62
     0
100
AcDbTrace
 10
47.510083
 20
187.4
 30
0.0
 11
48.37675
 21
187.4
 31
0.0
 12
47.943416
 22
190.0
 32
0.0
 13
47.943416
 23
190.0
 33
0.0
  0
SOLID
  5
CE4
100
AcDbEntity
  8
0
  6
BYBLOCK
 62
     0
100
AcDbTrace
 10
47.510083
 20
97.600048
 30
0.0
 11
48.37675
 21
97.600048
 31
0.0
 12
47.943416
 22
95.000048
 32
0.0
 13
47.943416
 23
95.000048
 33
0.0
  0
MTEXT
  5
CE5
100
AcDbEntity
  8
0
  6
BYBLOCK
 62
     0
100
AcDbMText
 10
46.113416
 20
142.500024
 30
0.0
 40
2.6
 41
0.0
 71
     5
 72
     1
  1
\A1;95
 11
0.0
 21
1.0
 31
0.0
  0
POINT
  5
CE6
100
AcDbEntity
  8
DEFPOINTS
  6
BYBLOCK
 62
     0
100
AcDbPoint
 10
80.0
 20
190.0
 30
0.0
  0
POINT
  5
CE7
100
AcDbEntity
  8
DEFPOINTS
  6
BYBLOCK
 62
     0
100
AcDbPoint
 10
100.0
 20
95.000048
 30
0.0
  0
POINT
  5
CE8
100
AcDbEntity
  8
DEFPOINTS
  6
BYBLOCK
 62
     0
100
AcDbPoint
 10
47.943416
 20
95.000048
 30
0.0
  0
ENDBLK
  5
CE9
100
AcDbEntity
  8
0
100
AcDbBlockEnd
  0
BLOCK
  5
CEA
100
AcDbEntity
  8
0
100
AcDbBlockBegin
  2
*D17
 70
    65
 10
0.0
 20
0.0
 30
0.0
  3
*D17
  1

  0
LINE
  5
CEB
100
AcDbEntity
  8
0
  6
BYBLOCK
 62
     0
100
AcDbLine
 10
91.901174
 20
111.719103
 30
0.0
 11
92.239899
 21
110.644803
 31
0.0
  0
LINE
  5
CEC
100
AcDbEntity
  8
0
  6
BYBLOCK
 62
     0
100
AcDbLine
 10
93.182483
 20
103.748611
 30
0.0
 11
90.354588
 21
98.316274
 31
0.0
  0
ARC
  5
CED
100
AcDbEntity
  8
0
  6
BYBLOCK
 62
     0
100
AcDbCircle
 10
93.949619
 20
105.222265
 30
0.0
 40
6.735689
100
AcDbArc
 50
129.756034
 51
220.243966
  0
SOLID
  5
CEE
100
AcDbEntity
  8
0
  6
BYBLOCK
 62
     0
100
AcDbTrace
 10
89.434392
 20
110.780848
 30
0.0
 11
89.84963
 21
110.020133
 31
0.0
 12
91.924158
 22
111.646205
 32
0.0
 13
91.924158
 23
111.646205
 33
0.0
  0
SOLID
  5
CEF
100
AcDbEntity
  8
0
  6
BYBLOCK
 62
     0
100
AcDbTrace
 10
89.078777
 20
101.209243
 30
0.0
 11
88.537751
 21
100.532189
 31
0.0
 12
90.839424
 22
99.247636
 32
0.0
 13
90.839424
 23
99.247636
 33
0.0
  0
MTEXT
  5
CF0
100
AcDbEntity
  8
0
  6
BYBLOCK
 62
     0
100
AcDbMText
 10
85.416525
 20
105.968814
 30
0.0
 40
2.6
 41
0.0
 71
     5
 72
     1
  1
\A1;135°
 11
0.087156
 21
0.996195
 31
0.0
  0
POINT
  5
CF1
100
AcDbEntity
  8
DEFPOINTS
  6
BYBLOCK
 62
     0
100
AcDbPoint
 10
87.97499
 20
108.33246
 30
0.0
  0
POINT
  5
CF2
100
AcDbEntity
  8
DEFPOINTS
  6
BYBLOCK
 62
     0
100
AcDbPoint
 10
93.42721
 20
104.218726
 30
0.0
  0
POINT
  5
CF3
100
AcDbEntity
  8
DEFPOINTS
  6
BYBLOCK
 62
     0
100
AcDbPoint
 10
91.7418
 20
112.224573
 30
0.0
  0
POINT
  5
CF4
100
AcDbEntity
  8
DEFPOINTS
  6
BYBLOCK
 62
     0
100
AcDbPoint
 10
80.0
 20
149.464804
 30
0.0
  0
POINT
  5
CF5
100
AcDbEntity
  8
DEFPOINTS
  6
BYBLOCK
 62
     0
100
AcDbPoint
 10
93.949619
 20
105.222265
 30
0.0
  0
ENDBLK
  5
CF6
100
AcDbEntity
  8
0
100
AcDbBlockEnd
  0
BLOCK
  5
CF7
100
AcDbEntity
  8
0
100
AcDbBlockBegin
  2
*D18
 70
    65
 10
0.0
 20
0.0
 30
0.0
  3
*D18
  1

  0
LINE
  5
CF8
100
AcDbEntity
  8
0
  6
BYBLOCK
 62
     0
100
AcDbLine
 10
106.817517
 20
103.748611
 30
0.0
 11
109.513928
 21
98.568852
 31
0.0
  0
LINE
  5
CF9
100
AcDbEntity
  8
0
  6
BYBLOCK
 62
     0
100
AcDbLine
 10
108.098826
 20
111.719103
 30
0.0
 11
107.674474
 21
110.37323
 31
0.0
  0
ARC
  5
CFA
100
AcDbEntity
  8
0
  6
BYBLOCK
 62
     0
100
AcDbCircle
 10
106.050381
 20
105.222265
 30
0.0
 40
6.450937
100
AcDbArc
 50
320.751848
 51
49.248152
  0
SOLID
  5
CFB
100
AcDbEntity
  8
0
  6
BYBLOCK
 62
     0
100
AcDbTrace
 10
111.319516
 20
100.804721
 30
0.0
 11
110.772626
 21
101.477047
 31
0.0
 12
109.029092
 22
99.500214
 32
0.0
 13
109.029092
 23
99.500214
 33
0.0
  0
SOLID
  5
CFC
100
AcDbEntity
  8
0
  6
BYBLOCK
 62
     0
100
AcDbTrace
 10
110.050534
 20
109.730593
 30
0.0
 11
110.472367
 21
110.487672
 31
0.0
 12
107.990215
 22
111.374632
 32
0.0
 13
107.990215
 23
111.374632
 33
0.0
  0
MTEXT
  5
CFD
100
AcDbEntity
  8
0
  6
BYBLOCK
 62
     0
100
AcDbMText
 10
114.299806
 20
105.943996
 30
0.0
 40
2.6
 41
0.0
 71
     5
 72
     1
  1
\A1;135°
 11
0.087156
 21
-0.996195
 31
0.0
  0
POINT
  5
CFE
100
AcDbEntity
  8
DEFPOINTS
  6
BYBLOCK
 62
     0
100
AcDbPoint
 10
112.202749
 20
103.282431
 30
0.0
  0
POINT
  5
CFF
100
AcDbEntity
  8
DEFPOINTS
  6
BYBLOCK
 62
     0
100
AcDbPoint
 10
108.2582
 20
112.224573
 30
0.0
  0
POINT
  5
D00
100
AcDbEntity
  8
DEFPOINTS
  6
BYBLOCK
 62
     0
100
AcDbPoint
 10
106.57279
 20
104.218726
 30
0.0
  0
POINT
  5
D01
100
AcDbEntity
  8
DEFPOINTS
  6
BYBLOCK
 62
     0
100
AcDbPoint
 10
106.050381
 20
105.222265
 30
0.0
  0
POINT
  5
D02
100
AcDbEntity
  8
DEFPOINTS
  6
BYBLOCK
 62
     0
100
AcDbPoint
 10
116.0
 20
136.778424
 30
0.0
  0
ENDBLK
  5
D03
100
AcDbEntity
  8
0
100
AcDbBlockEnd
  0
BLOCK
  5
D04
100
AcDbEntity
  8
0
100
AcDbBlockBegin
  2
*D19
 70
    65
 10
0.0
 20
0.0
 30
0.0
  3
*D19
  1

  0
LINE
  5
D05
100
AcDbEntity
  8
0
  6
BYBLOCK
 62
     0
100
AcDbLine
 10
19.962526
 20
54.359103
 30
0.0
 11
19.962526
 21
64.202465
 31
0.0
  0
LINE
  5
D06
100
AcDbEntity
  8
0
  6
BYBLOCK
 62
     0
100
AcDbLine
 10
67.984518
 20
54.233241
 30
0.0
 11
67.984518
 21
64.202465
 31
0.0
  0
LINE
  5
D07
100
AcDbEntity
  8
0
  6
BYBLOCK
 62
     0
100
AcDbLine
 10
22.562526
 20
63.152465
 30
0.0
 11
65.384518
 21
63.152465
 31
0.0
  0
SOLID
  5
D08
100
AcDbEntity
  8
0
  6
BYBLOCK
 62
     0
100
AcDbTrace
 10
22.562526
 20
63.585798
 30
0.0
 11
22.562526
 21
62.719132
 31
0.0
 12
19.962526
 22
63.152465
 32
0.0
 13
19.962526
 23
63.152465
 33
0.0
  0
SOLID
  5
D09
100
AcDbEntity
  8
0
  6
BYBLOCK
 62
     0
100
AcDbTrace
 10
65.384518
 20
63.585798
 30
0.0
 11
65.384518
 21
62.719132
 31
0.0
 12
67.984518
 22
63.152465
 32
0.0
 13
67.984518
 23
63.152465
 33
0.0
  0
MTEXT
  5
D0A
100
AcDbEntity
  8
0
  6
BYBLOCK
 62
     0
100
AcDbMText
 10
43.973522
 20
64.982465
 30
0.0
 40
2.6
 41
0.0
 71
     5
 72
     1
  1
\A1;{835}
  0
POINT
  5
D0B
100
AcDbEntity
  8
DEFPOINTS
  6
BYBLOCK
 62
     0
100
AcDbPoint
 10
19.962526
 20
53.829103
 30
0.0
  0
POINT
  5
D0C
100
AcDbEntity
  8
DEFPOINTS
  6
BYBLOCK
 62
     0
100
AcDbPoint
 10
67.984518
 20
53.703241
 30
0.0
  0
POINT
  5
D0D
100
AcDbEntity
  8
DEFPOINTS
  6
BYBLOCK
 62
     0
100
AcDbPoint
 10
67.984518
 20
63.152465
 30
0.0
  0
ENDBLK
  5
D0E
100
AcDbEntity
  8
0
100
AcDbBlockEnd
  0
BLOCK
  5
D11
100
AcDbEntity
  8
0
100
AcDbBlockBegin
  2
*D20
 70
    65
 10
0.0
 20
0.0
 30
0.0
  3
*D20
  1

  0
LINE
  5
D12
100
AcDbEntity
  8
0
  6
BYBLOCK
 62
     0
100
AcDbLine
 10
19.432526
 20
34.829103
 30
0.0
 11
4.337878
 21
34.829103
 31
0.0
  0
ARC
  5
D13
100
AcDbEntity
  8
0
  6
BYBLOCK
 62
     0
100
AcDbCircle
 10
19.962526
 20
34.829103
 30
0.0
 40
14.574648
100
AcDbArc
 50
100.234708
 51
169.765292
  0
SOLID
  5
D14
100
AcDbEntity
  8
0
  6
BYBLOCK
 62
     0
100
AcDbTrace
 10
17.334238
 20
49.603448
 30
0.0
 11
17.411541
 21
48.740236
 31
0.0
 12
19.962526
 22
49.403751
 32
0.0
 13
19.962526
 23
49.403751
 33
0.0
  0
SOLID
  5
D15
100
AcDbEntity
  8
0
  6
BYBLOCK
 62
     0
100
AcDbTrace
 10
6.051394
 20
37.380088
 30
0.0
 11
5.188182
 21
37.457392
 31
0.0
 12
5.387878
 22
34.829103
 32
0.0
 13
5.387878
 23
34.829103
 33
0.0
  0
MTEXT
  5
D16
100
AcDbEntity
  8
0
  6
BYBLOCK
 62
     0
100
AcDbMText
 10
8.362688
 20
46.428941
 30
0.0
 40
2.6
 41
0.0
 71
     5
 72
     1
  1
\A1;90°
 11
0.707107
 21
0.707107
 31
0.0
  0
POINT
  5
D17
100
AcDbEntity
  8
DEFPOINTS
  6
BYBLOCK
 62
     0
100
AcDbPoint
 10
12.675202
 20
47.451119
 30
0.0
  0
POINT
  5
D18
100
AcDbEntity
  8
DEFPOINTS
  6
BYBLOCK
 62
     0
100
AcDbPoint
 10
19.962526
 20
34.829103
 30
0.0
  0
POINT
  5
D19
100
AcDbEntity
  8
DEFPOINTS
  6
BYBLOCK
 62
     0
100
AcDbPoint
 10
19.962526
 20
34.829103
 30
0.0
  0
POINT
  5
D1A
100
AcDbEntity
  8
DEFPOINTS
  6
BYBLOCK
 62
     0
100
AcDbPoint
 10
39.962526
 20
34.829103
 30
0.0
  0
POINT
  5
D1B
100
AcDbEntity
  8
DEFPOINTS
  6
BYBLOCK
 62
     0
100
AcDbPoint
 10
19.962526
 20
53.829103
 30
0.0
  0
ENDBLK
  5
D1C
100
AcDbEntity
  8
0
100
AcDbBlockEnd
  0
BLOCK
  5
D1F
100
AcDbEntity
  8
0
100
AcDbBlockBegin
  2
*D21
 70
    65
 10
0.0
 20
0.0
 30
0.0
  3
*D21
  1

  0
LINE
  5
D20
100
AcDbEntity
  8
0
  6
BYBLOCK
 62
     0
100
AcDbLine
 10
68.514518
 20
34.703241
 30
0.0
 11
83.324116
 21
34.703241
 31
0.0
  0
ARC
  5
D21
100
AcDbEntity
  8
0
  6
BYBLOCK
 62
     0
100
AcDbCircle
 10
67.984518
 20
34.703241
 30
0.0
 40
14.289597
100
AcDbArc
 50
10.439432
 51
79.560568
  0
SOLID
  5
D22
100
AcDbEntity
  8
0
  6
BYBLOCK
 62
     0
100
AcDbTrace
 10
82.469117
 20
37.331882
 30
0.0
 11
81.606044
 21
37.253036
 31
0.0
 12
82.274116
 22
34.703241
 32
0.0
 13
82.274116
 23
34.703241
 33
0.0
  0
SOLID
  5
D23
100
AcDbEntity
  8
0
  6
BYBLOCK
 62
     0
100
AcDbTrace
 10
70.534314
 20
48.324766
 30
0.0
 11
70.613159
 21
49.187839
 31
0.0
 12
67.984518
 22
48.992838
 32
0.0
 13
67.984518
 23
48.992838
 33
0.0
  0
MTEXT
  5
D24
100
AcDbEntity
  8
0
  6
BYBLOCK
 62
     0
100
AcDbMText
 10
79.382795
 20
46.101518
 30
0.0
 40
2.6
 41
0.0
 71
     5
 72
     1
  1
\A1;90°
 11
0.707107
 21
-0.707107
 31
0.0
  0
POINT
  5
D25
100
AcDbEntity
  8
DEFPOINTS
  6
BYBLOCK
 62
     0
100
AcDbPoint
 10
80.359673
 20
41.84804
 30
0.0
  0
POINT
  5
D26
100
AcDbEntity
  8
DEFPOINTS
  6
BYBLOCK
 62
     0
100
AcDbPoint
 10
67.984518
 20
53.703241
 30
0.0
  0
POINT
  5
D27
100
AcDbEntity
  8
DEFPOINTS
  6
BYBLOCK
 62
     0
100
AcDbPoint
 10
67.984518
 20
34.703241
 30
0.0
  0
POINT
  5
D28
100
AcDbEntity
  8
DEFPOINTS
  6
BYBLOCK
 62
     0
100
AcDbPoint
 10
43.168426
 20
34.703241
 30
0.0
  0
POINT
  5
D29
100
AcDbEntity
  8
DEFPOINTS
  6
BYBLOCK
 62
     0
100
AcDbPoint
 10
67.984518
 20
34.703241
 30
0.0
  0
ENDBLK
  5
D2A
100
AcDbEntity
  8
0
100
AcDbBlockEnd
  0
BLOCK
  5
D30
100
AcDbEntity
  8
0
100
AcDbBlockBegin
  2
*D22
 70
    65
 10
0.0
 20
0.0
 30
0.0
  3
*D22
  1

  0
LINE
  5
D31
100
AcDbEntity
  8
0
  6
BYBLOCK
 62
     0
100
AcDbLine
 10
104.609211
 20
97.991049
 30
0.0
 11
95.836168
 21
70.166512
 31
0.0
  0
LINE
  5
D32
100
AcDbEntity
  8
0
  6
BYBLOCK
 62
     0
100
AcDbLine
 10
95.390789
 20
97.991049
 30
0.0
 11
104.163832
 21
70.166512
 31
0.0
  0
ARC
  5
D33
100
AcDbEntity
  8
0
  6
BYBLOCK
 62
     0
100
AcDbCircle
 10
100.0
 20
83.3725
 30
0.0
 40
12.796863
100
AcDbArc
 50
238.465671
 51
252.5
  0
ARC
  5
D34
100
AcDbEntity
  8
0
  6
BYBLOCK
 62
     0
100
AcDbCircle
 10
100.0
 20
83.3725
 30
0.0
 40
12.796863
100
AcDbArc
 50
264.161174
 51
275.838825
  0
SOLID
  5
D35
100
AcDbEntity
  8
0
  6
BYBLOCK
 62
     0
100
AcDbTrace
 10
98.610521
 20
70.217651
 30
0.0
 11
98.785817
 21
71.066404
 31
0.0
 12
96.151909
 22
71.167915
 32
0.0
 13
96.151909
 23
71.167915
 33
0.0
  0
SOLID
  5
D36
100
AcDbEntity
  8
0
  6
BYBLOCK
 62
     0
100
AcDbTrace
 10
101.214182
 20
71.066404
 30
0.0
 11
101.389478
 21
70.217651
 31
0.0
 12
103.848091
 22
71.167915
 32
0.0
 13
103.848091
 23
71.167915
 33
0.0
  0
MTEXT
  5
D37
100
AcDbEntity
  8
0
  6
BYBLOCK
 62
     0
100
AcDbMText
 10
91.928852
 20
75.458193
 30
0.0
 40
2.6
 41
0.0
 71
     5
 72
     1
  1
\A1;35°
 11
0.852327
 21
-0.523009
 31
0.0
  0
POINT
  5
D38
100
AcDbEntity
  8
DEFPOINTS
  6
BYBLOCK
 62
     0
100
AcDbPoint
 10
101.30061
 20
70.641903
 30
0.0
  0
POINT
  5
D39
100
AcDbEntity
  8
DEFPOINTS
  6
BYBLOCK
 62
     0
100
AcDbPoint
 10
95.231415
 20
98.496519
 30
0.0
  0
POINT
  5
D3A
100
AcDbEntity
  8
DEFPOINTS
  6
BYBLOCK
 62
     0
100
AcDbPoint
 10
104.768585
 20
98.496519
 30
0.0
  0
POINT
  5
D3B
100
AcDbEntity
  8
DEFPOINTS
  6
BYBLOCK
 62
     0
100
AcDbPoint
 10
106.57279
 20
104.218726
 30
0.0
  0
POINT
  5
D3C
100
AcDbEntity
  8
DEFPOINTS
  6
BYBLOCK
 62
     0
100
AcDbPoint
 10
93.42721
 20
104.218726
 30
0.0
  0
ENDBLK
  5
D3D
100
AcDbEntity
  8
0
100
AcDbBlockEnd
  0
ENDSEC
  0
SECTION
  2
ENTITIES
  0
LINE
  5
7A
100
AcDbEntity
  8
OGGETTO
  6
CONTINUOUS
 48
2.0
100
AcDbLine
 10
93.0
 20
190.0
 30
0.0
 11
80.0
 21
190.0
 31
0.0
  0
LINE
  5
7B
100
AcDbEntity
  8
OGGETTO
  6
CONTINUOUS
 48
2.0
100
AcDbLine
 10
80.0
 20
190.0
 30
0.0
 11
80.0
 21
173.0
 31
0.0
  0
LINE
  5
7C
100
AcDbEntity
  8
OGGETTO
  6
CONTINUOUS
 48
2.0
100
AcDbLine
 10
80.0
 20
173.0
 30
0.0
 11
83.5
 21
173.0
 31
0.0
  0
LINE
  5
7D
100
AcDbEntity
  8
OGGETTO
  6
CONTINUOUS
 48
2.0
100
AcDbLine
 10
83.5
 20
173.0
 30
0.0
 11
83.5
 21
164.6
 31
0.0
  0
LINE
  5
7E
100
AcDbEntity
  8
OGGETTO
  6
CONTINUOUS
 48
2.0
100
AcDbLine
 10
83.5
 20
164.6
 30
0.0
 11
80.0
 21
164.6
 31
0.0
  0
LINE
  5
80
100
AcDbEntity
  8
OGGETTO
  6
CONTINUOUS
 48
2.0
100
AcDbLine
 10
80.0
 20
164.6
 30
0.0
 11
80.0
 21
149.464804
 31
0.0
  0
LINE
  5
81
100
AcDbEntity
  8
OGGETTO
  6
CONTINUOUS
 48
2.0
100
AcDbLine
 10
93.0
 20
190.0
 30
0.0
 11
93.0
 21
160.0
 31
0.0
  0
LINE
  5
83
100
AcDbEntity
  8
OGGETTO
  6
CONTINUOUS
 48
2.0
100
AcDbLine
 10
116.0
 20
160.0
 30
0.0
 11
93.0
 21
160.0
 31
0.0
  0
LINE
  5
84
100
AcDbEntity
  8
OGGETTO
  6
CONTINUOUS
 48
2.0
100
AcDbLine
 10
116.0
 20
160.0
 30
0.0
 11
116.0
 21
136.778424
 31
0.0
  0
LINE
  5
9A
100
AcDbEntity
  8
OGGETTO
  6
CONTINUOUS
 48
2.0
100
AcDbLine
 10
95.231415
 20
98.496519
 30
0.0
 11
93.42721
 21
104.218726
 31
0.0
  0
LINE
  5
9C
100
AcDbEntity
  8
OGGETTO
  6
CONTINUOUS
 48
2.0
100
AcDbLine
 10
104.768585
 20
98.496519
 30
0.0
 11
106.57279
 21
104.218726
 31
0.0
  0
ARC
  5
9D
100
AcDbEntity
  8
OGGETTO
  6
CONTINUOUS
 48
2.0
100
AcDbCircle
 10
100.0
 20
100.000048
 30
0.0
 40
5.0
100
AcDbArc
 50
197.5
 51
342.5
  0
ARC
  5
9E
100
AcDbEntity
  8
OGGETTO
  6
CONTINUOUS
 48
2.0
100
AcDbCircle
 10
100.0
 20
100.000048
 30
0.0
 40
5.0
100
AcDbArc
 50
197.5
 51
342.5
  0
ARC
  5
9F
100
AcDbEntity
  8
OGGETTO
  6
CONTINUOUS
 48
2.0
100
AcDbCircle
 10
100.0
 20
100.000048
 30
0.0
 40
5.0
100
AcDbArc
 50
197.499999
 51
342.499999
  0
ARC
  5
A0
100
AcDbEntity
  8
OGGETTO
  6
CONTINUOUS
 48
2.0
100
AcDbCircle
 10
100.0
 20
100.000048
 30
0.0
 40
5.0
100
AcDbArc
 50
197.5
 51
342.5
1001
ACAD
1000
ASC_BOUNDS
1002
{
1070
    19
1002
}
  0
LINE
  5
A1
100
AcDbEntity
  8
OGGETTO
  6
CONTINUOUS
 48
2.0
100
AcDbLine
 10
93.949619
 20
105.222265
 30
0.0
 11
91.7418
 21
112.224573
 31
0.0
  0
LINE
  5
A2
100
AcDbEntity
  8
OGGETTO
  6
CONTINUOUS
 48
2.0
100
AcDbLine
 10
106.050381
 20
105.222265
 30
0.0
 11
108.2582
 21
112.224573
 31
0.0
  0
LINE
  5
A3
100
AcDbEntity
  8
OGGETTO
  6
CONTINUOUS
 48
2.0
100
AcDbLine
 10
108.2582
 20
112.224573
 30
0.0
 11
116.0
 21
136.778424
 31
0.0
  0
LINE
  5
A4
100
AcDbEntity
  8
OGGETTO
  6
CONTINUOUS
 48
2.0
100
AcDbLine
 10
91.7418
 20
112.224573
 30
0.0
 11
80.0
 21
149.464804
 31
0.0
  0
LINE
  5
BF
100
AcDbEntity
  8
OGGETTO
  6
CONTINUOUS
 48
2.0
100
AcDbLine
 10
93.42721
 20
104.218726
 30
0.0
 11
93.949619
 21
105.222265
 31
0.0
  0
LINE
  5
C1
100
AcDbEntity
  8
OGGETTO
  6
CONTINUOUS
 48
2.0
100
AcDbLine
 10
106.57279
 20
104.218726
 30
0.0
 11
106.050381
 21
105.222265
 31
0.0
  0
VIEWPORT
  5
22
100
AcDbEntity
 67
     1
  8
0
100
AcDbViewport
 10
261.517699
 20
154.724298
 30
0.0
 40
523.035398
 41
309.448596
 68
    -1
 69
     1
1001
ACAD
1000
MVIEW
1002
{
1070
    16
1010
0.0
1020
0.0
1030
0.0
1010
0.0
1020
0.0
1030
1.0
1040
0.0
1040
309.448596
1040
261.517699
1040
154.724298
1040
50.0
1040
0.0
1040
0.0
1070
     0
1070
   100
1070
     1
1070
     0
1070
     0
1070
     0
1070
     0
1070
     0
1040
0.0
1040
0.0
1040
0.0
1040
1.0
1040
1.0
1040
10.0
1040
10.0
1070
     0
1002
{
1002
}
1002
}
  0
ENDSEC
  0
SECTION
  2
OBJECTS
  0
DICTIONARY
  5
C
100
AcDbDictionary
  3
ACAD_GROUP
350
D
  3
ACAD_MLINESTYLE
350
E
  0
DICTIONARY
  5
D
102
{ACAD_REACTORS
330
C
102
}
100
AcDbDictionary
  0
DICTIONARY
  5
E
102
{ACAD_REACTORS
330
C
102
}
100
AcDbDictionary
  3
STANDARD
350
13
  0
MLINESTYLE
  5
13
102
{ACAD_REACTORS
330
E
102
}
100
AcDbMlineStyle
  2
STANDARD
 70
     0
  3

 62
     0
 51
90.0
 52
90.0
 71
     2
 49
0.5
 62
   256
  6
BYLAYER
 49
-0.5
 62
   256
  6
BYLAYER
  0
ENDSEC
  0
EOF
