  0
SECTION
  2
HEADER
  9
$ACADVER
  1
AC1012
  9
$DWGCODEPAGE
  3
iso8859-1
  9
$INSBASE
 10
0.0
 20
0.0
 30
0.0
  9
$EXTMIN
 10
7.0
 20
5.0
 30
0.0
  9
$EXTMAX
 10
202.0
 20
288.0
 30
0.0
  9
$LIMMIN
 10
0.0
 20
0.0
  9
$LIMMAX
 10
210.0
 20
297.0
  9
$ORTHOMODE
 70
     0
  9
$REGENMODE
 70
     1
  9
$FILLMODE
 70
     1
  9
$QTEXTMODE
 70
     0
  9
$MIRRTEXT
 70
     1
  9
$DRAGMODE
 70
     2
  9
$LTSCALE
 40
1.0
  9
$OSMODE
 70
     0
  9
$ATTMODE
 70
     1
  9
$TEXTSIZE
 40
2.0
  9
$TRACEWID
 40
0.05
  9
$TEXTSTYLE
  7
STYLE3
  9
$CLAYER
  8
QUOTE
  9
$CELTYPE
  6
BYLAYER
  9
$CECOLOR
 62
   256
  9
$CELTSCALE
 40
1.0
  9
$DELOBJ
 70
     1
  9
$DISPSILH
 70
     0
  9
$DIMSCALE
 40
1.0
  9
$DIMASZ
 40
2.5
  9
$DIMEXO
 40
0.625
  9
$DIMDLI
 40
3.75
  9
$DIMRND
 40
0.0
  9
$DIMDLE
 40
0.0
  9
$DIMEXE
 40
1.25
  9
$DIMTP
 40
0.0
  9
$DIMTM
 40
0.0
  9
$DIMTXT
 40
3.0
  9
$DIMCEN
 40
2.5
  9
$DIMTSZ
 40
0.0
  9
$DIMTOL
 70
     0
  9
$DIMLIM
 70
     0
  9
$DIMTIH
 70
     0
  9
$DIMTOH
 70
     0
  9
$DIMSE1
 70
     0
  9
$DIMSE2
 70
     0
  9
$DIMTAD
 70
     1
  9
$DIMZIN
 70
     8
  9
$DIMBLK
  1

  9
$DIMASO
 70
     1
  9
$DIMSHO
 70
     1
  9
$DIMPOST
  1

  9
$DIMAPOST
  1

  9
$DIMALT
 70
     0
  9
$DIMALTD
 70
     2
  9
$DIMALTF
 40
0.03937
  9
$DIMLFAC
 40
1.0
  9
$DIMTOFL
 70
     0
  9
$DIMTVP
 40
0.0
  9
$DIMTIX
 70
     0
  9
$DIMSOXD
 70
     0
  9
$DIMSAH
 70
     0
  9
$DIMBLK1
  1

  9
$DIMBLK2
  1

  9
$DIMSTYLE
  2
STANDARD
  9
$DIMCLRD
 70
     0
  9
$DIMCLRE
 70
     0
  9
$DIMCLRT
 70
     0
  9
$DIMTFAC
 40
1.0
  9
$DIMGAP
 40
0.625
  9
$DIMJUST
 70
     0
  9
$DIMSD1
 70
     0
  9
$DIMSD2
 70
     0
  9
$DIMTOLJ
 70
     1
  9
$DIMTZIN
 70
     8
  9
$DIMALTZ
 70
     0
  9
$DIMALTTZ
 70
     0
  9
$DIMFIT
 70
     3
  9
$DIMUPT
 70
     0
  9
$DIMUNIT
 70
     2
  9
$DIMDEC
 70
     2
  9
$DIMTDEC
 70
     2
  9
$DIMALTU
 70
     2
  9
$DIMALTTD
 70
     2
  9
$DIMTXSTY
  7
STANDARD
  9
$DIMAUNIT
 70
     0
  9
$LUNITS
 70
     2
  9
$LUPREC
 70
     4
  9
$SKETCHINC
 40
0.1
  9
$FILLETRAD
 40
3.0
  9
$AUNITS
 70
     0
  9
$AUPREC
 70
     0
  9
$MENU
  1
acad
  9
$ELEVATION
 40
0.0
  9
$PELEVATION
 40
0.0
  9
$THICKNESS
 40
0.0
  9
$LIMCHECK
 70
     0
  9
$BLIPMODE
 70
     1
  9
$CHAMFERA
 40
0.0
  9
$CHAMFERB
 40
0.0
  9
$CHAMFERC
 40
20.0
  9
$CHAMFERD
 40
0.0
  9
$SKPOLY
 70
     0
  9
$TDCREATE
 40
2451675.687132523
  9
$TDUPDATE
 40
2452261.403940741
  9
$TDINDWG
 40
0.0695659722
  9
$TDUSRTIMER
 40
0.0695659722
  9
$USRTIMER
 70
     1
  9
$ANGBASE
 50
0.0
  9
$ANGDIR
 70
     0
  9
$PDMODE
 70
     0
  9
$PDSIZE
 40
0.0
  9
$PLINEWID
 40
0.0
  9
$COORDS
 70
     1
  9
$SPLFRAME
 70
     0
  9
$SPLINETYPE
 70
     6
  9
$SPLINESEGS
 70
     8
  9
$ATTDIA
 70
     0
  9
$ATTREQ
 70
     1
  9
$HANDLING
 70
     1
  9
$HANDSEED
  5
741
  9
$SURFTAB1
 70
     6
  9
$SURFTAB2
 70
     6
  9
$SURFTYPE
 70
     6
  9
$SURFU
 70
     6
  9
$SURFV
 70
     6
  9
$UCSNAME
  2

  9
$UCSORG
 10
0.0
 20
0.0
 30
0.0
  9
$UCSXDIR
 10
1.0
 20
0.0
 30
0.0
  9
$UCSYDIR
 10
0.0
 20
1.0
 30
0.0
  9
$PUCSNAME
  2

  9
$PUCSORG
 10
0.0
 20
0.0
 30
0.0
  9
$PUCSXDIR
 10
1.0
 20
0.0
 30
0.0
  9
$PUCSYDIR
 10
0.0
 20
1.0
 30
0.0
  9
$USERI1
 70
     0
  9
$USERI2
 70
     0
  9
$USERI3
 70
     0
  9
$USERI4
 70
     0
  9
$USERI5
 70
     0
  9
$USERR1
 40
0.0
  9
$USERR2
 40
0.0
  9
$USERR3
 40
0.0
  9
$USERR4
 40
0.0
  9
$USERR5
 40
0.0
  9
$WORLDVIEW
 70
     1
  9
$SHADEDGE
 70
     3
  9
$SHADEDIF
 70
    70
  9
$TILEMODE
 70
     1
  9
$MAXACTVP
 70
    16
  9
$PINSBASE
 10
0.0
 20
0.0
 30
0.0
  9
$PLIMCHECK
 70
     0
  9
$PEXTMIN
 10
1.000000E+20
 20
1.000000E+20
 30
1.000000E+20
  9
$PEXTMAX
 10
-1.000000E+20
 20
-1.000000E+20
 30
-1.000000E+20
  9
$PLIMMIN
 10
0.0
 20
0.0
  9
$PLIMMAX
 10
12.0
 20
9.0
  9
$UNITMODE
 70
     0
  9
$VISRETAIN
 70
     0
  9
$PLINEGEN
 70
     0
  9
$PSLTSCALE
 70
     1
  9
$TREEDEPTH
 70
  3020
  9
$PICKSTYLE
 70
     1
  9
$CMLSTYLE
  2
STANDARD
  9
$CMLJUST
 70
     0
  9
$CMLSCALE
 40
20.0
  9
$SAVEIMAGES
 70
     0
  0
ENDSEC
  0
SECTION
  2
CLASSES
  0
ENDSEC
  0
SECTION
  2
TABLES
  0
TABLE
  2
VPORT
  5
8
100
AcDbSymbolTable
 70
     2
  0
VPORT
  5
740
100
AcDbSymbolTableRecord
100
AcDbViewportTableRecord
  2
*ACTIVE
 70
     0
 10
0.0
 20
0.0
 11
1.0
 21
1.0
 12
106.673641
 22
155.079603
 13
0.0
 23
0.0
 14
10.0
 24
10.0
 15
10.0
 25
10.0
 16
0.0
 26
0.0
 36
1.0
 17
0.0
 27
0.0
 37
0.0
 40
282.972131
 41
1.873134
 42
50.0
 43
0.0
 44
0.0
 50
0.0
 51
0.0
 71
     0
 72
   100
 73
     1
 74
     0
 75
     0
 76
     0
 77
     0
 78
     0
  0
ENDTAB
  0
TABLE
  2
LTYPE
  5
5
100
AcDbSymbolTable
 70
     4
  0
LTYPE
  5
13
100
AcDbSymbolTableRecord
100
AcDbLinetypeTableRecord
  2
BYBLOCK
 70
     0
  3

 72
    65
 73
     0
 40
0.0
  0
LTYPE
  5
14
100
AcDbSymbolTableRecord
100
AcDbLinetypeTableRecord
  2
BYLAYER
 70
     0
  3

 72
    65
 73
     0
 40
0.0
  0
LTYPE
  5
15
100
AcDbSymbolTableRecord
100
AcDbLinetypeTableRecord
  2
CONTINUOUS
 70
    64
  3
Solid line
 72
    65
 73
     0
 40
0.0
  0
LTYPE
  5
94
100
AcDbSymbolTableRecord
100
AcDbLinetypeTableRecord
  2
ACAD_ISO04W100
 70
    64
  3
____ . ____ . ____ . ____ . ____ . ____ . ____ 
 72
    65
 73
     4
 40
30.5
 49
24.0
 74
     0
 49
-3.0
 74
     0
 49
0.5
 74
     0
 49
-3.0
 74
     0
  0
LTYPE
  5
225
100
AcDbSymbolTableRecord
100
AcDbLinetypeTableRecord
  2
TRATTEGGIATAX2
 70
    64
  3
____  ____  ____  ____  ____  ____  ____  ____ 
 72
    65
 73
     2
 40
1.5
 49
1.0
 74
     0
 49
-0.5
 74
     0
  0
LTYPE
  5
226
100
AcDbSymbolTableRecord
100
AcDbLinetypeTableRecord
  2
NASCOSTA
 70
    64
  3
__ __ __ __ __ __ __ __ __ __ __ __ __ __ __ __
 72
    65
 73
     2
 40
0.375
 49
0.25
 74
     0
 49
-0.125
 74
     0
  0
ENDTAB
  0
TABLE
  2
LAYER
  5
2
100
AcDbSymbolTable
 70
    10
  0
LAYER
  5
F
100
AcDbSymbolTableRecord
100
AcDbLayerTableRecord
  2
0
 70
     0
 62
     7
  6
CONTINUOUS
  0
LAYER
  5
95
100
AcDbSymbolTableRecord
100
AcDbLayerTableRecord
  2
DISEGNO
 70
    64
 62
     7
  6
CONTINUOUS
  0
LAYER
  5
96
100
AcDbSymbolTableRecord
100
AcDbLayerTableRecord
  2
ASSI
 70
    64
 62
     1
  6
ACAD_ISO04W100
  0
LAYER
  5
97
100
AcDbSymbolTableRecord
100
AcDbLayerTableRecord
  2
SEZIONE
 70
    64
 62
     3
  6
CONTINUOUS
  0
LAYER
  5
98
100
AcDbSymbolTableRecord
100
AcDbLayerTableRecord
  2
TEMPRA
 70
    64
 62
     2
  6
CONTINUOUS
  0
LAYER
  5
99
100
AcDbSymbolTableRecord
100
AcDbLayerTableRecord
  2
QUOTE
 70
    64
 62
     5
  6
CONTINUOUS
  0
LAYER
  5
9A
100
AcDbSymbolTableRecord
100
AcDbLayerTableRecord
  2
FOGLIO
 70
    64
 62
     8
  6
CONTINUOUS
  0
LAYER
  5
1A3
100
AcDbSymbolTableRecord
100
AcDbLayerTableRecord
  2
TRATTO
 70
    64
 62
     6
  6
NASCOSTA
  0
LAYER
  5
281
100
AcDbSymbolTableRecord
100
AcDbLayerTableRecord
  2
DEFPOINTS
 70
    64
 62
     7
  6
CONTINUOUS
  0
LAYER
  5
4F7
100
AcDbSymbolTableRecord
100
AcDbLayerTableRecord
  2
TESTO
 70
    64
 62
     6
  6
CONTINUOUS
  0
ENDTAB
  0
TABLE
  2
STYLE
  5
3
100
AcDbSymbolTable
 70
     2
  0
STYLE
  5
10
100
AcDbSymbolTableRecord
100
AcDbTextStyleTableRecord
  2
STANDARD
 70
    64
 40
0.0
 41
1.1
 50
0.0
 71
     0
 42
2.0
  3
C:\Programmi\AutoCAD LT\isocp.shx
  4

  0
STYLE
  5
B0
100
AcDbSymbolTableRecord
100
AcDbTextStyleTableRecord
  2
STYLE3
 70
    64
 40
0.0
 41
1.5
 50
0.0
 71
     0
 42
4.0
  3
C:\Programmi\AutoCAD LT\isocp3.shx
  4

  0
ENDTAB
  0
TABLE
  2
VIEW
  5
6
100
AcDbSymbolTable
 70
     0
  0
ENDTAB
  0
TABLE
  2
UCS
  5
7
100
AcDbSymbolTable
 70
     0
  0
ENDTAB
  0
TABLE
  2
APPID
  5
9
100
AcDbSymbolTable
 70
     1
  0
APPID
  5
11
100
AcDbSymbolTableRecord
100
AcDbRegAppTableRecord
  2
ACAD
 70
     0
  0
ENDTAB
  0
TABLE
  2
DIMSTYLE
  5
A
100
AcDbSymbolTable
 70
    14
  0
DIMSTYLE
105
1D
100
AcDbSymbolTableRecord
100
AcDbDimStyleTableRecord
  2
STANDARD
 70
     0
  3

  4

  5

  6

  7

 40
1.0
 41
2.5
 42
0.625
 43
3.75
 44
1.25
 45
0.0
 46
0.0
 47
0.0
 48
0.0
140
3.0
141
2.5
142
0.0
143
0.03937
144
1.0
145
0.0
146
1.0
147
0.625
 71
     0
 72
     0
 73
     0
 74
     0
 75
     0
 76
     0
 77
     1
 78
     8
170
     0
171
     2
172
     0
173
     0
174
     0
175
     0
176
     0
177
     0
178
     0
270
     2
271
     2
272
     2
273
     2
274
     2
340
10
275
     0
280
     0
281
     0
282
     0
283
     1
284
     8
285
     0
286
     0
287
     3
288
     0
  0
DIMSTYLE
105
198
100
AcDbSymbolTableRecord
100
AcDbDimStyleTableRecord
  2
TOLL-06
 70
     0
  3

  4

  5

  6

  7

 40
1.0
 41
2.5
 42
0.625
 43
3.75
 44
1.25
 45
0.0
 46
0.0
 47
-0.05
 48
0.0
140
3.0
141
2.5
142
0.0
143
0.03937
144
1.0
145
0.0
146
0.8
147
0.625
 71
     1
 72
     0
 73
     0
 74
     0
 75
     0
 76
     0
 77
     1
 78
     8
170
     0
171
     2
172
     0
173
     0
174
     0
175
     0
176
     0
177
     0
178
     0
270
     2
271
     2
272
     2
273
     2
274
     2
340
10
275
     0
280
     0
281
     0
282
     0
283
     2
284
     8
285
     0
286
     0
287
     3
288
     0
  0
DIMSTYLE
105
20B
100
AcDbSymbolTableRecord
100
AcDbDimStyleTableRecord
  2
TOLL-01
 70
     0
  3

  4

  5

  6

  7

 40
1.0
 41
2.5
 42
0.625
 43
3.75
 44
1.25
 45
0.0
 46
0.0
 47
0.02
 48
0.0
140
3.0
141
2.5
142
0.0
143
0.03937
144
1.0
145
0.0
146
0.8
147
0.625
 71
     1
 72
     0
 73
     0
 74
     0
 75
     0
 76
     0
 77
     1
 78
     8
170
     0
171
     2
172
     0
173
     0
174
     0
175
     0
176
     0
177
     0
178
     0
270
     2
271
     2
272
     2
273
     2
274
     2
340
10
275
     0
280
     0
281
     0
282
     0
283
     2
284
     8
285
     0
286
     0
287
     3
288
     0
  0
DIMSTYLE
105
232
100
AcDbSymbolTableRecord
100
AcDbDimStyleTableRecord
  2
TOLL-02
 70
     0
  3

  4

  5

  6

  7

 40
1.0
 41
2.5
 42
0.625
 43
3.75
 44
1.25
 45
0.0
 46
0.0
 47
-0.02
 48
0.0
140
3.0
141
2.5
142
0.0
143
0.03937
144
1.0
145
0.0
146
0.8
147
0.625
 71
     1
 72
     0
 73
     0
 74
     0
 75
     0
 76
     0
 77
     1
 78
     8
170
     0
171
     2
172
     0
173
     0
174
     0
175
     0
176
     0
177
     0
178
     0
270
     2
271
     2
272
     2
273
     2
274
     2
340
10
275
     0
280
     0
281
     0
282
     0
283
     2
284
     8
285
     0
286
     0
287
     3
288
     0
  0
DIMSTYLE
105
233
100
AcDbSymbolTableRecord
100
AcDbDimStyleTableRecord
  2
TOLL-03
 70
     0
  3

  4

  5

  6

  7

 40
1.0
 41
2.5
 42
0.625
 43
3.75
 44
1.25
 45
0.0
 46
0.0
 47
0.01
 48
0.01
140
3.0
141
2.5
142
0.0
143
0.03937
144
1.0
145
0.0
146
0.8
147
0.625
 71
     1
 72
     0
 73
     0
 74
     0
 75
     0
 76
     0
 77
     1
 78
     8
170
     0
171
     2
172
     0
173
     0
174
     0
175
     0
176
     0
177
     0
178
     0
270
     2
271
     2
272
     2
273
     2
274
     2
340
10
275
     0
280
     0
281
     0
282
     0
283
     2
284
     8
285
     0
286
     0
287
     3
288
     0
  0
DIMSTYLE
105
234
100
AcDbSymbolTableRecord
100
AcDbDimStyleTableRecord
  2
TOLL-04
 70
     0
  3

  4

  5

  6

  7

 40
1.0
 41
2.5
 42
0.625
 43
3.75
 44
1.25
 45
0.0
 46
0.0
 47
0.05
 48
0.05
140
3.0
141
2.5
142
0.0
143
0.03937
144
1.0
145
0.0
146
0.8
147
0.625
 71
     1
 72
     0
 73
     0
 74
     0
 75
     0
 76
     0
 77
     1
 78
     8
170
     0
171
     2
172
     0
173
     0
174
     0
175
     0
176
     0
177
     0
178
     0
270
     2
271
     2
272
     2
273
     2
274
     2
340
10
275
     0
280
     0
281
     0
282
     0
283
     2
284
     8
285
     0
286
     0
287
     3
288
     0
  0
DIMSTYLE
105
235
100
AcDbSymbolTableRecord
100
AcDbDimStyleTableRecord
  2
TOLL-05
 70
     0
  3

  4

  5

  6

  7

 40
1.0
 41
2.5
 42
0.625
 43
3.75
 44
1.25
 45
0.0
 46
0.0
 47
0.05
 48
0.0
140
3.0
141
2.5
142
0.0
143
0.03937
144
1.0
145
0.0
146
0.8
147
0.625
 71
     1
 72
     0
 73
     0
 74
     0
 75
     0
 76
     0
 77
     1
 78
     8
170
     0
171
     2
172
     0
173
     0
174
     0
175
     0
176
     0
177
     0
178
     0
270
     2
271
     2
272
     2
273
     2
274
     2
340
10
275
     0
280
     0
281
     0
282
     0
283
     2
284
     8
285
     0
286
     0
287
     3
288
     0
  0
DIMSTYLE
105
247
100
AcDbSymbolTableRecord
100
AcDbDimStyleTableRecord
  2
TOLL-07
 70
     0
  3

  4

  5

  6

  7

 40
1.0
 41
2.5
 42
0.625
 43
3.75
 44
1.25
 45
0.0
 46
0.0
 47
0.1
 48
0.1
140
3.0
141
2.5
142
0.0
143
0.03937
144
1.0
145
0.0
146
1.0
147
0.625
 71
     1
 72
     0
 73
     0
 74
     0
 75
     0
 76
     0
 77
     1
 78
     8
170
     0
171
     2
172
     0
173
     0
174
     0
175
     0
176
     0
177
     0
178
     0
270
     2
271
     2
272
     2
273
     2
274
     2
340
10
275
     0
280
     0
281
     0
282
     0
283
     1
284
     8
285
     0
286
     0
287
     3
288
     0
  0
DIMSTYLE
105
251
100
AcDbSymbolTableRecord
100
AcDbDimStyleTableRecord
  2
TOLL-08
 70
     0
  3

  4

  5

  6

  7

 40
1.0
 41
2.5
 42
0.625
 43
3.75
 44
1.25
 45
0.0
 46
0.0
 47
0.1
 48
0.0
140
3.0
141
2.5
142
0.0
143
0.03937
144
1.0
145
0.0
146
1.0
147
0.625
 71
     1
 72
     0
 73
     0
 74
     0
 75
     0
 76
     0
 77
     1
 78
     8
170
     0
171
     2
172
     0
173
     0
174
     0
175
     0
176
     0
177
     0
178
     0
270
     2
271
     2
272
     2
273
     2
274
     2
340
10
275
     0
280
     0
281
     0
282
     0
283
     1
284
     8
285
     0
286
     0
287
     3
288
     0
  0
DIMSTYLE
105
257
100
AcDbSymbolTableRecord
100
AcDbDimStyleTableRecord
  2
TOLL-09
 70
     0
  3

  4

  5

  6

  7

 40
1.0
 41
2.5
 42
0.625
 43
3.75
 44
1.25
 45
0.0
 46
0.0
 47
-0.1
 48
0.0
140
3.0
141
2.5
142
0.0
143
0.03937
144
1.0
145
0.0
146
1.0
147
0.625
 71
     1
 72
     0
 73
     0
 74
     0
 75
     0
 76
     0
 77
     1
 78
     8
170
     0
171
     2
172
     0
173
     0
174
     0
175
     0
176
     0
177
     0
178
     0
270
     2
271
     2
272
     2
273
     2
274
     2
340
10
275
     0
280
     0
281
     0
282
     0
283
     1
284
     8
285
     0
286
     0
287
     3
288
     0
  0
DIMSTYLE
105
258
100
AcDbSymbolTableRecord
100
AcDbDimStyleTableRecord
  2
TOLL-10
 70
     0
  3

  4

  5

  6

  7

 40
1.0
 41
2.5
 42
0.625
 43
3.75
 44
1.25
 45
0.0
 46
0.0
 47
0.2
 48
0.2
140
3.0
141
2.5
142
0.0
143
0.03937
144
1.0
145
0.0
146
1.0
147
0.625
 71
     1
 72
     0
 73
     0
 74
     0
 75
     0
 76
     0
 77
     1
 78
     8
170
     0
171
     2
172
     0
173
     0
174
     0
175
     0
176
     0
177
     0
178
     0
270
     2
271
     2
272
     2
273
     2
274
     2
340
10
275
     0
280
     0
281
     0
282
     0
283
     1
284
     8
285
     0
286
     0
287
     3
288
     0
  0
DIMSTYLE
105
259
100
AcDbSymbolTableRecord
100
AcDbDimStyleTableRecord
  2
TOLL-11
 70
     0
  3

  4

  5

  6

  7

 40
1.0
 41
2.5
 42
0.625
 43
3.75
 44
1.25
 45
0.0
 46
0.0
 47
0.2
 48
0.0
140
3.0
141
2.5
142
0.0
143
0.03937
144
1.0
145
0.0
146
1.0
147
0.625
 71
     1
 72
     0
 73
     0
 74
     0
 75
     0
 76
     0
 77
     1
 78
     8
170
     0
171
     2
172
     0
173
     0
174
     0
175
     0
176
     0
177
     0
178
     0
270
     2
271
     2
272
     2
273
     2
274
     2
340
10
275
     0
280
     0
281
     0
282
     0
283
     1
284
     8
285
     0
286
     0
287
     3
288
     0
  0
DIMSTYLE
105
323
100
AcDbSymbolTableRecord
100
AcDbDimStyleTableRecord
  2
TOLL-13
 70
     0
  3

  4

  5

  6

  7

 40
1.0
 41
2.5
 42
0.625
 43
3.75
 44
1.25
 45
0.0
 46
0.0
 47
0.02
 48
0.02
140
3.0
141
2.5
142
0.0
143
0.03937
144
1.0
145
0.0
146
0.8
147
0.625
 71
     1
 72
     0
 73
     0
 74
     0
 75
     0
 76
     0
 77
     1
 78
     8
170
     0
171
     2
172
     0
173
     0
174
     0
175
     0
176
     0
177
     0
178
     0
270
     2
271
     2
272
     2
273
     2
274
     2
340
10
275
     0
280
     0
281
     0
282
     0
283
     2
284
     8
285
     0
286
     0
287
     3
288
     0
  0
DIMSTYLE
105
4F8
100
AcDbSymbolTableRecord
100
AcDbDimStyleTableRecord
  2
ISO-25
 70
     0
  3

  4

  5

  6

  7

 40
1.0
 41
2.5
 42
0.625
 43
3.75
 44
1.25
 45
0.0
 46
0.0
 47
0.0
 48
0.0
140
2.5
141
2.5
142
0.0
143
0.0394
144
1.0
145
1.0
146
1.0
147
0.625
 71
     0
 72
     0
 73
     1
 74
     0
 75
     0
 76
     0
 77
     1
 78
     8
170
     0
171
     2
172
     1
173
     0
174
     0
175
     0
176
     0
177
     0
178
     0
270
     2
271
     4
272
     4
273
     2
274
     2
340
10
275
     0
280
     0
281
     0
282
     0
283
     1
284
     0
285
     0
286
     0
287
     3
288
     0
  0
ENDTAB
  0
TABLE
  2
BLOCK_RECORD
  5
1
100
AcDbSymbolTable
 70
    21
  0
BLOCK_RECORD
  5
19
100
AcDbSymbolTableRecord
100
AcDbBlockTableRecord
  2
*MODEL_SPACE
  0
BLOCK_RECORD
  5
16
100
AcDbSymbolTableRecord
100
AcDbBlockTableRecord
  2
*PAPER_SPACE
  0
BLOCK_RECORD
  5
4D2
100
AcDbSymbolTableRecord
100
AcDbBlockTableRecord
  2
RUGOSITA
  0
BLOCK_RECORD
  5
4F9
100
AcDbSymbolTableRecord
100
AcDbBlockTableRecord
  2
A$C72B2
  0
BLOCK_RECORD
  5
526
100
AcDbSymbolTableRecord
100
AcDbBlockTableRecord
  2
*X2
  0
BLOCK_RECORD
  5
589
100
AcDbSymbolTableRecord
100
AcDbBlockTableRecord
  2
*D3
  0
BLOCK_RECORD
  5
596
100
AcDbSymbolTableRecord
100
AcDbBlockTableRecord
  2
*D4
  0
BLOCK_RECORD
  5
5A3
100
AcDbSymbolTableRecord
100
AcDbBlockTableRecord
  2
*D5
  0
BLOCK_RECORD
  5
5B2
100
AcDbSymbolTableRecord
100
AcDbBlockTableRecord
  2
*D6
  0
BLOCK_RECORD
  5
5BD
100
AcDbSymbolTableRecord
100
AcDbBlockTableRecord
  2
*D7
  0
BLOCK_RECORD
  5
5CA
100
AcDbSymbolTableRecord
100
AcDbBlockTableRecord
  2
*D8
  0
BLOCK_RECORD
  5
5E3
100
AcDbSymbolTableRecord
100
AcDbBlockTableRecord
  2
*D9
  0
BLOCK_RECORD
  5
5F1
100
AcDbSymbolTableRecord
100
AcDbBlockTableRecord
  2
*D10
  0
BLOCK_RECORD
  5
638
100
AcDbSymbolTableRecord
100
AcDbBlockTableRecord
  2
*D11
  0
BLOCK_RECORD
  5
641
100
AcDbSymbolTableRecord
100
AcDbBlockTableRecord
  2
*D12
  0
BLOCK_RECORD
  5
64E
100
AcDbSymbolTableRecord
100
AcDbBlockTableRecord
  2
*D13
  0
BLOCK_RECORD
  5
65B
100
AcDbSymbolTableRecord
100
AcDbBlockTableRecord
  2
*D14
  0
BLOCK_RECORD
  5
677
100
AcDbSymbolTableRecord
100
AcDbBlockTableRecord
  2
*D15
  0
BLOCK_RECORD
  5
685
100
AcDbSymbolTableRecord
100
AcDbBlockTableRecord
  2
*D16
  0
BLOCK_RECORD
  5
6D5
100
AcDbSymbolTableRecord
100
AcDbBlockTableRecord
  2
*D17
  0
BLOCK_RECORD
  5
6E3
100
AcDbSymbolTableRecord
100
AcDbBlockTableRecord
  2
*D18
  0
BLOCK_RECORD
  5
6F8
100
AcDbSymbolTableRecord
100
AcDbBlockTableRecord
  2
*D19
  0
BLOCK_RECORD
  5
70C
100
AcDbSymbolTableRecord
100
AcDbBlockTableRecord
  2
*D20
  0
ENDTAB
  0
ENDSEC
  0
SECTION
  2
BLOCKS
  0
BLOCK
  5
1A
100
AcDbEntity
  8
0
100
AcDbBlockBegin
  2
*MODEL_SPACE
 70
     0
 10
0.0
 20
0.0
 30
0.0
  3
*MODEL_SPACE
  1

  0
ENDBLK
  5
1B
100
AcDbEntity
  8
0
100
AcDbBlockEnd
  0
BLOCK
  5
17
100
AcDbEntity
 67
     1
  8
0
100
AcDbBlockBegin
  2
*PAPER_SPACE
 70
     0
 10
0.0
 20
0.0
 30
0.0
  3
*PAPER_SPACE
  1

  0
ENDBLK
  5
18
100
AcDbEntity
 67
     1
  8
0
100
AcDbBlockEnd
  0
BLOCK
  5
4D7
100
AcDbEntity
  8
QUOTE
100
AcDbBlockBegin
  2
RUGOSITA
 70
     2
 10
0.0
 20
0.0
 30
0.0
  3
RUGOSITA
  1

  0
ATTDEF
  5
4D3
100
AcDbEntity
  8
QUOTE
100
AcDbText
 10
-1.071886
 20
3.214106
 30
0.0
 40
1.5
  1
0.8
100
AcDbAttributeDefinition
  3
CHE RUGOSITA ?
  2
RUGOSITA
 70
     0
  0
LINE
  5
4D4
100
AcDbEntity
  8
QUOTE
100
AcDbLine
 10
0.0
 20
0.0
 30
0.0
 11
4.0
 21
6.928203
 31
0.0
  0
LINE
  5
4D5
100
AcDbEntity
  8
QUOTE
100
AcDbLine
 10
0.0
 20
0.0
 30
0.0
 11
-1.75
 21
3.031089
 31
0.0
  0
LINE
  5
4D6
100
AcDbEntity
  8
QUOTE
100
AcDbLine
 10
-1.75
 20
3.031089
 30
0.0
 11
1.75
 21
3.031089
 31
0.0
  0
ENDBLK
  5
4D8
100
AcDbEntity
  8
QUOTE
100
AcDbBlockEnd
  0
BLOCK
  5
503
100
AcDbEntity
  8
QUOTE
100
AcDbBlockBegin
  2
A$C72B2
 70
     0
 10
0.0
 20
0.0
 30
0.0
  3
A$C72B2
  1

  0
TOLERANCE
  5
4FA
100
AcDbEntity
  8
TESTO
  6
CONTINUOUS
100
AcDbFcf
  3
ISO-25
 10
2.929614
 20
2.696533
 30
0.0
  1
{\Fgdt;b}%%v0.02%%v%%v%%v%%v
1001
ACAD
1000
DSTYLE
1002
{
1070
   140
1040
2.6
1070
    47
1040
0.02
1070
    73
1070
     0
1070
   272
1070
     2
1070
   147
1040
0.53
1070
    42
1040
0.5261
1070
    44
1040
1.0522
1070
    43
1040
3.1566
1070
   271
1070
     2
1070
   141
1040
2.1044
1070
    41
1040
2.6
1002
}
  0
TEXT
  5
4FB
100
AcDbEntity
  8
TESTO
100
AcDbText
 10
-0.274941
 20
6.632465
 30
0.0
 40
2.5
  1
TOLLERANZE AL METRO
 41
1.1
100
AcDbText
  0
POLYLINE
  5
4FC
100
AcDbEntity
  8
TESTO
100
AcDb2dPolyline
 66
     1
 10
0.0
 20
0.0
 30
0.0
 70
     1
  0
VERTEX
  5
4FD
100
AcDbEntity
  8
TESTO
100
AcDbVertex
100
AcDb2dVertex
 10
-0.868526
 20
11.096425
 30
0.0
  0
VERTEX
  5
4FE
100
AcDbEntity
  8
TESTO
100
AcDbVertex
100
AcDb2dVertex
 10
-0.868526
 20
-1.618183
 30
0.0
  0
VERTEX
  5
4FF
100
AcDbEntity
  8
TESTO
100
AcDbVertex
100
AcDb2dVertex
 10
40.250514
 20
-1.618183
 30
0.0
  0
VERTEX
  5
500
100
AcDbEntity
  8
TESTO
100
AcDbVertex
100
AcDb2dVertex
 10
40.250514
 20
11.096425
 30
0.0
  0
SEQEND
  5
501
100
AcDbEntity
  8
TESTO
  0
TOLERANCE
  5
502
100
AcDbEntity
  8
TESTO
  6
CONTINUOUS
100
AcDbFcf
  3
ISO-25
 10
18.487572
 20
2.696533
 30
0.0
  1
{\Fgdt;u}%%v0.02%%v%%v%%v%%v
1001
ACAD
1000
DSTYLE
1002
{
1070
   140
1040
2.6
1070
    47
1040
0.02
1070
    73
1070
     0
1070
   272
1070
     2
1070
   147
1040
0.53
1070
    42
1040
0.5261
1070
    44
1040
1.0522
1070
    43
1040
3.1566
1070
   271
1070
     2
1070
   141
1040
2.1044
1070
    41
1040
2.6
1002
}
  0
ENDBLK
  5
504
100
AcDbEntity
  8
QUOTE
100
AcDbBlockEnd
  0
BLOCK
  5
527
100
AcDbEntity
  8
0
100
AcDbBlockBegin
  2
*X2
 70
    65
 10
0.0
 20
0.0
 30
0.0
  3
*X2
  1

  0
LINE
  5
529
100
AcDbEntity
  8
0
 62
     0
100
AcDbLine
 10
109.216305
 20
107.195748
 30
0.0
 11
110.467996
 21
108.447439
 31
0.0
  0
LINE
  5
52A
100
AcDbEntity
  8
0
 62
     0
100
AcDbLine
 10
109.077862
 20
107.28181
 30
0.0
 11
110.254747
 21
108.458696
 31
0.0
  0
LINE
  5
52B
100
AcDbEntity
  8
0
 62
     0
100
AcDbLine
 10
108.945741
 20
107.374197
 30
0.0
 11
110.047455
 21
108.47591
 31
0.0
  0
LINE
  5
52C
100
AcDbEntity
  8
0
 62
     0
100
AcDbLine
 10
108.819766
 20
107.472728
 30
0.0
 11
109.845686
 21
108.498647
 31
0.0
  0
LINE
  5
52D
100
AcDbEntity
  8
0
 62
     0
100
AcDbLine
 10
108.699817
 20
107.577285
 30
0.0
 11
109.649068
 21
108.526536
 31
0.0
  0
LINE
  5
52E
100
AcDbEntity
  8
0
 62
     0
100
AcDbLine
 10
108.585699
 20
107.687673
 30
0.0
 11
109.457283
 21
108.559258
 31
0.0
  0
LINE
  5
52F
100
AcDbEntity
  8
0
 62
     0
100
AcDbLine
 10
108.473446
 20
107.799926
 30
0.0
 11
109.270053
 21
108.596533
 31
0.0
  0
LINE
  5
530
100
AcDbEntity
  8
0
 62
     0
100
AcDbLine
 10
108.361192
 20
107.91218
 30
0.0
 11
109.087134
 21
108.638121
 31
0.0
  0
LINE
  5
531
100
AcDbEntity
  8
0
 62
     0
100
AcDbLine
 10
108.248939
 20
108.024433
 30
0.0
 11
108.908314
 21
108.683808
 31
0.0
  0
LINE
  5
532
100
AcDbEntity
  8
0
 62
     0
100
AcDbLine
 10
108.136686
 20
108.136686
 30
0.0
 11
108.733405
 21
108.733405
 31
0.0
  0
LINE
  5
533
100
AcDbEntity
  8
0
 62
     0
100
AcDbLine
 10
108.024433
 20
108.248939
 30
0.0
 11
108.562241
 21
108.786747
 31
0.0
  0
LINE
  5
534
100
AcDbEntity
  8
0
 62
     0
100
AcDbLine
 10
107.91218
 20
108.361192
 30
0.0
 11
108.394672
 21
108.843685
 31
0.0
  0
LINE
  5
535
100
AcDbEntity
  8
0
 62
     0
100
AcDbLine
 10
107.799926
 20
108.473446
 30
0.0
 11
108.230568
 21
108.904087
 31
0.0
  0
LINE
  5
536
100
AcDbEntity
  8
0
 62
     0
100
AcDbLine
 10
107.687673
 20
108.585699
 30
0.0
 11
108.06981
 21
108.967836
 31
0.0
  0
LINE
  5
537
100
AcDbEntity
  8
0
 62
     0
100
AcDbLine
 10
107.57542
 20
108.697952
 30
0.0
 11
107.912292
 21
109.034824
 31
0.0
  0
LINE
  5
538
100
AcDbEntity
  8
0
 62
     0
100
AcDbLine
 10
107.463167
 20
108.810205
 30
0.0
 11
107.757921
 21
109.104959
 31
0.0
  0
LINE
  5
539
100
AcDbEntity
  8
0
 62
     0
100
AcDbLine
 10
107.350914
 20
108.922458
 30
0.0
 11
107.60661
 21
109.178155
 31
0.0
  0
LINE
  5
53A
100
AcDbEntity
  8
0
 62
     0
100
AcDbLine
 10
107.23866
 20
109.034712
 30
0.0
 11
107.458286
 21
109.254337
 31
0.0
  0
LINE
  5
53B
100
AcDbEntity
  8
0
 62
     0
100
AcDbLine
 10
107.126407
 20
109.146965
 30
0.0
 11
107.312878
 21
109.333436
 31
0.0
  0
LINE
  5
53C
100
AcDbEntity
  8
0
 62
     0
100
AcDbLine
 10
107.014154
 20
109.259218
 30
0.0
 11
107.170328
 21
109.415392
 31
0.0
  0
LINE
  5
53D
100
AcDbEntity
  8
0
 62
     0
100
AcDbLine
 10
106.901901
 20
109.371471
 30
0.0
 11
107.030582
 21
109.500152
 31
0.0
  0
LINE
  5
53E
100
AcDbEntity
  8
0
 62
     0
100
AcDbLine
 10
106.789648
 20
109.483724
 30
0.0
 11
106.893591
 21
109.587667
 31
0.0
  0
LINE
  5
53F
100
AcDbEntity
  8
0
 62
     0
100
AcDbLine
 10
106.677394
 20
109.595978
 30
0.0
 11
106.759313
 21
109.677896
 31
0.0
  0
LINE
  5
540
100
AcDbEntity
  8
0
 62
     0
100
AcDbLine
 10
106.565141
 20
109.708231
 30
0.0
 11
106.627712
 21
109.770802
 31
0.0
  0
LINE
  5
541
100
AcDbEntity
  8
0
 62
     0
100
AcDbLine
 10
106.452888
 20
109.820484
 30
0.0
 11
106.498757
 21
109.866353
 31
0.0
  0
LINE
  5
542
100
AcDbEntity
  8
0
 62
     0
100
AcDbLine
 10
106.340635
 20
109.932737
 30
0.0
 11
106.372419
 21
109.964522
 31
0.0
  0
LINE
  5
543
100
AcDbEntity
  8
0
 62
     0
100
AcDbLine
 10
106.228382
 20
110.04499
 30
0.0
 11
106.248678
 21
110.065286
 31
0.0
  0
LINE
  5
544
100
AcDbEntity
  8
0
 62
     0
100
AcDbLine
 10
106.116128
 20
110.157244
 30
0.0
 11
106.127514
 21
110.168629
 31
0.0
  0
LINE
  5
545
100
AcDbEntity
  8
0
 62
     0
100
AcDbLine
 10
106.003875
 20
110.269497
 30
0.0
 11
106.008914
 21
110.274535
 31
0.0
  0
LINE
  5
546
100
AcDbEntity
  8
0
 62
     0
100
AcDbLine
 10
105.891622
 20
110.38175
 30
0.0
 11
105.892867
 21
110.382995
 31
0.0
  0
LINE
  5
547
100
AcDbEntity
  8
0
 62
     0
100
AcDbLine
 10
109.361318
 20
107.116254
 30
0.0
 11
110.687715
 21
108.44265
 31
0.0
  0
LINE
  5
548
100
AcDbEntity
  8
0
 62
     0
100
AcDbLine
 10
109.513227
 20
107.043656
 30
0.0
 11
110.730346
 21
108.260776
 31
0.0
  0
LINE
  5
549
100
AcDbEntity
  8
0
 62
     0
100
AcDbLine
 10
110.730346
 20
108.260776
 30
0.0
 11
110.914514
 21
108.444944
 31
0.0
  0
LINE
  5
54A
100
AcDbEntity
  8
0
 62
     0
100
AcDbLine
 10
109.672455
 20
106.978378
 30
0.0
 11
110.730346
 21
108.036269
 31
0.0
  0
LINE
  5
54B
100
AcDbEntity
  8
0
 62
     0
100
AcDbLine
 10
110.730346
 20
108.036269
 30
0.0
 11
111.149136
 21
108.455059
 31
0.0
  0
LINE
  5
54C
100
AcDbEntity
  8
0
 62
     0
100
AcDbLine
 10
109.839553
 20
106.92097
 30
0.0
 11
110.730346
 21
107.811763
 31
0.0
  0
LINE
  5
54D
100
AcDbEntity
  8
0
 62
     0
100
AcDbLine
 10
110.730346
 20
107.811763
 30
0.0
 11
111.392491
 21
108.473908
 31
0.0
  0
LINE
  5
54E
100
AcDbEntity
  8
0
 62
     0
100
AcDbLine
 10
110.015233
 20
106.872144
 30
0.0
 11
110.730346
 21
107.587257
 31
0.0
  0
LINE
  5
54F
100
AcDbEntity
  8
0
 62
     0
100
AcDbLine
 10
110.730346
 20
107.587257
 30
0.0
 11
111.645719
 21
108.502629
 31
0.0
  0
LINE
  5
550
100
AcDbEntity
  8
0
 62
     0
100
AcDbLine
 10
110.200434
 20
106.832838
 30
0.0
 11
110.730346
 21
107.36275
 31
0.0
  0
LINE
  5
551
100
AcDbEntity
  8
0
 62
     0
100
AcDbLine
 10
110.730346
 20
107.36275
 30
0.0
 11
111.910279
 21
108.542683
 31
0.0
  0
LINE
  5
552
100
AcDbEntity
  8
0
 62
     0
100
AcDbLine
 10
110.396412
 20
106.80431
 30
0.0
 11
110.730346
 21
107.138244
 31
0.0
  0
LINE
  5
553
100
AcDbEntity
  8
0
 62
     0
100
AcDbLine
 10
110.730346
 20
107.138244
 30
0.0
 11
112.188093
 21
108.595991
 31
0.0
  0
LINE
  5
554
100
AcDbEntity
  8
0
 62
     0
100
AcDbLine
 10
110.604899
 20
106.78829
 30
0.0
 11
110.730346
 21
106.913737
 31
0.0
  0
LINE
  5
555
100
AcDbEntity
  8
0
 62
     0
100
AcDbLine
 10
110.730346
 20
106.913737
 30
0.0
 11
112.481779
 21
108.66517
 31
0.0
  0
LINE
  5
556
100
AcDbEntity
  8
0
 62
     0
100
AcDbLine
 10
110.828384
 20
106.787269
 30
0.0
 11
112.79507
 21
108.753955
 31
0.0
  0
LINE
  5
557
100
AcDbEntity
  8
0
 62
     0
100
AcDbLine
 10
111.070652
 20
106.80503
 30
0.0
 11
113.133628
 21
108.868007
 31
0.0
  0
LINE
  5
558
100
AcDbEntity
  8
0
 62
     0
100
AcDbLine
 10
111.337974
 20
106.847846
 30
0.0
 11
113.506831
 21
109.016703
 31
0.0
  0
LINE
  5
559
100
AcDbEntity
  8
0
 62
     0
100
AcDbLine
 10
111.642256
 20
106.927622
 30
0.0
 11
113.93252
 21
109.217885
 31
0.0
  0
LINE
  5
55A
100
AcDbEntity
  8
0
 62
     0
100
AcDbLine
 10
112.012685
 20
107.073544
 30
0.0
 11
114.454628
 21
109.515487
 31
0.0
  0
LINE
  5
55B
100
AcDbEntity
  8
0
 62
     0
100
AcDbLine
 10
112.616048
 20
107.452401
 30
0.0
 11
115.326152
 21
110.162504
 31
0.0
  0
ENDBLK
  5
55C
100
AcDbEntity
  8
0
100
AcDbBlockEnd
  0
BLOCK
  5
58A
100
AcDbEntity
  8
0
100
AcDbBlockBegin
  2
*D3
 70
    65
 10
0.0
 20
0.0
 30
0.0
  3
*D3
  1

  0
LINE
  5
58B
100
AcDbEntity
  8
0
  6
BYBLOCK
 62
     0
100
AcDbLine
 10
103.355346
 20
225.284397
 30
0.0
 11
154.930321
 21
225.284397
 31
0.0
  0
LINE
  5
58C
100
AcDbEntity
  8
0
  6
BYBLOCK
 62
     0
100
AcDbLine
 10
117.355346
 20
195.284397
 30
0.0
 11
154.930321
 21
195.284397
 31
0.0
  0
LINE
  5
58D
100
AcDbEntity
  8
0
  6
BYBLOCK
 62
     0
100
AcDbLine
 10
153.680321
 20
222.784397
 30
0.0
 11
153.680321
 21
197.784397
 31
0.0
  0
SOLID
  5
58E
100
AcDbEntity
  8
0
  6
BYBLOCK
 62
     0
100
AcDbTrace
 10
153.263654
 20
222.784397
 30
0.0
 11
154.096987
 21
222.784397
 31
0.0
 12
153.680321
 22
225.284397
 32
0.0
 13
153.680321
 23
225.284397
 33
0.0
  0
SOLID
  5
58F
100
AcDbEntity
  8
0
  6
BYBLOCK
 62
     0
100
AcDbTrace
 10
153.263654
 20
197.784397
 30
0.0
 11
154.096987
 21
197.784397
 31
0.0
 12
153.680321
 22
195.284397
 32
0.0
 13
153.680321
 23
195.284397
 33
0.0
  0
MTEXT
  5
590
100
AcDbEntity
  8
0
  6
BYBLOCK
 62
     0
100
AcDbMText
 10
151.555321
 20
210.284397
 30
0.0
 40
3.0
 41
0.0
 71
     5
 72
     1
  1
\A1;30
 11
0.0
 21
1.0
 31
0.0
  0
POINT
  5
591
100
AcDbEntity
  8
DEFPOINTS
  6
BYBLOCK
 62
     0
100
AcDbPoint
 10
102.730346
 20
225.284397
 30
0.0
  0
POINT
  5
592
100
AcDbEntity
  8
DEFPOINTS
  6
BYBLOCK
 62
     0
100
AcDbPoint
 10
116.730346
 20
195.284397
 30
0.0
  0
POINT
  5
593
100
AcDbEntity
  8
DEFPOINTS
  6
BYBLOCK
 62
     0
100
AcDbPoint
 10
153.680321
 20
195.284397
 30
0.0
  0
ENDBLK
  5
594
100
AcDbEntity
  8
0
100
AcDbBlockEnd
  0
BLOCK
  5
62D
100
AcDbEntity
  8
0
100
AcDbBlockBegin
  2
*D4
 70
    65
 10
0.0
 20
0.0
 30
0.0
  3
*D4
  1

  0
LINE
  5
62E
100
AcDbEntity
  8
0
  6
BYBLOCK
 62
     0
100
AcDbLine
 10
117.355346
 20
195.284397
 30
0.0
 11
154.942049
 21
195.284397
 31
0.0
  0
LINE
  5
62F
100
AcDbEntity
  8
0
  6
BYBLOCK
 62
     0
100
AcDbLine
 10
111.355346
 20
106.785666
 30
0.0
 11
154.942049
 21
106.785666
 31
0.0
  0
LINE
  5
630
100
AcDbEntity
  8
0
  6
BYBLOCK
 62
     0
100
AcDbLine
 10
153.692049
 20
192.784397
 30
0.0
 11
153.692049
 21
109.285666
 31
0.0
  0
SOLID
  5
631
100
AcDbEntity
  8
0
  6
BYBLOCK
 62
     0
100
AcDbTrace
 10
153.275383
 20
192.784397
 30
0.0
 11
154.108716
 21
192.784397
 31
0.0
 12
153.692049
 22
195.284397
 32
0.0
 13
153.692049
 23
195.284397
 33
0.0
  0
SOLID
  5
632
100
AcDbEntity
  8
0
  6
BYBLOCK
 62
     0
100
AcDbTrace
 10
153.275383
 20
109.285666
 30
0.0
 11
154.108716
 21
109.285666
 31
0.0
 12
153.692049
 22
106.785666
 32
0.0
 13
153.692049
 23
106.785666
 33
0.0
  0
MTEXT
  5
633
100
AcDbEntity
  8
0
  6
BYBLOCK
 62
     0
100
AcDbMText
 10
150.326341
 20
151.035031
 30
0.0
 40
3.0
 41
0.0
 71
     5
 72
     1
  1
\A2;88.5{\H2.400000;\S+0.02^  0;}
 11
0.0
 21
1.0
 31
0.0
  0
POINT
  5
634
100
AcDbEntity
  8
DEFPOINTS
  6
BYBLOCK
 62
     0
100
AcDbPoint
 10
116.730346
 20
195.284397
 30
0.0
  0
POINT
  5
635
100
AcDbEntity
  8
DEFPOINTS
  6
BYBLOCK
 62
     0
100
AcDbPoint
 10
110.730346
 20
106.785666
 30
0.0
  0
POINT
  5
636
100
AcDbEntity
  8
DEFPOINTS
  6
BYBLOCK
 62
     0
100
AcDbPoint
 10
153.692049
 20
106.785666
 30
0.0
  0
ENDBLK
  5
637
100
AcDbEntity
  8
0
100
AcDbBlockEnd
  0
BLOCK
  5
5A4
100
AcDbEntity
  8
0
100
AcDbBlockBegin
  2
*D5
 70
    65
 10
0.0
 20
0.0
 30
0.0
  3
*D5
  1

  0
LINE
  5
5A5
100
AcDbEntity
  8
0
  6
BYBLOCK
 62
     0
100
AcDbLine
 10
110.296185
 20
105.017409
 30
0.0
 11
90.976456
 21
85.011245
 31
0.0
  0
LINE
  5
5A6
100
AcDbEntity
  8
0
  6
BYBLOCK
 62
     0
100
AcDbLine
 10
111.164508
 20
105.017409
 30
0.0
 11
130.484236
 21
85.011245
 31
0.0
  0
ARC
  5
5A7
100
AcDbEntity
  8
0
  6
BYBLOCK
 62
     0
100
AcDbCircle
 10
110.730346
 20
105.466997
 30
0.0
 40
27.186841
100
AcDbArc
 50
231.270563
 51
308.729437
  0
SOLID
  5
5A8
100
AcDbEntity
  8
0
  6
BYBLOCK
 62
     0
100
AcDbTrace
 10
93.445721
 20
83.945579
 30
0.0
 11
93.996429
 21
84.571011
 31
0.0
 12
91.844779
 22
85.91042
 32
0.0
 13
91.844779
 23
85.91042
 33
0.0
  0
SOLID
  5
5A9
100
AcDbEntity
  8
0
  6
BYBLOCK
 62
     0
100
AcDbTrace
 10
127.464264
 20
84.571011
 30
0.0
 11
128.014972
 21
83.945579
 31
0.0
 12
129.615913
 22
85.91042
 32
0.0
 13
129.615913
 23
85.91042
 33
0.0
  0
MTEXT
  5
5AA
100
AcDbEntity
  8
0
  6
BYBLOCK
 62
     0
100
AcDbMText
 10
110.730346
 20
80.405155
 30
0.0
 40
3.0
 41
0.0
 71
     5
 72
     1
  1
\A1;88°
  0
POINT
  5
5AB
100
AcDbEntity
  8
DEFPOINTS
  6
BYBLOCK
 62
     0
100
AcDbPoint
 10
103.846769
 20
79.166033
 30
0.0
  0
POINT
  5
5AC
100
AcDbEntity
  8
DEFPOINTS
  6
BYBLOCK
 62
     0
100
AcDbPoint
 10
108.572327
 20
107.701691
 30
0.0
  0
POINT
  5
5AD
100
AcDbEntity
  8
DEFPOINTS
  6
BYBLOCK
 62
     0
100
AcDbPoint
 10
112.888366
 20
107.701691
 30
0.0
  0
POINT
  5
5AE
100
AcDbEntity
  8
DEFPOINTS
  6
BYBLOCK
 62
     0
100
AcDbPoint
 10
117.751506
 20
112.73762
 30
0.0
  0
POINT
  5
5AF
100
AcDbEntity
  8
DEFPOINTS
  6
BYBLOCK
 62
     0
100
AcDbPoint
 10
103.745353
 20
112.700169
 30
0.0
  0
ENDBLK
  5
5B0
100
AcDbEntity
  8
0
100
AcDbBlockEnd
  0
BLOCK
  5
5B3
100
AcDbEntity
  8
0
100
AcDbBlockBegin
  2
*D6
 70
    65
 10
0.0
 20
0.0
 30
0.0
  3
*D6
  1

  0
LINE
  5
5B4
100
AcDbEntity
  8
0
  6
BYBLOCK
 62
     0
100
AcDbLine
 10
114.148806
 20
105.477055
 30
0.0
 11
119.025824
 21
99.330084
 31
0.0
  0
SOLID
  5
5B5
100
AcDbEntity
  8
0
  6
BYBLOCK
 62
     0
100
AcDbTrace
 10
114.475216
 20
105.736029
 30
0.0
 11
113.822396
 21
105.218081
 31
0.0
 12
112.594961
 22
107.435515
 32
0.0
 13
112.594961
 23
107.435515
 33
0.0
  0
MTEXT
  5
5B6
100
AcDbEntity
  8
0
  6
BYBLOCK
 62
     0
100
AcDbMText
 10
119.028928
 20
102.745108
 30
0.0
 40
3.0
 41
0.0
 71
     5
 72
     1
  1
\A1;R3
 11
0.621538
 21
-0.783384
 31
0.0
  0
LINE
  5
5B7
100
AcDbEntity
  8
0
  6
BYBLOCK
 62
     0
100
AcDbLine
 10
108.230346
 20
109.785666
 30
0.0
 11
113.230346
 21
109.785666
 31
0.0
  0
LINE
  5
5B8
100
AcDbEntity
  8
0
  6
BYBLOCK
 62
     0
100
AcDbLine
 10
110.730346
 20
107.285666
 30
0.0
 11
110.730346
 21
112.285666
 31
0.0
  0
POINT
  5
5B9
100
AcDbEntity
  8
DEFPOINTS
  6
BYBLOCK
 62
     0
100
AcDbPoint
 10
112.594961
 20
107.435515
 30
0.0
  0
POINT
  5
5BA
100
AcDbEntity
  8
DEFPOINTS
  6
BYBLOCK
 62
     0
100
AcDbPoint
 10
110.730346
 20
109.785666
 30
0.0
  0
ENDBLK
  5
5BB
100
AcDbEntity
  8
0
100
AcDbBlockEnd
  0
BLOCK
  5
5BE
100
AcDbEntity
  8
0
100
AcDbBlockBegin
  2
*D7
 70
    65
 10
0.0
 20
0.0
 30
0.0
  3
*D7
  1

  0
LINE
  5
5BF
100
AcDbEntity
  8
0
  6
BYBLOCK
 62
     0
100
AcDbLine
 10
61.730346
 20
183.909397
 30
0.0
 11
61.730346
 21
253.446308
 31
0.0
  0
LINE
  5
5C0
100
AcDbEntity
  8
0
  6
BYBLOCK
 62
     0
100
AcDbLine
 10
90.730346
 20
224.909397
 30
0.0
 11
90.730346
 21
253.446308
 31
0.0
  0
LINE
  5
5C1
100
AcDbEntity
  8
0
  6
BYBLOCK
 62
     0
100
AcDbLine
 10
64.230346
 20
252.196308
 30
0.0
 11
88.230346
 21
252.196308
 31
0.0
  0
SOLID
  5
5C2
100
AcDbEntity
  8
0
  6
BYBLOCK
 62
     0
100
AcDbTrace
 10
64.230346
 20
252.612975
 30
0.0
 11
64.230346
 21
251.779642
 31
0.0
 12
61.730346
 22
252.196308
 32
0.0
 13
61.730346
 23
252.196308
 33
0.0
  0
SOLID
  5
5C3
100
AcDbEntity
  8
0
  6
BYBLOCK
 62
     0
100
AcDbTrace
 10
88.230346
 20
252.612975
 30
0.0
 11
88.230346
 21
251.779642
 31
0.0
 12
90.730346
 22
252.196308
 32
0.0
 13
90.730346
 23
252.196308
 33
0.0
  0
MTEXT
  5
5C4
100
AcDbEntity
  8
0
  6
BYBLOCK
 62
     0
100
AcDbMText
 10
76.230346
 20
254.321308
 30
0.0
 40
3.0
 41
0.0
 71
     5
 72
     1
  1
\A1;29
  0
POINT
  5
5C5
100
AcDbEntity
  8
DEFPOINTS
  6
BYBLOCK
 62
     0
100
AcDbPoint
 10
61.730346
 20
183.284397
 30
0.0
  0
POINT
  5
5C6
100
AcDbEntity
  8
DEFPOINTS
  6
BYBLOCK
 62
     0
100
AcDbPoint
 10
90.730346
 20
224.284397
 30
0.0
  0
POINT
  5
5C7
100
AcDbEntity
  8
DEFPOINTS
  6
BYBLOCK
 62
     0
100
AcDbPoint
 10
90.730346
 20
252.196308
 30
0.0
  0
ENDBLK
  5
5C8
100
AcDbEntity
  8
0
100
AcDbBlockEnd
  0
BLOCK
  5
609
100
AcDbEntity
  8
0
100
AcDbBlockBegin
  2
*D8
 70
    65
 10
0.0
 20
0.0
 30
0.0
  3
*D8
  1

  0
LINE
  5
60A
100
AcDbEntity
  8
0
  6
BYBLOCK
 62
     0
100
AcDbLine
 10
90.730346
 20
224.909397
 30
0.0
 11
90.730346
 21
238.539193
 31
0.0
  0
LINE
  5
60B
100
AcDbEntity
  8
0
  6
BYBLOCK
 62
     0
100
AcDbLine
 10
103.730346
 20
224.909397
 30
0.0
 11
103.730346
 21
238.539193
 31
0.0
  0
LINE
  5
60C
100
AcDbEntity
  8
0
  6
BYBLOCK
 62
     0
100
AcDbLine
 10
101.230346
 20
237.289193
 30
0.0
 11
93.230346
 21
237.289193
 31
0.0
  0
LINE
  5
60D
100
AcDbEntity
  8
0
  6
BYBLOCK
 62
     0
100
AcDbLine
 10
90.730346
 20
237.289193
 30
0.0
 11
73.581394
 21
237.289193
 31
0.0
  0
SOLID
  5
60E
100
AcDbEntity
  8
0
  6
BYBLOCK
 62
     0
100
AcDbTrace
 10
101.230346
 20
237.705859
 30
0.0
 11
101.230346
 21
236.872526
 31
0.0
 12
103.730346
 22
237.289193
 32
0.0
 13
103.730346
 23
237.289193
 33
0.0
  0
SOLID
  5
60F
100
AcDbEntity
  8
0
  6
BYBLOCK
 62
     0
100
AcDbTrace
 10
93.230346
 20
237.705859
 30
0.0
 11
93.230346
 21
236.872526
 31
0.0
 12
90.730346
 22
237.289193
 32
0.0
 13
90.730346
 23
237.289193
 33
0.0
  0
MTEXT
  5
610
100
AcDbEntity
  8
0
  6
BYBLOCK
 62
     0
100
AcDbMText
 10
80.278394
 20
240.654901
 30
0.0
 40
3.0
 41
0.0
 71
     5
 72
     1
  1
\A2;13{\H2.400000;\S+0.02^  0;}
  0
POINT
  5
611
100
AcDbEntity
  8
DEFPOINTS
  6
BYBLOCK
 62
     0
100
AcDbPoint
 10
90.730346
 20
224.284397
 30
0.0
  0
POINT
  5
612
100
AcDbEntity
  8
DEFPOINTS
  6
BYBLOCK
 62
     0
100
AcDbPoint
 10
103.730346
 20
224.284397
 30
0.0
  0
POINT
  5
613
100
AcDbEntity
  8
DEFPOINTS
  6
BYBLOCK
 62
     0
100
AcDbPoint
 10
103.730346
 20
237.289193
 30
0.0
  0
ENDBLK
  5
614
100
AcDbEntity
  8
0
100
AcDbBlockEnd
  0
BLOCK
  5
621
100
AcDbEntity
  8
0
100
AcDbBlockBegin
  2
*D9
 70
    65
 10
0.0
 20
0.0
 30
0.0
  3
*D9
  1

  0
LINE
  5
622
100
AcDbEntity
  8
0
  6
BYBLOCK
 62
     0
100
AcDbLine
 10
103.730346
 20
224.909397
 30
0.0
 11
103.730346
 21
238.620615
 31
0.0
  0
LINE
  5
623
100
AcDbEntity
  8
0
  6
BYBLOCK
 62
     0
100
AcDbLine
 10
110.730346
 20
238.300787
 30
0.0
 11
110.730346
 21
236.120615
 31
0.0
  0
LINE
  5
624
100
AcDbEntity
  8
0
  6
BYBLOCK
 62
     0
100
AcDbLine
 10
106.230346
 20
237.370615
 30
0.0
 11
108.230346
 21
237.370615
 31
0.0
  0
LINE
  5
625
100
AcDbEntity
  8
0
  6
BYBLOCK
 62
     0
100
AcDbLine
 10
110.730346
 20
237.370615
 30
0.0
 11
130.249742
 21
237.370615
 31
0.0
  0
SOLID
  5
626
100
AcDbEntity
  8
0
  6
BYBLOCK
 62
     0
100
AcDbTrace
 10
106.230346
 20
237.787282
 30
0.0
 11
106.230346
 21
236.953949
 31
0.0
 12
103.730346
 22
237.370615
 32
0.0
 13
103.730346
 23
237.370615
 33
0.0
  0
SOLID
  5
627
100
AcDbEntity
  8
0
  6
BYBLOCK
 62
     0
100
AcDbTrace
 10
108.230346
 20
237.787282
 30
0.0
 11
108.230346
 21
236.953949
 31
0.0
 12
110.730346
 22
237.370615
 32
0.0
 13
110.730346
 23
237.370615
 33
0.0
  0
MTEXT
  5
628
100
AcDbEntity
  8
0
  6
BYBLOCK
 62
     0
100
AcDbMText
 10
125.037742
 20
239.495615
 30
0.0
 40
3.0
 41
0.0
 71
     5
 72
     1
  1
\A2;7{\H2.400000;±0.01}
  0
POINT
  5
629
100
AcDbEntity
  8
DEFPOINTS
  6
BYBLOCK
 62
     0
100
AcDbPoint
 10
103.730346
 20
224.284397
 30
0.0
  0
POINT
  5
62A
100
AcDbEntity
  8
DEFPOINTS
  6
BYBLOCK
 62
     0
100
AcDbPoint
 10
110.730346
 20
238.925787
 30
0.0
  0
POINT
  5
62B
100
AcDbEntity
  8
DEFPOINTS
  6
BYBLOCK
 62
     0
100
AcDbPoint
 10
110.730346
 20
237.370615
 30
0.0
  0
ENDBLK
  5
62C
100
AcDbEntity
  8
0
100
AcDbBlockEnd
  0
BLOCK
  5
5FE
100
AcDbEntity
  8
0
100
AcDbBlockBegin
  2
*D10
 70
    65
 10
0.0
 20
0.0
 30
0.0
  3
*D10
  1

  0
LINE
  5
5FF
100
AcDbEntity
  8
0
  6
BYBLOCK
 62
     0
100
AcDbLine
 10
61.730346
 20
183.909397
 30
0.0
 11
61.730346
 21
261.741857
 31
0.0
  0
LINE
  5
600
100
AcDbEntity
  8
0
  6
BYBLOCK
 62
     0
100
AcDbLine
 10
117.730346
 20
194.909397
 30
0.0
 11
117.730346
 21
261.741857
 31
0.0
  0
LINE
  5
601
100
AcDbEntity
  8
0
  6
BYBLOCK
 62
     0
100
AcDbLine
 10
64.230346
 20
260.491857
 30
0.0
 11
115.230346
 21
260.491857
 31
0.0
  0
SOLID
  5
602
100
AcDbEntity
  8
0
  6
BYBLOCK
 62
     0
100
AcDbTrace
 10
64.230346
 20
260.908523
 30
0.0
 11
64.230346
 21
260.07519
 31
0.0
 12
61.730346
 22
260.491857
 32
0.0
 13
61.730346
 23
260.491857
 33
0.0
  0
SOLID
  5
603
100
AcDbEntity
  8
0
  6
BYBLOCK
 62
     0
100
AcDbTrace
 10
115.230346
 20
260.908523
 30
0.0
 11
115.230346
 21
260.07519
 31
0.0
 12
117.730346
 22
260.491857
 32
0.0
 13
117.730346
 23
260.491857
 33
0.0
  0
MTEXT
  5
604
100
AcDbEntity
  8
0
  6
BYBLOCK
 62
     0
100
AcDbMText
 10
89.730346
 20
262.616857
 30
0.0
 40
3.0
 41
0.0
 71
     5
 72
     1
  1
\A2;56{\H2.400000;±0.05}
  0
POINT
  5
605
100
AcDbEntity
  8
DEFPOINTS
  6
BYBLOCK
 62
     0
100
AcDbPoint
 10
61.730346
 20
183.284397
 30
0.0
  0
POINT
  5
606
100
AcDbEntity
  8
DEFPOINTS
  6
BYBLOCK
 62
     0
100
AcDbPoint
 10
117.730346
 20
194.284397
 30
0.0
  0
POINT
  5
607
100
AcDbEntity
  8
DEFPOINTS
  6
BYBLOCK
 62
     0
100
AcDbPoint
 10
117.730346
 20
260.491857
 30
0.0
  0
ENDBLK
  5
608
100
AcDbEntity
  8
0
100
AcDbBlockEnd
  0
BLOCK
  5
639
100
AcDbEntity
  8
0
100
AcDbBlockBegin
  2
*D11
 70
    65
 10
0.0
 20
0.0
 30
0.0
  3
*D11
  1

  0
LINE
  5
63A
100
AcDbEntity
  8
0
  6
BYBLOCK
 62
     0
100
AcDbLine
 10
120.302717
 20
159.812496
 30
0.0
 11
103.784109
 21
165.590524
 31
0.0
  0
SOLID
  5
63B
100
AcDbEntity
  8
0
  6
BYBLOCK
 62
     0
100
AcDbTrace
 10
103.921681
 20
165.983824
 30
0.0
 11
103.646537
 21
165.197224
 31
0.0
 12
101.424308
 22
166.415957
 32
0.0
 13
101.424308
 23
166.415957
 33
0.0
  0
MTEXT
  5
63C
100
AcDbEntity
  8
0
  6
BYBLOCK
 62
     0
100
AcDbMText
 10
111.56513
 20
165.120057
 30
0.0
 40
3.0
 41
0.0
 71
     5
 72
     1
  1
\A1;R20
 11
0.94392
 21
-0.330173
 31
0.0
  0
POINT
  5
63D
100
AcDbEntity
  8
DEFPOINTS
  6
BYBLOCK
 62
     0
100
AcDbPoint
 10
101.424308
 20
166.415957
 30
0.0
  0
POINT
  5
63E
100
AcDbEntity
  8
DEFPOINTS
  6
BYBLOCK
 62
     0
100
AcDbPoint
 10
120.302717
 20
159.812496
 30
0.0
  0
ENDBLK
  5
63F
100
AcDbEntity
  8
0
100
AcDbBlockEnd
  0
BLOCK
  5
642
100
AcDbEntity
  8
0
100
AcDbBlockBegin
  2
*D12
 70
    65
 10
0.0
 20
0.0
 30
0.0
  3
*D12
  1

  0
LINE
  5
643
100
AcDbEntity
  8
0
  6
BYBLOCK
 62
     0
100
AcDbLine
 10
118.355346
 20
195.284397
 30
0.0
 11
134.232523
 21
195.284397
 31
0.0
  0
LINE
  5
644
100
AcDbEntity
  8
0
  6
BYBLOCK
 62
     0
100
AcDbLine
 10
120.927717
 20
159.812496
 30
0.0
 11
134.232523
 21
159.812496
 31
0.0
  0
LINE
  5
645
100
AcDbEntity
  8
0
  6
BYBLOCK
 62
     0
100
AcDbLine
 10
132.982523
 20
192.784397
 30
0.0
 11
132.982523
 21
162.312496
 31
0.0
  0
SOLID
  5
646
100
AcDbEntity
  8
0
  6
BYBLOCK
 62
     0
100
AcDbTrace
 10
132.565857
 20
192.784397
 30
0.0
 11
133.39919
 21
192.784397
 31
0.0
 12
132.982523
 22
195.284397
 32
0.0
 13
132.982523
 23
195.284397
 33
0.0
  0
SOLID
  5
647
100
AcDbEntity
  8
0
  6
BYBLOCK
 62
     0
100
AcDbTrace
 10
132.565857
 20
162.312496
 30
0.0
 11
133.39919
 21
162.312496
 31
0.0
 12
132.982523
 22
159.812496
 32
0.0
 13
132.982523
 23
159.812496
 33
0.0
  0
MTEXT
  5
648
100
AcDbEntity
  8
0
  6
BYBLOCK
 62
     0
100
AcDbMText
 10
130.857523
 20
177.548446
 30
0.0
 40
3.0
 41
0.0
 71
     5
 72
     1
  1
\A1;35.47
 11
0.0
 21
1.0
 31
0.0
  0
POINT
  5
649
100
AcDbEntity
  8
DEFPOINTS
  6
BYBLOCK
 62
     0
100
AcDbPoint
 10
117.730346
 20
195.284397
 30
0.0
  0
POINT
  5
64A
100
AcDbEntity
  8
DEFPOINTS
  6
BYBLOCK
 62
     0
100
AcDbPoint
 10
120.302717
 20
159.812496
 30
0.0
  0
POINT
  5
64B
100
AcDbEntity
  8
DEFPOINTS
  6
BYBLOCK
 62
     0
100
AcDbPoint
 10
132.982523
 20
159.812496
 30
0.0
  0
ENDBLK
  5
64C
100
AcDbEntity
  8
0
100
AcDbBlockEnd
  0
BLOCK
  5
64F
100
AcDbEntity
  8
0
100
AcDbBlockBegin
  2
*D13
 70
    65
 10
0.0
 20
0.0
 30
0.0
  3
*D13
  1

  0
LINE
  5
650
100
AcDbEntity
  8
0
  6
BYBLOCK
 62
     0
100
AcDbLine
 10
91.105346
 20
225.284397
 30
0.0
 11
73.435916
 21
225.284397
 31
0.0
  0
LINE
  5
651
100
AcDbEntity
  8
0
  6
BYBLOCK
 62
     0
100
AcDbLine
 10
90.605346
 20
208.284397
 30
0.0
 11
73.435916
 21
208.284397
 31
0.0
  0
LINE
  5
652
100
AcDbEntity
  8
0
  6
BYBLOCK
 62
     0
100
AcDbLine
 10
74.685916
 20
222.784397
 30
0.0
 11
74.685916
 21
210.784397
 31
0.0
  0
SOLID
  5
653
100
AcDbEntity
  8
0
  6
BYBLOCK
 62
     0
100
AcDbTrace
 10
74.269249
 20
222.784397
 30
0.0
 11
75.102583
 21
222.784397
 31
0.0
 12
74.685916
 22
225.284397
 32
0.0
 13
74.685916
 23
225.284397
 33
0.0
  0
SOLID
  5
654
100
AcDbEntity
  8
0
  6
BYBLOCK
 62
     0
100
AcDbTrace
 10
74.269249
 20
210.784397
 30
0.0
 11
75.102583
 21
210.784397
 31
0.0
 12
74.685916
 22
208.284397
 32
0.0
 13
74.685916
 23
208.284397
 33
0.0
  0
MTEXT
  5
655
100
AcDbEntity
  8
0
  6
BYBLOCK
 62
     0
100
AcDbMText
 10
72.560916
 20
216.784397
 30
0.0
 40
3.0
 41
0.0
 71
     5
 72
     1
  1
\A1;17
 11
0.0
 21
1.0
 31
0.0
  0
POINT
  5
656
100
AcDbEntity
  8
DEFPOINTS
  6
BYBLOCK
 62
     0
100
AcDbPoint
 10
91.730346
 20
225.284397
 30
0.0
  0
POINT
  5
657
100
AcDbEntity
  8
DEFPOINTS
  6
BYBLOCK
 62
     0
100
AcDbPoint
 10
91.230346
 20
208.284397
 30
0.0
  0
POINT
  5
658
100
AcDbEntity
  8
DEFPOINTS
  6
BYBLOCK
 62
     0
100
AcDbPoint
 10
74.685916
 20
208.284397
 30
0.0
  0
ENDBLK
  5
659
100
AcDbEntity
  8
0
100
AcDbBlockEnd
  0
BLOCK
  5
65C
100
AcDbEntity
  8
0
100
AcDbBlockBegin
  2
*D14
 70
    65
 10
0.0
 20
0.0
 30
0.0
  3
*D14
  1

  0
LINE
  5
65D
100
AcDbEntity
  8
0
  6
BYBLOCK
 62
     0
100
AcDbLine
 10
90.605346
 20
208.284397
 30
0.0
 11
73.435916
 21
208.284397
 31
0.0
  0
LINE
  5
65E
100
AcDbEntity
  8
0
  6
BYBLOCK
 62
     0
100
AcDbLine
 10
90.605346
 20
199.884397
 30
0.0
 11
73.435916
 21
199.884397
 31
0.0
  0
LINE
  5
65F
100
AcDbEntity
  8
0
  6
BYBLOCK
 62
     0
100
AcDbLine
 10
74.685916
 20
210.784397
 30
0.0
 11
74.685916
 21
213.284397
 31
0.0
  0
LINE
  5
660
100
AcDbEntity
  8
0
  6
BYBLOCK
 62
     0
100
AcDbLine
 10
74.685916
 20
197.384397
 30
0.0
 11
74.685916
 21
194.884397
 31
0.0
  0
SOLID
  5
661
100
AcDbEntity
  8
0
  6
BYBLOCK
 62
     0
100
AcDbTrace
 10
74.269249
 20
210.784397
 30
0.0
 11
75.102583
 21
210.784397
 31
0.0
 12
74.685916
 22
208.284397
 32
0.0
 13
74.685916
 23
208.284397
 33
0.0
  0
SOLID
  5
662
100
AcDbEntity
  8
0
  6
BYBLOCK
 62
     0
100
AcDbTrace
 10
74.269249
 20
197.384397
 30
0.0
 11
75.102583
 21
197.384397
 31
0.0
 12
74.685916
 22
199.884397
 32
0.0
 13
74.685916
 23
199.884397
 33
0.0
  0
MTEXT
  5
663
100
AcDbEntity
  8
0
  6
BYBLOCK
 62
     0
100
AcDbMText
 10
72.560916
 20
204.084397
 30
0.0
 40
3.0
 41
0.0
 71
     5
 72
     1
  1
\A1;8.4
 11
0.0
 21
1.0
 31
0.0
  0
POINT
  5
664
100
AcDbEntity
  8
DEFPOINTS
  6
BYBLOCK
 62
     0
100
AcDbPoint
 10
91.230346
 20
208.284397
 30
0.0
  0
POINT
  5
665
100
AcDbEntity
  8
DEFPOINTS
  6
BYBLOCK
 62
     0
100
AcDbPoint
 10
91.230346
 20
199.884397
 30
0.0
  0
POINT
  5
666
100
AcDbEntity
  8
DEFPOINTS
  6
BYBLOCK
 62
     0
100
AcDbPoint
 10
74.685916
 20
199.884397
 30
0.0
  0
ENDBLK
  5
667
100
AcDbEntity
  8
0
100
AcDbBlockEnd
  0
BLOCK
  5
678
100
AcDbEntity
  8
0
100
AcDbBlockBegin
  2
*D15
 70
    65
 10
0.0
 20
0.0
 30
0.0
  3
*D15
  1

  0
ARC
  5
679
100
AcDbEntity
  8
0
  6
BYBLOCK
 62
     0
100
AcDbCircle
 10
110.730346
 20
130.115601
 30
0.0
 40
18.633008
100
AcDbArc
 50
80.384878
 51
90.0
  0
ARC
  5
67A
100
AcDbEntity
  8
0
  6
BYBLOCK
 62
     0
100
AcDbCircle
 10
110.730346
 20
130.115601
 30
0.0
 40
18.633008
100
AcDbArc
 50
97.693181
 51
104.306819
  0
SOLID
  5
67B
100
AcDbEntity
  8
0
  6
BYBLOCK
 62
     0
100
AcDbTrace
 10
108.208026
 20
148.996624
 30
0.0
 11
108.26393
 21
148.165168
 31
0.0
 12
110.730346
 22
148.748609
 32
0.0
 13
110.730346
 23
148.748609
 33
0.0
  0
SOLID
  5
67C
100
AcDbEntity
  8
0
  6
BYBLOCK
 62
     0
100
AcDbTrace
 10
106.25568
 20
147.774803
 30
0.0
 11
105.996045
 21
148.566658
 31
0.0
 12
103.750298
 22
147.391825
 32
0.0
 13
103.750298
 23
147.391825
 33
0.0
  0
MTEXT
  5
67D
100
AcDbEntity
  8
0
  6
BYBLOCK
 62
     0
100
AcDbMText
 10
117.57935
 20
150.009091
 30
0.0
 40
3.0
 41
0.0
 71
     5
 72
     1
  1
\A1;22°
 11
0.985952
 21
-0.167029
 31
0.0
  0
POINT
  5
67E
100
AcDbEntity
  8
DEFPOINTS
  6
BYBLOCK
 62
     0
100
AcDbPoint
 10
106.012558
 20
148.141456
 30
0.0
  0
POINT
  5
67F
100
AcDbEntity
  8
DEFPOINTS
  6
BYBLOCK
 62
     0
100
AcDbPoint
 10
110.730346
 20
82.964885
 30
0.0
  0
POINT
  5
680
100
AcDbEntity
  8
DEFPOINTS
  6
BYBLOCK
 62
     0
100
AcDbPoint
 10
117.751506
 20
112.73762
 30
0.0
  0
POINT
  5
681
100
AcDbEntity
  8
DEFPOINTS
  6
BYBLOCK
 62
     0
100
AcDbPoint
 10
101.759039
 20
152.320364
 30
0.0
  0
POINT
  5
682
100
AcDbEntity
  8
DEFPOINTS
  6
BYBLOCK
 62
     0
100
AcDbPoint
 10
110.730346
 20
238.925787
 30
0.0
  0
ENDBLK
  5
683
100
AcDbEntity
  8
0
100
AcDbBlockEnd
  0
BLOCK
  5
686
100
AcDbEntity
  8
0
100
AcDbBlockBegin
  2
*D16
 70
    65
 10
0.0
 20
0.0
 30
0.0
  3
*D16
  1

  0
LINE
  5
687
100
AcDbEntity
  8
0
  6
BYBLOCK
 62
     0
100
AcDbLine
 10
117.730346
 20
184.899397
 30
0.0
 11
117.730346
 21
172.260897
 31
0.0
  0
ARC
  5
688
100
AcDbEntity
  8
0
  6
BYBLOCK
 62
     0
100
AcDbCircle
 10
117.730346
 20
185.524397
 30
0.0
 40
12.013499
100
AcDbArc
 50
210.074034
 51
225.0
  0
ARC
  5
689
100
AcDbEntity
  8
0
  6
BYBLOCK
 62
     0
100
AcDbCircle
 10
117.730346
 20
185.524397
 30
0.0
 40
12.013499
100
AcDbArc
 50
236.944828
 51
258.055172
  0
SOLID
  5
68A
100
AcDbEntity
  8
0
  6
BYBLOCK
 62
     0
100
AcDbTrace
 10
110.915254
 20
175.131649
 30
0.0
 11
111.439999
 21
175.779018
 31
0.0
 12
109.235519
 22
177.02957
 32
0.0
 13
109.235519
 23
177.02957
 33
0.0
  0
SOLID
  5
68B
100
AcDbEntity
  8
0
  6
BYBLOCK
 62
     0
100
AcDbTrace
 10
115.28727
 20
174.185427
 30
0.0
 11
115.200562
 21
173.356616
 31
0.0
 12
117.730346
 22
173.510897
 32
0.0
 13
117.730346
 23
173.510897
 33
0.0
  0
MTEXT
  5
68C
100
AcDbEntity
  8
0
  6
BYBLOCK
 62
     0
100
AcDbMText
 10
107.371529
 20
183.680122
 30
0.0
 40
3.0
 41
0.0
 71
     5
 72
     1
  1
\A1;45°
 11
0.501119
 21
-0.865379
 31
0.0
  0
POINT
  5
68D
100
AcDbEntity
  8
DEFPOINTS
  6
BYBLOCK
 62
     0
100
AcDbPoint
 10
114.621024
 20
173.920248
 30
0.0
  0
POINT
  5
68E
100
AcDbEntity
  8
DEFPOINTS
  6
BYBLOCK
 62
     0
100
AcDbPoint
 10
117.730346
 20
185.524397
 30
0.0
  0
POINT
  5
68F
100
AcDbEntity
  8
DEFPOINTS
  6
BYBLOCK
 62
     0
100
AcDbPoint
 10
117.730346
 20
194.284397
 30
0.0
  0
POINT
  5
690
100
AcDbEntity
  8
DEFPOINTS
  6
BYBLOCK
 62
     0
100
AcDbPoint
 10
117.730346
 20
185.524397
 30
0.0
  0
POINT
  5
691
100
AcDbEntity
  8
DEFPOINTS
  6
BYBLOCK
 62
     0
100
AcDbPoint
 10
106.160581
 20
173.954631
 30
0.0
  0
ENDBLK
  5
692
100
AcDbEntity
  8
0
100
AcDbBlockEnd
  0
BLOCK
  5
6D6
100
AcDbEntity
  8
0
100
AcDbBlockBegin
  2
*D17
 70
    65
 10
0.0
 20
0.0
 30
0.0
  3
*D17
  1

  0
LINE
  5
6D7
100
AcDbEntity
  8
0
  6
BYBLOCK
 62
     0
100
AcDbLine
 10
103.355346
 20
225.284397
 30
0.0
 11
174.701586
 21
225.284397
 31
0.0
  0
LINE
  5
6D8
100
AcDbEntity
  8
0
  6
BYBLOCK
 62
     0
100
AcDbLine
 10
111.355346
 20
106.785666
 30
0.0
 11
174.701586
 21
106.785666
 31
0.0
  0
LINE
  5
6D9
100
AcDbEntity
  8
0
  6
BYBLOCK
 62
     0
100
AcDbLine
 10
173.451586
 20
222.784397
 30
0.0
 11
173.451586
 21
109.285666
 31
0.0
  0
SOLID
  5
6DA
100
AcDbEntity
  8
0
  6
BYBLOCK
 62
     0
100
AcDbTrace
 10
173.03492
 20
222.784397
 30
0.0
 11
173.868253
 21
222.784397
 31
0.0
 12
173.451586
 22
225.284397
 32
0.0
 13
173.451586
 23
225.284397
 33
0.0
  0
SOLID
  5
6DB
100
AcDbEntity
  8
0
  6
BYBLOCK
 62
     0
100
AcDbTrace
 10
173.03492
 20
109.285666
 30
0.0
 11
173.868253
 21
109.285666
 31
0.0
 12
173.451586
 22
106.785666
 32
0.0
 13
173.451586
 23
106.785666
 33
0.0
  0
MTEXT
  5
6DC
100
AcDbEntity
  8
0
  6
BYBLOCK
 62
     0
100
AcDbMText
 10
171.326586
 20
166.035031
 30
0.0
 40
3.0
 41
0.0
 71
     5
 72
     1
  1
\A1;118.5
 11
0.0
 21
1.0
 31
0.0
  0
POINT
  5
6DD
100
AcDbEntity
  8
DEFPOINTS
  6
BYBLOCK
 62
     0
100
AcDbPoint
 10
102.730346
 20
225.284397
 30
0.0
  0
POINT
  5
6DE
100
AcDbEntity
  8
DEFPOINTS
  6
BYBLOCK
 62
     0
100
AcDbPoint
 10
110.730346
 20
106.785666
 30
0.0
  0
POINT
  5
6DF
100
AcDbEntity
  8
DEFPOINTS
  6
BYBLOCK
 62
     0
100
AcDbPoint
 10
173.451586
 20
106.785666
 30
0.0
  0
ENDBLK
  5
6E0
100
AcDbEntity
  8
0
100
AcDbBlockEnd
  0
BLOCK
  5
6E4
100
AcDbEntity
  8
0
100
AcDbBlockBegin
  2
*D18
 70
    65
 10
0.0
 20
0.0
 30
0.0
  3
*D18
  1

  0
LINE
  5
6E5
100
AcDbEntity
  8
0
  6
BYBLOCK
 62
     0
100
AcDbLine
 10
61.730346
 20
156.209052
 30
0.0
 11
61.730346
 21
127.373807
 31
0.0
  0
ARC
  5
6E6
100
AcDbEntity
  8
0
  6
BYBLOCK
 62
     0
100
AcDbCircle
 10
61.730346
 20
156.834052
 30
0.0
 40
28.210245
100
AcDbArc
 50
275.079231
 51
309.920769
  0
SOLID
  5
6E7
100
AcDbEntity
  8
0
  6
BYBLOCK
 62
     0
100
AcDbTrace
 10
64.246353
 20
128.318325
 30
0.0
 11
64.209428
 21
129.150839
 31
0.0
 12
61.730346
 22
128.623807
 32
0.0
 13
61.730346
 23
128.623807
 33
0.0
  0
SOLID
  5
6E8
100
AcDbEntity
  8
0
  6
BYBLOCK
 62
     0
100
AcDbTrace
 10
79.552358
 20
135.506089
 30
0.0
 11
80.114925
 21
134.891302
 31
0.0
 12
81.678002
 22
136.886396
 32
0.0
 13
81.678002
 23
136.886396
 33
0.0
  0
MTEXT
  5
6E9
100
AcDbEntity
  8
0
  6
BYBLOCK
 62
     0
100
AcDbMText
 10
71.712737
 20
132.734428
 30
0.0
 40
3.0
 41
0.0
 71
     5
 72
     1
  1
\A1;45°
 11
0.92388
 21
0.382683
 31
0.0
  0
POINT
  5
6EA
100
AcDbEntity
  8
DEFPOINTS
  6
BYBLOCK
 62
     0
100
AcDbPoint
 10
69.031695
 20
129.585047
 30
0.0
  0
POINT
  5
6EB
100
AcDbEntity
  8
DEFPOINTS
  6
BYBLOCK
 62
     0
100
AcDbPoint
 10
61.730346
 20
183.284397
 30
0.0
  0
POINT
  5
6EC
100
AcDbEntity
  8
DEFPOINTS
  6
BYBLOCK
 62
     0
100
AcDbPoint
 10
104.804791
 20
113.759607
 30
0.0
  0
POINT
  5
6ED
100
AcDbEntity
  8
DEFPOINTS
  6
BYBLOCK
 62
     0
100
AcDbPoint
 10
61.730346
 20
156.834052
 30
0.0
  0
POINT
  5
6EE
100
AcDbEntity
  8
DEFPOINTS
  6
BYBLOCK
 62
     0
100
AcDbPoint
 10
61.730346
 20
156.834052
 30
0.0
  0
ENDBLK
  5
6EF
100
AcDbEntity
  8
0
100
AcDbBlockEnd
  0
BLOCK
  5
6F9
100
AcDbEntity
  8
0
100
AcDbBlockBegin
  2
*D19
 70
    65
 10
0.0
 20
0.0
 30
0.0
  3
*D19
  1

  0
LINE
  5
6FA
100
AcDbEntity
  8
0
  6
BYBLOCK
 62
     0
100
AcDbLine
 10
103.311192
 20
115.268632
 30
0.0
 11
101.352476
 21
117.296941
 31
0.0
  0
LINE
  5
6FB
100
AcDbEntity
  8
0
  6
BYBLOCK
 62
     0
100
AcDbLine
 10
102.252399
 20
114.246168
 30
0.0
 11
100.293684
 21
116.274477
 31
0.0
  0
LINE
  5
6FC
100
AcDbEntity
  8
0
  6
BYBLOCK
 62
     0
100
AcDbLine
 10
104.019149
 20
118.134412
 30
0.0
 11
105.817498
 21
119.871058
 31
0.0
  0
LINE
  5
6FD
100
AcDbEntity
  8
0
  6
BYBLOCK
 62
     0
100
AcDbLine
 10
99.363657
 20
113.638656
 30
0.0
 11
91.91849
 21
106.448942
 31
0.0
  0
SOLID
  5
6FE
100
AcDbEntity
  8
0
  6
BYBLOCK
 62
     0
100
AcDbTrace
 10
103.729708
 20
118.434137
 30
0.0
 11
104.30859
 21
117.834687
 31
0.0
 12
102.220799
 22
116.397766
 32
0.0
 13
102.220799
 23
116.397766
 33
0.0
  0
SOLID
  5
6FF
100
AcDbEntity
  8
0
  6
BYBLOCK
 62
     0
100
AcDbTrace
 10
99.074216
 20
113.938381
 30
0.0
 11
99.653098
 21
113.338931
 31
0.0
 12
101.162007
 22
115.375302
 32
0.0
 13
101.162007
 23
115.375302
 33
0.0
  0
MTEXT
  5
700
100
AcDbEntity
  8
0
  6
BYBLOCK
 62
     0
100
AcDbMText
 10
93.26575
 20
110.704073
 30
0.0
 40
3.0
 41
0.0
 71
     5
 72
     1
  1
\A1;1.47
 11
0.71934
 21
0.694658
 31
0.0
  0
POINT
  5
701
100
AcDbEntity
  8
DEFPOINTS
  6
BYBLOCK
 62
     0
100
AcDbPoint
 10
103.745353
 20
114.819044
 30
0.0
  0
POINT
  5
702
100
AcDbEntity
  8
DEFPOINTS
  6
BYBLOCK
 62
     0
100
AcDbPoint
 10
102.686561
 20
113.79658
 30
0.0
  0
POINT
  5
703
100
AcDbEntity
  8
DEFPOINTS
  6
BYBLOCK
 62
     0
100
AcDbPoint
 10
101.162007
 20
115.375302
 30
0.0
  0
ENDBLK
  5
704
100
AcDbEntity
  8
0
100
AcDbBlockEnd
  0
BLOCK
  5
719
100
AcDbEntity
  8
0
100
AcDbBlockBegin
  2
*D20
 70
    65
 10
0.0
 20
0.0
 30
0.0
  3
*D20
  1

  0
LINE
  5
71A
100
AcDbEntity
  8
0
  6
BYBLOCK
 62
     0
100
AcDbLine
 10
91.105346
 20
225.284397
 30
0.0
 11
42.754241
 21
225.284397
 31
0.0
  0
LINE
  5
71B
100
AcDbEntity
  8
0
  6
BYBLOCK
 62
     0
100
AcDbLine
 10
72.905346
 20
195.084397
 30
0.0
 11
42.754241
 21
195.084397
 31
0.0
  0
LINE
  5
71C
100
AcDbEntity
  8
0
  6
BYBLOCK
 62
     0
100
AcDbLine
 10
44.004241
 20
222.784397
 30
0.0
 11
44.004241
 21
197.584397
 31
0.0
  0
SOLID
  5
71D
100
AcDbEntity
  8
0
  6
BYBLOCK
 62
     0
100
AcDbTrace
 10
43.587575
 20
222.784397
 30
0.0
 11
44.420908
 21
222.784397
 31
0.0
 12
44.004241
 22
225.284397
 32
0.0
 13
44.004241
 23
225.284397
 33
0.0
  0
SOLID
  5
71E
100
AcDbEntity
  8
0
  6
BYBLOCK
 62
     0
100
AcDbTrace
 10
43.587575
 20
197.584397
 30
0.0
 11
44.420908
 21
197.584397
 31
0.0
 12
44.004241
 22
195.084397
 32
0.0
 13
44.004241
 23
195.084397
 33
0.0
  0
MTEXT
  5
71F
100
AcDbEntity
  8
0
  6
BYBLOCK
 62
     0
100
AcDbMText
 10
40.02806
 20
210.184397
 30
0.0
 40
3.0
 41
0.0
 71
     5
 72
     1
  1
\A1;30.2\S+0.1^  0;
 11
0.0
 21
1.0
 31
0.0
  0
POINT
  5
720
100
AcDbEntity
  8
DEFPOINTS
  6
BYBLOCK
 62
     0
100
AcDbPoint
 10
91.730346
 20
225.284397
 30
0.0
  0
POINT
  5
721
100
AcDbEntity
  8
DEFPOINTS
  6
BYBLOCK
 62
     0
100
AcDbPoint
 10
73.530346
 20
195.084397
 30
0.0
  0
POINT
  5
722
100
AcDbEntity
  8
DEFPOINTS
  6
BYBLOCK
 62
     0
100
AcDbPoint
 10
44.004241
 20
195.084397
 30
0.0
  0
ENDBLK
  5
723
100
AcDbEntity
  8
0
100
AcDbBlockEnd
  0
ENDSEC
  0
SECTION
  2
ENTITIES
  0
LINE
  5
261
100
AcDbEntity
  8
DISEGNO
100
AcDbLine
 10
91.730346
 20
225.284397
 30
0.0
 11
102.730346
 21
225.284397
 31
0.0
  0
LINE
  5
262
100
AcDbEntity
  8
DISEGNO
100
AcDbLine
 10
103.730346
 20
224.284397
 30
0.0
 11
103.730346
 21
195.284397
 31
0.0
  0
LINE
  5
263
100
AcDbEntity
  8
DISEGNO
100
AcDbLine
 10
103.730346
 20
195.284397
 30
0.0
 11
116.730346
 21
195.284397
 31
0.0
  0
LINE
  5
265
100
AcDbEntity
  8
DISEGNO
100
AcDbLine
 10
90.730346
 20
224.284397
 30
0.0
 11
90.730346
 21
208.784397
 31
0.0
  0
LINE
  5
266
100
AcDbEntity
  8
DISEGNO
100
AcDbLine
 10
91.230346
 20
208.284397
 30
0.0
 11
94.230346
 21
208.284397
 31
0.0
  0
LINE
  5
267
100
AcDbEntity
  8
DISEGNO
100
AcDbLine
 10
94.230346
 20
208.284397
 30
0.0
 11
94.230346
 21
199.884397
 31
0.0
  0
LINE
  5
268
100
AcDbEntity
  8
DISEGNO
100
AcDbLine
 10
94.230346
 20
199.884397
 30
0.0
 11
91.230346
 21
199.884397
 31
0.0
  0
LINE
  5
269
100
AcDbEntity
  8
DISEGNO
100
AcDbLine
 10
90.730346
 20
199.384397
 30
0.0
 11
90.730346
 21
195.084397
 31
0.0
  0
LINE
  5
26A
100
AcDbEntity
  8
DISEGNO
100
AcDbLine
 10
90.730346
 20
195.084397
 30
0.0
 11
73.530346
 21
195.084397
 31
0.0
  0
LINE
  5
275
100
AcDbEntity
  8
DISEGNO
100
AcDbLine
 10
117.730346
 20
185.524397
 30
0.0
 11
106.160581
 21
173.954631
 31
0.0
  0
LINE
  5
276
100
AcDbEntity
  8
DISEGNO
100
AcDbLine
 10
117.751506
 20
112.73762
 30
0.0
 11
101.759039
 21
152.320364
 31
0.0
  0
LINE
  5
278
100
AcDbEntity
  8
DISEGNO
100
AcDbLine
 10
73.530346
 20
195.084397
 30
0.0
 11
61.730346
 21
183.284397
 31
0.0
  0
LINE
  5
3E8
100
AcDbEntity
  8
DISEGNO
100
AcDbLine
 10
91.730346
 20
225.284397
 30
0.0
 11
90.730346
 21
224.284397
 31
0.0
  0
LINE
  5
3E9
100
AcDbEntity
  8
DISEGNO
100
AcDbLine
 10
102.730346
 20
225.284397
 30
0.0
 11
103.730346
 21
224.284397
 31
0.0
  0
LINE
  5
3EA
100
AcDbEntity
  8
DISEGNO
100
AcDbLine
 10
116.730346
 20
195.284397
 30
0.0
 11
117.730346
 21
194.284397
 31
0.0
  0
LINE
  5
3EB
100
AcDbEntity
  8
DISEGNO
100
AcDbLine
 10
90.730346
 20
208.784397
 30
0.0
 11
91.230346
 21
208.284397
 31
0.0
  0
LINE
  5
3EC
100
AcDbEntity
  8
DISEGNO
100
AcDbLine
 10
90.730346
 20
199.384397
 30
0.0
 11
91.230346
 21
199.884397
 31
0.0
  0
ARC
  5
40F
100
AcDbEntity
  8
DISEGNO
100
AcDbCircle
 10
120.302717
 20
159.812496
 30
0.0
 40
20.0
100
AcDbArc
 50
135.0
 51
202.0
  0
ARC
  5
511
100
AcDbEntity
  8
DISEGNO
100
AcDbCircle
 10
110.730346
 20
109.785666
 30
0.0
 40
3.0
100
AcDbArc
 50
224.0
 51
316.0
1001
ACAD
1000
ASC_BOUNDS
1002
{
1070
    19
1002
}
  0
LINE
  5
584
100
AcDbEntity
  8
DISEGNO
100
AcDbLine
 10
117.730346
 20
194.284397
 30
0.0
 11
117.730346
 21
185.524397
 31
0.0
  0
LINE
  5
585
100
AcDbEntity
  8
DISEGNO
100
AcDbLine
 10
61.730346
 20
183.284397
 30
0.0
 11
61.730346
 21
156.834052
 31
0.0
  0
LINE
  5
587
100
AcDbEntity
  8
DISEGNO
100
AcDbLine
 10
112.888366
 20
107.701691
 30
0.0
 11
117.751506
 21
112.73762
 31
0.0
  0
LINE
  5
588
100
AcDbEntity
  8
DISEGNO
100
AcDbLine
 10
108.572327
 20
107.701691
 30
0.0
 11
103.745353
 21
112.700169
 31
0.0
  0
LINE
  5
6AE
100
AcDbEntity
  8
DISEGNO
100
AcDbLine
 10
103.745353
 20
114.819044
 30
0.0
 11
61.730346
 21
156.834052
 31
0.0
  0
LINE
  5
6F7
100
AcDbEntity
  8
DISEGNO
100
AcDbLine
 10
103.745353
 20
112.700169
 30
0.0
 11
103.745353
 21
114.819044
 31
0.0
  0
ENDSEC
  0
SECTION
  2
OBJECTS
  0
DICTIONARY
  5
C
100
AcDbDictionary
  3
ACAD_GROUP
350
D
  3
ACAD_MLINESTYLE
350
E
  0
DICTIONARY
  5
D
102
{ACAD_REACTORS
330
C
102
}
100
AcDbDictionary
  0
DICTIONARY
  5
E
102
{ACAD_REACTORS
330
C
102
}
100
AcDbDictionary
  3
STANDARD
350
1C
  0
MLINESTYLE
  5
1C
102
{ACAD_REACTORS
330
E
102
}
100
AcDbMlineStyle
  2
STANDARD
 70
     0
  3

 62
     0
 51
90.0
 52
90.0
 71
     2
 49
0.5
 62
   256
  6
BYLAYER
 49
-0.5
 62
   256
  6
BYLAYER
  0
ENDSEC
  0
EOF
