  0
SECTION
  2
HEADER
  9
$ACADVER
  1
AC1012
  9
$DWGCODEPAGE
  3
iso8859-1
  9
$INSBASE
 10
0.0
 20
0.0
 30
0.0
  9
$EXTMIN
 10
22.155497
 20
130.391207
 30
0.0
  9
$EXTMAX
 10
247.618107
 20
196.829895
 30
0.0
  9
$LIMMIN
 10
0.0
 20
0.0
  9
$LIMMAX
 10
200.0
 20
250.0
  9
$ORTHOMODE
 70
     1
  9
$REGENMODE
 70
     1
  9
$FILLMODE
 70
     1
  9
$QTEXTMODE
 70
     0
  9
$MIRRTEXT
 70
     1
  9
$DRAGMODE
 70
     2
  9
$LTSCALE
 40
0.841751
  9
$OSMODE
 70
     0
  9
$ATTMODE
 70
     1
  9
$TEXTSIZE
 40
5.0
  9
$TRACEWID
 40
1.0
  9
$TEXTSTYLE
  7
STANDARD
  9
$CLAYER
  8
QUOTE
  9
$CELTYPE
  6
CONTINUOUS
  9
$CECOLOR
 62
   256
  9
$CELTSCALE
 40
1.0
  9
$DELOBJ
 70
     1
  9
$DISPSILH
 70
     0
  9
$DIMSCALE
 40
1.0
  9
$DIMASZ
 40
2.6
  9
$DIMEXO
 40
0.53
  9
$DIMDLI
 40
3.16
  9
$DIMRND
 40
0.0
  9
$DIMDLE
 40
0.0
  9
$DIMEXE
 40
1.05
  9
$DIMTP
 40
0.2
  9
$DIMTM
 40
0.0
  9
$DIMTXT
 40
5.0
  9
$DIMCEN
 40
2.1
  9
$DIMTSZ
 40
0.0
  9
$DIMTOL
 70
     0
  9
$DIMLIM
 70
     0
  9
$DIMTIH
 70
     0
  9
$DIMTOH
 70
     0
  9
$DIMSE1
 70
     0
  9
$DIMSE2
 70
     0
  9
$DIMTAD
 70
     1
  9
$DIMZIN
 70
     8
  9
$DIMBLK
  1

  9
$DIMASO
 70
     1
  9
$DIMSHO
 70
     1
  9
$DIMPOST
  1

  9
$DIMAPOST
  1

  9
$DIMALT
 70
     0
  9
$DIMALTD
 70
     2
  9
$DIMALTF
 40
0.0394
  9
$DIMLFAC
 40
1.0
  9
$DIMTOFL
 70
     1
  9
$DIMTVP
 40
1.0
  9
$DIMTIX
 70
     0
  9
$DIMSOXD
 70
     0
  9
$DIMSAH
 70
     0
  9
$DIMBLK1
  1

  9
$DIMBLK2
  1

  9
$DIMSTYLE
  2
ISO-25
  9
$DIMCLRD
 70
     0
  9
$DIMCLRE
 70
     0
  9
$DIMCLRT
 70
     0
  9
$DIMTFAC
 40
1.0
  9
$DIMGAP
 40
0.53
  9
$DIMJUST
 70
     0
  9
$DIMSD1
 70
     0
  9
$DIMSD2
 70
     0
  9
$DIMTOLJ
 70
     1
  9
$DIMTZIN
 70
     0
  9
$DIMALTZ
 70
     0
  9
$DIMALTTZ
 70
     0
  9
$DIMFIT
 70
     3
  9
$DIMUPT
 70
     0
  9
$DIMUNIT
 70
     2
  9
$DIMDEC
 70
     2
  9
$DIMTDEC
 70
     2
  9
$DIMALTU
 70
     2
  9
$DIMALTTD
 70
     2
  9
$DIMTXSTY
  7
STANDARD
  9
$DIMAUNIT
 70
     0
  9
$LUNITS
 70
     2
  9
$LUPREC
 70
     2
  9
$SKETCHINC
 40
1.0
  9
$FILLETRAD
 40
6.0
  9
$AUNITS
 70
     0
  9
$AUPREC
 70
     2
  9
$MENU
  1
.
  9
$ELEVATION
 40
0.0
  9
$PELEVATION
 40
0.0
  9
$THICKNESS
 40
0.0
  9
$LIMCHECK
 70
     0
  9
$BLIPMODE
 70
     1
  9
$CHAMFERA
 40
0.8
  9
$CHAMFERB
 40
0.8
  9
$CHAMFERC
 40
16.835017
  9
$CHAMFERD
 40
0.0
  9
$SKPOLY
 70
     0
  9
$TDCREATE
 40
2450962.329882870
  9
$TDUPDATE
 40
2451775.434780323
  9
$TDINDWG
 40
1.0028989583
  9
$TDUSRTIMER
 40
1.0028989583
  9
$USRTIMER
 70
     1
  9
$ANGBASE
 50
0.0
  9
$ANGDIR
 70
     0
  9
$PDMODE
 70
     0
  9
$PDSIZE
 40
0.0
  9
$PLINEWID
 40
0.0
  9
$COORDS
 70
     2
  9
$SPLFRAME
 70
     0
  9
$SPLINETYPE
 70
     6
  9
$SPLINESEGS
 70
     8
  9
$ATTDIA
 70
     0
  9
$ATTREQ
 70
     1
  9
$HANDLING
 70
     1
  9
$HANDSEED
  5
3147
  9
$SURFTAB1
 70
     6
  9
$SURFTAB2
 70
     6
  9
$SURFTYPE
 70
     6
  9
$SURFU
 70
     6
  9
$SURFV
 70
     6
  9
$UCSNAME
  2

  9
$UCSORG
 10
0.0
 20
0.0
 30
0.0
  9
$UCSXDIR
 10
1.0
 20
0.0
 30
0.0
  9
$UCSYDIR
 10
0.0
 20
1.0
 30
0.0
  9
$PUCSNAME
  2

  9
$PUCSORG
 10
0.0
 20
0.0
 30
0.0
  9
$PUCSXDIR
 10
1.0
 20
0.0
 30
0.0
  9
$PUCSYDIR
 10
0.0
 20
1.0
 30
0.0
  9
$USERI1
 70
     0
  9
$USERI2
 70
     0
  9
$USERI3
 70
     0
  9
$USERI4
 70
     0
  9
$USERI5
 70
     0
  9
$USERR1
 40
0.0
  9
$USERR2
 40
0.0
  9
$USERR3
 40
0.0
  9
$USERR4
 40
0.0
  9
$USERR5
 40
0.0
  9
$WORLDVIEW
 70
     1
  9
$SHADEDGE
 70
     3
  9
$SHADEDIF
 70
    70
  9
$TILEMODE
 70
     1
  9
$MAXACTVP
 70
    16
  9
$PINSBASE
 10
0.0
 20
0.0
 30
0.0
  9
$PLIMCHECK
 70
     0
  9
$PEXTMIN
 10
1.000000E+20
 20
1.000000E+20
 30
1.000000E+20
  9
$PEXTMAX
 10
-1.000000E+20
 20
-1.000000E+20
 30
-1.000000E+20
  9
$PLIMMIN
 10
0.0
 20
0.0
  9
$PLIMMAX
 10
420.0
 20
297.0
  9
$UNITMODE
 70
     0
  9
$VISRETAIN
 70
     0
  9
$PLINEGEN
 70
     0
  9
$PSLTSCALE
 70
     1
  9
$TREEDEPTH
 70
  3020
  9
$PICKSTYLE
 70
     1
  9
$CMLSTYLE
  2
STANDARD
  9
$CMLJUST
 70
     0
  9
$CMLSCALE
 40
1.0
  9
$SAVEIMAGES
 70
     0
  0
ENDSEC
  0
SECTION
  2
CLASSES
  0
ENDSEC
  0
SECTION
  2
TABLES
  0
TABLE
  2
VPORT
  5
8
100
AcDbSymbolTable
 70
     2
  0
VPORT
  5
3146
100
AcDbSymbolTableRecord
100
AcDbViewportTableRecord
  2
*ACTIVE
 70
     0
 10
0.0
 20
0.0
 11
1.0
 21
1.0
 12
75.487261
 22
156.369401
 13
0.0
 23
0.0
 14
5.0
 24
5.0
 15
5.0
 25
5.0
 16
0.0
 26
0.0
 36
1.0
 17
0.0
 27
0.0
 37
0.0
 40
152.842223
 41
1.873134
 42
50.0
 43
0.0
 44
0.0
 50
0.0
 51
0.0
 71
     0
 72
   100
 73
     1
 74
     0
 75
     0
 76
     0
 77
     0
 78
     2
  0
ENDTAB
  0
TABLE
  2
LTYPE
  5
5
100
AcDbSymbolTable
 70
     4
  0
LTYPE
  5
14
100
AcDbSymbolTableRecord
100
AcDbLinetypeTableRecord
  2
BYBLOCK
 70
     0
  3

 72
    65
 73
     0
 40
0.0
  0
LTYPE
  5
15
100
AcDbSymbolTableRecord
100
AcDbLinetypeTableRecord
  2
BYLAYER
 70
     0
  3

 72
    65
 73
     0
 40
0.0
  0
LTYPE
  5
16
100
AcDbSymbolTableRecord
100
AcDbLinetypeTableRecord
  2
CONTINUOUS
 70
    64
  3
Solid line
 72
    65
 73
     0
 40
0.0
  0
LTYPE
  5
62
100
AcDbSymbolTableRecord
100
AcDbLinetypeTableRecord
  2
LINEA-LINEETTEX2
 70
    64
  3
____________    ____    ____    ____________   
 72
    65
 73
     6
 40
5.0
 49
2.5
 74
     0
 49
-0.5
 74
     0
 49
0.5
 74
     0
 49
-0.5
 74
     0
 49
0.5
 74
     0
 49
-0.5
 74
     0
  0
LTYPE
  5
63
100
AcDbSymbolTableRecord
100
AcDbLinetypeTableRecord
  2
TRATTEGGIATA
 70
    64
  3
__ __ __ __ __ __ __ __ __ __ __ __ __ __ __ __
 72
    65
 73
     2
 40
0.75
 49
0.5
 74
     0
 49
-0.25
 74
     0
  0
LTYPE
  5
1428
100
AcDbSymbolTableRecord
100
AcDbLinetypeTableRecord
  2
TRATTO-PUNTO
 70
    64
  3
__ . __ . __ . __ . __ . __ . __ . __ . __ . __
 72
    65
 73
     4
 40
1.0
 49
0.5
 74
     0
 49
-0.25
 74
     0
 49
0.0
 74
     0
 49
-0.25
 74
     0
  0
ENDTAB
  0
TABLE
  2
LAYER
  5
2
100
AcDbSymbolTable
 70
     9
  0
LAYER
  5
F
100
AcDbSymbolTableRecord
100
AcDbLayerTableRecord
  2
0
 70
     0
 62
     7
  6
CONTINUOUS
  0
LAYER
  5
64
100
AcDbSymbolTableRecord
100
AcDbLayerTableRecord
  2
OGGETTO
 70
    64
 62
   250
  6
CONTINUOUS
  0
LAYER
  5
65
100
AcDbSymbolTableRecord
100
AcDbLayerTableRecord
  2
QUOTE
 70
    64
 62
     1
  6
CONTINUOUS
  0
LAYER
  5
66
100
AcDbSymbolTableRecord
100
AcDbLayerTableRecord
  2
CENTRO
 70
    64
 62
     3
  6
TRATTO-PUNTO
  0
LAYER
  5
67
100
AcDbSymbolTableRecord
100
AcDbLayerTableRecord
  2
NASCOSTA
 70
    64
 62
     5
  6
TRATTEGGIATA
  0
LAYER
  5
68
100
AcDbSymbolTableRecord
100
AcDbLayerTableRecord
  2
SEZIONE
 70
    64
 62
     8
  6
CONTINUOUS
  0
LAYER
  5
94
100
AcDbSymbolTableRecord
100
AcDbLayerTableRecord
  2
DEFPOINTS
 70
    64
 62
     7
  6
CONTINUOUS
  0
LAYER
  5
F74
100
AcDbSymbolTableRecord
100
AcDbLayerTableRecord
  2
TESTO
 70
    64
 62
     6
  6
CONTINUOUS
  0
LAYER
  5
2B48
100
AcDbSymbolTableRecord
100
AcDbLayerTableRecord
  2
DISEGNO
 70
    64
 62
     7
  6
CONTINUOUS
  0
ENDTAB
  0
TABLE
  2
STYLE
  5
3
100
AcDbSymbolTable
 70
     5
  0
STYLE
  5
10
100
AcDbSymbolTableRecord
100
AcDbTextStyleTableRecord
  2
STANDARD
 70
    64
 40
5.0
 41
1.0
 50
0.0
 71
     0
 42
5.0
  3
C:\Programmi\AutoCAD LT\isocp.shx
  4

  0
STYLE
  5
6A
100
AcDbSymbolTableRecord
100
AcDbTextStyleTableRecord
  2

 70
    65
 40
0.0
 41
1.0
 50
0.0
 71
     0
 42
2.104377
  3
ltypeshp.shx
  4

  0
STYLE
  5
176C
100
AcDbSymbolTableRecord
100
AcDbTextStyleTableRecord
  2
QUOTE
 70
    64
 40
0.0
 41
1.0
 50
0.0
 71
     0
 42
3.5
  3
C:\Programmi\AutoCAD LT\monosbi.ttf
  4

  0
STYLE
  5
259D
100
AcDbSymbolTableRecord
100
AcDbTextStyleTableRecord
  2
TABELLA
 70
    64
 40
5.0
 41
1.0
 50
0.0
 71
     0
 42
5.0
  3
C:\WINDOWS\FONTS\Arial.ttf
  4

  0
STYLE
  5
2B39
100
AcDbSymbolTableRecord
100
AcDbTextStyleTableRecord
  2
ARIAL
 70
    64
 40
5.0
 41
1.0
 50
0.0
 71
     0
 42
5.0
  3
C:\WINDOWS\FONTS\Arial.ttf
  4

  0
ENDTAB
  0
TABLE
  2
VIEW
  5
6
100
AcDbSymbolTable
 70
     0
  0
ENDTAB
  0
TABLE
  2
UCS
  5
7
100
AcDbSymbolTable
 70
     0
  0
ENDTAB
  0
TABLE
  2
APPID
  5
9
100
AcDbSymbolTable
 70
     1
  0
APPID
  5
11
100
AcDbSymbolTableRecord
100
AcDbRegAppTableRecord
  2
ACAD
 70
     0
  0
ENDTAB
  0
TABLE
  2
DIMSTYLE
  5
A
100
AcDbSymbolTable
 70
    10
  0
DIMSTYLE
105
1D
100
AcDbSymbolTableRecord
100
AcDbDimStyleTableRecord
  2
STANDARD
 70
     0
  3

  4

  5

  6

  7

 40
1.0
 41
0.18
 42
0.0625
 43
0.38
 44
0.18
 45
0.0
 46
0.0
 47
0.0
 48
0.0
140
0.18
141
0.09
142
0.0
143
25.4
144
1.0
145
0.0
146
1.0
147
0.09
 71
     0
 72
     0
 73
     1
 74
     1
 75
     0
 76
     0
 77
     0
 78
     0
170
     0
171
     2
172
     0
173
     0
174
     0
175
     0
176
     0
177
     0
178
     0
270
     2
271
     4
272
     4
273
     2
274
     2
340
10
275
     0
280
     0
281
     0
282
     0
283
     1
284
     0
285
     0
286
     0
287
     3
288
     0
  0
DIMSTYLE
105
24
100
AcDbSymbolTableRecord
100
AcDbDimStyleTableRecord
  2
ISO-25
 70
     0
  3

  4

  5

  6

  7

 40
1.0
 41
2.5
 42
0.625
 43
3.75
 44
1.25
 45
0.0
 46
0.0
 47
0.0
 48
0.0
140
2.5
141
2.5
142
0.0
143
0.0394
144
1.0
145
1.0
146
1.0
147
0.625
 71
     0
 72
     0
 73
     1
 74
     0
 75
     0
 76
     0
 77
     1
 78
     8
170
     0
171
     2
172
     1
173
     0
174
     0
175
     0
176
     0
177
     0
178
     0
270
     2
271
     4
272
     4
273
     2
274
     2
340
10
275
     0
280
     0
281
     0
282
     0
283
     1
284
     0
285
     0
286
     0
287
     3
288
     0
  0
DIMSTYLE
105
25
100
AcDbSymbolTableRecord
100
AcDbDimStyleTableRecord
  2
ISO-35
 70
     0
  3

  4

  5

  6

  7

 40
1.0
 41
3.5
 42
0.875
 43
5.25
 44
1.75
 45
0.0
 46
0.0
 47
0.0
 48
0.0
140
3.5
141
3.5
142
0.0
143
0.0394
144
1.0
145
1.4
146
1.0
147
0.875
 71
     0
 72
     0
 73
     1
 74
     0
 75
     0
 76
     0
 77
     1
 78
     8
170
     0
171
     2
172
     1
173
     0
174
     0
175
     0
176
     0
177
     0
178
     0
270
     2
271
     4
272
     4
273
     2
274
     2
340
10
275
     0
280
     0
281
     0
282
     0
283
     1
284
     0
285
     0
286
     0
287
     3
288
     0
  0
DIMSTYLE
105
26
100
AcDbSymbolTableRecord
100
AcDbDimStyleTableRecord
  2
ISO-5
 70
     0
  3

  4

  5

  6

  7

 40
1.0
 41
5.0
 42
1.25
 43
7.5
 44
2.5
 45
0.0
 46
0.0
 47
0.0
 48
0.0
140
5.0
141
5.0
142
0.0
143
0.0394
144
1.0
145
2.0
146
1.0
147
1.25
 71
     0
 72
     0
 73
     1
 74
     0
 75
     0
 76
     0
 77
     1
 78
     8
170
     0
171
     2
172
     1
173
     0
174
     0
175
     0
176
     0
177
     0
178
     0
270
     2
271
     4
272
     4
273
     2
274
     2
340
10
275
     0
280
     0
281
     0
282
     0
283
     1
284
     0
285
     0
286
     0
287
     3
288
     0
  0
DIMSTYLE
105
27
100
AcDbSymbolTableRecord
100
AcDbDimStyleTableRecord
  2
ISO-7
 70
     0
  3

  4

  5

  6

  7

 40
1.0
 41
7.0
 42
1.75
 43
10.5
 44
3.5
 45
0.0
 46
0.0
 47
0.0
 48
0.0
140
7.0
141
7.0
142
0.0
143
0.0394
144
1.0
145
2.8
146
1.0
147
1.75
 71
     0
 72
     0
 73
     1
 74
     0
 75
     0
 76
     0
 77
     1
 78
     8
170
     0
171
     2
172
     1
173
     0
174
     0
175
     0
176
     0
177
     0
178
     0
270
     2
271
     4
272
     4
273
     2
274
     2
340
10
275
     0
280
     0
281
     0
282
     0
283
     1
284
     0
285
     0
286
     0
287
     3
288
     0
  0
DIMSTYLE
105
28
100
AcDbSymbolTableRecord
100
AcDbDimStyleTableRecord
  2
ISO1
 70
     0
  3

  4

  5

  6

  7

 40
1.0
 41
10.0
 42
2.5
 43
15.0
 44
5.0
 45
0.0
 46
0.0
 47
0.0
 48
0.0
140
10.0
141
10.0
142
0.0
143
0.0394
144
1.0
145
4.0
146
1.0
147
2.5
 71
     0
 72
     0
 73
     1
 74
     0
 75
     0
 76
     0
 77
     1
 78
     8
170
     0
171
     2
172
     1
173
     0
174
     0
175
     0
176
     0
177
     0
178
     0
270
     2
271
     4
272
     4
273
     2
274
     2
340
10
275
     0
280
     0
281
     0
282
     0
283
     1
284
     0
285
     0
286
     0
287
     3
288
     0
  0
DIMSTYLE
105
29
100
AcDbSymbolTableRecord
100
AcDbDimStyleTableRecord
  2
ISO1-4
 70
     0
  3

  4

  5

  6

  7

 40
1.0
 41
14.0
 42
3.5
 43
21.0
 44
7.0
 45
0.0
 46
0.0
 47
0.0
 48
0.0
140
14.0
141
14.0
142
0.0
143
0.0394
144
1.0
145
5.6
146
1.0
147
3.5
 71
     0
 72
     0
 73
     1
 74
     0
 75
     0
 76
     0
 77
     1
 78
     8
170
     0
171
     2
172
     1
173
     0
174
     0
175
     0
176
     0
177
     0
178
     0
270
     2
271
     4
272
     4
273
     2
274
     2
340
10
275
     0
280
     0
281
     0
282
     0
283
     1
284
     0
285
     0
286
     0
287
     3
288
     0
  0
DIMSTYLE
105
2A
100
AcDbSymbolTableRecord
100
AcDbDimStyleTableRecord
  2
ISO2
 70
     0
  3

  4

  5

  6

  7

 40
1.0
 41
20.0
 42
5.0
 43
30.0
 44
10.0
 45
0.0
 46
0.0
 47
0.0
 48
0.0
140
20.0
141
20.0
142
0.0
143
0.0394
144
1.0
145
8.0
146
1.0
147
5.0
 71
     0
 72
     0
 73
     1
 74
     0
 75
     0
 76
     0
 77
     1
 78
     8
170
     0
171
     2
172
     1
173
     0
174
     0
175
     0
176
     0
177
     0
178
     0
270
     2
271
     4
272
     4
273
     2
274
     2
340
10
275
     0
280
     0
281
     0
282
     0
283
     1
284
     0
285
     0
286
     0
287
     3
288
     0
  0
DIMSTYLE
105
176D
100
AcDbSymbolTableRecord
100
AcDbDimStyleTableRecord
  2
TOLL-01-03
 70
     0
  3
 <>
  4
inch[]
  5

  6

  7

 40
1.0
 41
5.0
 42
2.0
 43
3.75
 44
1.25
 45
0.0
 46
0.0
 47
0.01
 48
0.03
140
5.0
141
-5.0
142
0.0
143
0.03937
144
1.0
145
0.0
146
0.5
147
2.0
 71
     1
 72
     0
 73
     0
 74
     0
 75
     0
 76
     0
 77
     3
 78
     8
170
     0
171
     2
172
     0
173
     0
174
     0
175
     0
176
     0
177
     0
178
     0
270
     2
271
     3
272
     2
273
     2
274
     2
340
176C
275
     0
280
     0
281
     0
282
     0
283
     2
284
     8
285
     8
286
     0
287
     5
288
     0
  0
DIMSTYLE
105
29D2
100
AcDbSymbolTableRecord
100
AcDbDimStyleTableRecord
  2
ISO-25$2
 70
     0
  3

  4

  5

  6

  7

 40
1.0
 41
2.6
 42
0.53
 43
3.16
 44
1.05
 45
0.0
 46
0.0
 47
0.2
 48
0.0
140
2.6
141
2.1
142
0.0
143
0.0394
144
1.0
145
1.0
146
1.0
147
0.53
 71
     0
 72
     0
 73
     0
 74
     0
 75
     0
 76
     0
 77
     1
 78
     8
170
     0
171
     2
172
     1
173
     0
174
     0
175
     0
176
     0
177
     0
178
     0
270
     2
271
     2
272
     2
273
     2
274
     2
340
10
275
     0
280
     0
281
     0
282
     0
283
     1
284
     0
285
     0
286
     0
287
     3
288
     0
  0
ENDTAB
  0
TABLE
  2
BLOCK_RECORD
  5
1
100
AcDbSymbolTable
 70
     9
  0
BLOCK_RECORD
  5
1A
100
AcDbSymbolTableRecord
100
AcDbBlockTableRecord
  2
*MODEL_SPACE
  0
BLOCK_RECORD
  5
17
100
AcDbSymbolTableRecord
100
AcDbBlockTableRecord
  2
*PAPER_SPACE
  0
BLOCK_RECORD
  5
176E
100
AcDbSymbolTableRecord
100
AcDbBlockTableRecord
  2
TABELLA
  0
BLOCK_RECORD
  5
2B49
100
AcDbSymbolTableRecord
100
AcDbBlockTableRecord
  2
A$C9155
  0
BLOCK_RECORD
  5
2C27
100
AcDbSymbolTableRecord
100
AcDbBlockTableRecord
  2
*X2
  0
BLOCK_RECORD
  5
2C55
100
AcDbSymbolTableRecord
100
AcDbBlockTableRecord
  2
A$C7184
  0
BLOCK_RECORD
  5
2E90
100
AcDbSymbolTableRecord
100
AcDbBlockTableRecord
  2
A$C344
  0
BLOCK_RECORD
  5
30FB
100
AcDbSymbolTableRecord
100
AcDbBlockTableRecord
  2
*D5
  0
BLOCK_RECORD
  5
3108
100
AcDbSymbolTableRecord
100
AcDbBlockTableRecord
  2
*D6
  0
BLOCK_RECORD
  5
3115
100
AcDbSymbolTableRecord
100
AcDbBlockTableRecord
  2
*D7
  0
BLOCK_RECORD
  5
3122
100
AcDbSymbolTableRecord
100
AcDbBlockTableRecord
  2
*D8
  0
ENDTAB
  0
ENDSEC
  0
SECTION
  2
BLOCKS
  0
BLOCK
  5
1B
100
AcDbEntity
  8
0
100
AcDbBlockBegin
  2
*MODEL_SPACE
 70
     0
 10
0.0
 20
0.0
 30
0.0
  3
*MODEL_SPACE
  1

  0
ENDBLK
  5
1C
100
AcDbEntity
  8
0
100
AcDbBlockEnd
  0
BLOCK
  5
18
100
AcDbEntity
 67
     1
  8
0
100
AcDbBlockBegin
  2
*PAPER_SPACE
 70
     0
 10
0.0
 20
0.0
 30
0.0
  3
*PAPER_SPACE
  1

  0
ENDBLK
  5
19
100
AcDbEntity
 67
     1
  8
0
100
AcDbBlockEnd
  0
BLOCK
  5
1776
100
AcDbEntity
  8
SEZIONE
  6
CONTINUOUS
100
AcDbBlockBegin
  2
TABELLA
 70
     2
 10
0.0
 20
0.0
 30
0.0
  3
TABELLA
  1

  0
ATTDEF
  5
176F
100
AcDbEntity
  8
QUOTE
100
AcDbText
 10
-33.649491
 20
11.454845
 30
0.0
 40
3.5
  1

  7
QUOTE
100
AcDbAttributeDefinition
  3
revisione ?
  2
REVISIONE
 70
     0
  0
LINE
  5
1770
100
AcDbEntity
  8
QUOTE
100
AcDbLine
 10
-43.336415
 20
9.418407
 30
0.0
 11
0.0
 21
9.418407
 31
0.0
  0
LINE
  5
1771
100
AcDbEntity
  8
QUOTE
100
AcDbLine
 10
0.0
 20
0.0
 30
0.0
 11
-43.336415
 21
0.0
 31
0.0
  0
LINE
  5
1772
100
AcDbEntity
  8
QUOTE
100
AcDbLine
 10
-43.336415
 20
18.836814
 30
0.0
 11
0.0
 21
18.836814
 31
0.0
  0
LINE
  5
1773
100
AcDbEntity
  8
QUOTE
100
AcDbLine
 10
-43.336415
 20
0.0
 30
0.0
 11
-43.336415
 21
18.836814
 31
0.0
  0
ATTDEF
  5
1774
100
AcDbEntity
  8
QUOTE
100
AcDbText
 10
-30.845352
 20
2.545496
 30
0.0
 40
3.5
  1

  7
QUOTE
100
AcDbAttributeDefinition
  3
numero del codice ?
  2
CODICE
 70
     0
  0
LINE
  5
1775
100
AcDbEntity
  8
QUOTE
100
AcDbLine
 10
0.0
 20
18.836814
 30
0.0
 11
0.0
 21
0.0
 31
0.0
  0
ENDBLK
  5
1777
100
AcDbEntity
  8
SEZIONE
  6
CONTINUOUS
100
AcDbBlockEnd
  0
BLOCK
  5
2B5E
100
AcDbEntity
  8
OGGETTO
  6
CONTINUOUS
100
AcDbBlockBegin
  2
A$C9155
 70
     0
 10
0.0
 20
0.0
 30
0.0
  3
A$C9155
  1

  0
ARC
  5
2B4A
100
AcDbEntity
  8
DISEGNO
100
AcDbCircle
 10
20.46607
 20
13.272547
 30
0.0
 40
4.0
100
AcDbArc
 50
195.0
 51
345.0
1001
ACAD
1000
ASC_BOUNDS
1002
{
1070
    19
1002
}
  0
LINE
  5
2B4B
100
AcDbEntity
  8
DISEGNO
100
AcDbLine
 10
19.693329
 20
0.701641
 30
0.0
 11
14.46607
 21
20.210039
 31
0.0
1001
ACAD
1000
ASC_BOUNDS
1002
{
1070
    19
1002
}
  0
LINE
  5
2B4C
100
AcDbEntity
  8
DISEGNO
100
AcDbLine
 10
13.46607
 20
104.108697
 30
0.0
 11
25.46607
 21
104.108697
 31
0.0
  0
LINE
  5
2B4D
100
AcDbEntity
  8
DISEGNO
100
AcDbLine
 10
15.173177
 20
21.434784
 30
0.0
 11
0.46607
 21
76.322454
 31
0.0
  0
LINE
  5
2B4E
100
AcDbEntity
  8
DISEGNO
100
AcDbLine
 10
14.46607
 20
20.210039
 30
0.0
 11
15.173177
 21
21.434784
 31
0.0
  0
LINE
  5
2B4F
100
AcDbEntity
  8
DISEGNO
100
AcDbLine
 10
0.46607
 20
108.208697
 30
0.0
 11
0.46607
 21
76.322454
 31
0.0
  0
LINE
  5
2B50
100
AcDbEntity
  8
DISEGNO
100
AcDbLine
 10
3.96607
 20
108.708697
 30
0.0
 11
0.96607
 21
108.708697
 31
0.0
  0
LINE
  5
2B51
100
AcDbEntity
  8
DISEGNO
100
AcDbLine
 10
0.96607
 20
117.108697
 30
0.0
 11
3.96607
 21
117.108697
 31
0.0
  0
LINE
  5
2B52
100
AcDbEntity
  8
DISEGNO
100
AcDbLine
 10
1.46607
 20
134.108697
 30
0.0
 11
12.46607
 21
134.108697
 31
0.0
  0
LINE
  5
2B53
100
AcDbEntity
  8
DISEGNO
100
AcDbLine
 10
0.46607
 20
133.108697
 30
0.0
 11
0.46607
 21
117.608697
 31
0.0
  0
LINE
  5
2B54
100
AcDbEntity
  8
DISEGNO
100
AcDbLine
 10
0.46607
 20
108.208697
 30
0.0
 11
0.96607
 21
108.708697
 31
0.0
  0
LINE
  5
2B55
100
AcDbEntity
  8
DISEGNO
100
AcDbLine
 10
0.46607
 20
117.608697
 30
0.0
 11
0.96607
 21
117.108697
 31
0.0
  0
LINE
  5
2B56
100
AcDbEntity
  8
DISEGNO
100
AcDbLine
 10
1.46607
 20
134.108697
 30
0.0
 11
0.46607
 21
133.108697
 31
0.0
  0
LINE
  5
2B57
100
AcDbEntity
  8
DISEGNO
100
AcDbLine
 10
13.46607
 20
133.108697
 30
0.0
 11
13.46607
 21
104.108697
 31
0.0
  0
LINE
  5
2B58
100
AcDbEntity
  8
DISEGNO
100
AcDbLine
 10
3.96607
 20
117.108697
 30
0.0
 11
3.96607
 21
108.708697
 31
0.0
  0
LINE
  5
2B59
100
AcDbEntity
  8
DISEGNO
100
AcDbLine
 10
12.46607
 20
134.108697
 30
0.0
 11
13.46607
 21
133.108697
 31
0.0
  0
LINE
  5
2B5A
100
AcDbEntity
  8
DISEGNO
100
AcDbLine
 10
26.46607
 20
103.108697
 30
0.0
 11
26.46607
 21
20.210039
 31
0.0
  0
LINE
  5
2B5B
100
AcDbEntity
  8
DISEGNO
100
AcDbLine
 10
21.238811
 20
0.701641
 30
0.0
 11
26.46607
 21
20.210039
 31
0.0
1001
ACAD
1000
ASC_BOUNDS
1002
{
1070
    19
1002
}
  0
ARC
  5
2B5C
100
AcDbEntity
  8
DISEGNO
100
AcDbCircle
 10
20.46607
 20
0.908697
 30
0.0
 40
0.8
100
AcDbArc
 50
195.0
 51
345.0
1001
ACAD
1000
ASC_BOUNDS
1002
{
1070
    19
1002
}
  0
LINE
  5
2B5D
100
AcDbEntity
  8
DISEGNO
100
AcDbLine
 10
25.46607
 20
104.108697
 30
0.0
 11
26.46607
 21
103.108697
 31
0.0
  0
ENDBLK
  5
2B5F
100
AcDbEntity
  8
OGGETTO
  6
CONTINUOUS
100
AcDbBlockEnd
  0
BLOCK
  5
2C53
100
AcDbEntity
  8
0
100
AcDbBlockBegin
  2
*X2
 70
    65
 10
0.0
 20
0.0
 30
0.0
  3
*X2
  1

  0
LINE
  5
2C28
100
AcDbEntity
  8
0
  6
CONTINUOUS
 62
     0
100
AcDbLine
 10
98.627168
 20
56.419964
 30
0.0
 11
101.028165
 21
58.820961
 31
0.0
  0
LINE
  5
2C29
100
AcDbEntity
  8
0
  6
CONTINUOUS
 62
     0
100
AcDbLine
 10
98.516874
 20
56.534177
 30
0.0
 11
100.782786
 21
58.800089
 31
0.0
  0
LINE
  5
2C2A
100
AcDbEntity
  8
0
  6
CONTINUOUS
 62
     0
100
AcDbLine
 10
98.40658
 20
56.648389
 30
0.0
 11
100.543393
 21
58.785202
 31
0.0
  0
LINE
  5
2C2B
100
AcDbEntity
  8
0
  6
CONTINUOUS
 62
     0
100
AcDbLine
 10
98.296286
 20
56.762602
 30
0.0
 11
100.309544
 21
58.77586
 31
0.0
  0
LINE
  5
2C2C
100
AcDbEntity
  8
0
  6
CONTINUOUS
 62
     0
100
AcDbLine
 10
98.185993
 20
56.876814
 30
0.0
 11
100.080859
 21
58.771681
 31
0.0
  0
LINE
  5
2C2D
100
AcDbEntity
  8
0
  6
CONTINUOUS
 62
     0
100
AcDbLine
 10
98.075699
 20
56.991027
 30
0.0
 11
99.857004
 21
58.772332
 31
0.0
  0
LINE
  5
2C2E
100
AcDbEntity
  8
0
  6
CONTINUOUS
 62
     0
100
AcDbLine
 10
97.965405
 20
57.10524
 30
0.0
 11
99.637685
 21
58.77752
 31
0.0
  0
LINE
  5
2C2F
100
AcDbEntity
  8
0
  6
CONTINUOUS
 62
     0
100
AcDbLine
 10
97.855111
 20
57.219452
 30
0.0
 11
99.422645
 21
58.786986
 31
0.0
  0
LINE
  5
2C30
100
AcDbEntity
  8
0
  6
CONTINUOUS
 62
     0
100
AcDbLine
 10
97.744817
 20
57.333665
 30
0.0
 11
99.211652
 21
58.800499
 31
0.0
  0
LINE
  5
2C31
100
AcDbEntity
  8
0
  6
CONTINUOUS
 62
     0
100
AcDbLine
 10
97.634524
 20
57.447877
 30
0.0
 11
99.0045
 21
58.817854
 31
0.0
  0
LINE
  5
2C32
100
AcDbEntity
  8
0
  6
CONTINUOUS
 62
     0
100
AcDbLine
 10
97.52423
 20
57.56209
 30
0.0
 11
98.801004
 21
58.838864
 31
0.0
  0
LINE
  5
2C33
100
AcDbEntity
  8
0
  6
CONTINUOUS
 62
     0
100
AcDbLine
 10
97.413936
 20
57.676303
 30
0.0
 11
98.600997
 21
58.863364
 31
0.0
  0
LINE
  5
2C34
100
AcDbEntity
  8
0
  6
CONTINUOUS
 62
     0
100
AcDbLine
 10
97.303642
 20
57.790515
 30
0.0
 11
98.404329
 21
58.891202
 31
0.0
  0
LINE
  5
2C35
100
AcDbEntity
  8
0
  6
CONTINUOUS
 62
     0
100
AcDbLine
 10
97.193348
 20
57.904728
 30
0.0
 11
98.210861
 21
58.922241
 31
0.0
  0
LINE
  5
2C36
100
AcDbEntity
  8
0
  6
CONTINUOUS
 62
     0
100
AcDbLine
 10
97.083054
 20
58.01894
 30
0.0
 11
98.020469
 21
58.956355
 31
0.0
  0
LINE
  5
2C37
100
AcDbEntity
  8
0
  6
CONTINUOUS
 62
     0
100
AcDbLine
 10
96.972761
 20
58.133153
 30
0.0
 11
97.833039
 21
58.993432
 31
0.0
  0
LINE
  5
2C38
100
AcDbEntity
  8
0
  6
CONTINUOUS
 62
     0
100
AcDbLine
 10
96.862467
 20
58.247365
 30
0.0
 11
97.648466
 21
59.033365
 31
0.0
  0
LINE
  5
2C39
100
AcDbEntity
  8
0
  6
CONTINUOUS
 62
     0
100
AcDbLine
 10
96.752173
 20
58.361578
 30
0.0
 11
97.466655
 21
59.07606
 31
0.0
  0
LINE
  5
2C3A
100
AcDbEntity
  8
0
  6
CONTINUOUS
 62
     0
100
AcDbLine
 10
96.641879
 20
58.475791
 30
0.0
 11
97.287516
 21
59.121427
 31
0.0
  0
LINE
  5
2C3B
100
AcDbEntity
  8
0
  6
CONTINUOUS
 62
     0
100
AcDbLine
 10
96.531585
 20
58.590003
 30
0.0
 11
97.110968
 21
59.169386
 31
0.0
  0
LINE
  5
2C3C
100
AcDbEntity
  8
0
  6
CONTINUOUS
 62
     0
100
AcDbLine
 10
96.421292
 20
58.704216
 30
0.0
 11
96.936937
 21
59.219861
 31
0.0
  0
LINE
  5
2C3D
100
AcDbEntity
  8
0
  6
CONTINUOUS
 62
     0
100
AcDbLine
 10
96.310998
 20
58.818428
 30
0.0
 11
96.765352
 21
59.272783
 31
0.0
  0
LINE
  5
2C3E
100
AcDbEntity
  8
0
  6
CONTINUOUS
 62
     0
100
AcDbLine
 10
96.200704
 20
58.932641
 30
0.0
 11
96.59615
 21
59.328087
 31
0.0
  0
LINE
  5
2C3F
100
AcDbEntity
  8
0
  6
CONTINUOUS
 62
     0
100
AcDbLine
 10
96.09041
 20
59.046854
 30
0.0
 11
96.42927
 21
59.385714
 31
0.0
  0
LINE
  5
2C40
100
AcDbEntity
  8
0
  6
CONTINUOUS
 62
     0
100
AcDbLine
 10
95.980116
 20
59.161066
 30
0.0
 11
96.264658
 21
59.445608
 31
0.0
  0
LINE
  5
2C41
100
AcDbEntity
  8
0
  6
CONTINUOUS
 62
     0
100
AcDbLine
 10
95.869822
 20
59.275279
 30
0.0
 11
96.102261
 21
59.507717
 31
0.0
  0
LINE
  5
2C42
100
AcDbEntity
  8
0
  6
CONTINUOUS
 62
     0
100
AcDbLine
 10
95.759529
 20
59.389491
 30
0.0
 11
95.942033
 21
59.571995
 31
0.0
  0
LINE
  5
2C43
100
AcDbEntity
  8
0
  6
CONTINUOUS
 62
     0
100
AcDbLine
 10
95.649235
 20
59.503704
 30
0.0
 11
95.783928
 21
59.638397
 31
0.0
  0
LINE
  5
2C44
100
AcDbEntity
  8
0
  6
CONTINUOUS
 62
     0
100
AcDbLine
 10
95.538941
 20
59.617917
 30
0.0
 11
95.627905
 21
59.70688
 31
0.0
  0
LINE
  5
2C45
100
AcDbEntity
  8
0
  6
CONTINUOUS
 62
     0
100
AcDbLine
 10
95.428647
 20
59.732129
 30
0.0
 11
95.473926
 21
59.777408
 31
0.0
  0
LINE
  5
2C46
100
AcDbEntity
  8
0
  6
CONTINUOUS
 62
     0
100
AcDbLine
 10
95.318353
 20
59.846342
 30
0.0
 11
95.321954
 21
59.849943
 31
0.0
  0
LINE
  5
2C47
100
AcDbEntity
  8
0
  6
CONTINUOUS
 62
     0
100
AcDbLine
 10
98.737462
 20
56.305751
 30
0.0
 11
101.280041
 21
58.84833
 31
0.0
  0
LINE
  5
2C48
100
AcDbEntity
  8
0
  6
CONTINUOUS
 62
     0
100
AcDbLine
 10
98.847755
 20
56.191539
 30
0.0
 11
101.539016
 21
58.8828
 31
0.0
  0
LINE
  5
2C49
100
AcDbEntity
  8
0
  6
CONTINUOUS
 62
     0
100
AcDbLine
 10
98.958049
 20
56.077326
 30
0.0
 11
101.805808
 21
58.925086
 31
0.0
  0
LINE
  5
2C4A
100
AcDbEntity
  8
0
  6
CONTINUOUS
 62
     0
100
AcDbLine
 10
99.068343
 20
55.963114
 30
0.0
 11
102.08128
 21
58.97605
 31
0.0
  0
LINE
  5
2C4B
100
AcDbEntity
  8
0
  6
CONTINUOUS
 62
     0
100
AcDbLine
 10
99.178637
 20
55.848901
 30
0.0
 11
102.366486
 21
59.03675
 31
0.0
  0
LINE
  5
2C4C
100
AcDbEntity
  8
0
  6
CONTINUOUS
 62
     0
100
AcDbLine
 10
99.288931
 20
55.734689
 30
0.0
 11
102.662741
 21
59.108499
 31
0.0
  0
LINE
  5
2C4D
100
AcDbEntity
  8
0
  6
CONTINUOUS
 62
     0
100
AcDbLine
 10
99.399225
 20
55.620476
 30
0.0
 11
102.971717
 21
59.192969
 31
0.0
  0
LINE
  5
2C4E
100
AcDbEntity
  8
0
  6
CONTINUOUS
 62
     0
100
AcDbLine
 10
99.516156
 20
55.512901
 30
0.0
 11
103.295601
 21
59.292346
 31
0.0
  0
LINE
  5
2C4F
100
AcDbEntity
  8
0
  6
CONTINUOUS
 62
     0
100
AcDbLine
 10
99.65566
 20
55.427899
 30
0.0
 11
103.637345
 21
59.409584
 31
0.0
  0
LINE
  5
2C50
100
AcDbEntity
  8
0
  6
CONTINUOUS
 62
     0
100
AcDbLine
 10
99.822262
 20
55.369994
 30
0.0
 11
104.001109
 21
59.548842
 31
0.0
  0
LINE
  5
2C51
100
AcDbEntity
  8
0
  6
CONTINUOUS
 62
     0
100
AcDbLine
 10
100.027238
 20
55.350464
 30
0.0
 11
104.393103
 21
59.716329
 31
0.0
  0
LINE
  5
2C52
100
AcDbEntity
  8
0
  6
CONTINUOUS
 62
     0
100
AcDbLine
 10
100.316589
 20
55.415309
 30
0.0
 11
102.824761
 21
57.92348
 31
0.0
  0
ENDBLK
  5
2C54
100
AcDbEntity
  8
0
100
AcDbBlockEnd
  0
BLOCK
  5
2C72
100
AcDbEntity
  8
QUOTE
  6
CONTINUOUS
100
AcDbBlockBegin
  2
A$C7184
 70
     0
 10
0.0
 20
0.0
 30
0.0
  3
A$C7184
  1

  0
INSERT
  5
2C56
100
AcDbEntity
  8
OGGETTO
  6
CONTINUOUS
100
AcDbBlockReference
  2
*X2
 10
-50.834993
 20
-55.348731
 30
0.0
1001
ACAD
1000
HATCH
1002
{
1070
    19
1000
ANSI31
1040
0.05
1040
0.0
1000
ASC_BOUNDS
1070
     1
1070
     1
1070
     4
1005
2C58
1005
2C5F
1005
2C57
1005
2C6E
1000
ASC_SEEDPOINT
1011
50.812899
1021
3.026874
1031
0.0
1002
}
  0
ARC
  5
2C57
100
AcDbEntity
  8
OGGETTO
  6
CONTINUOUS
100
AcDbCircle
 10
49.165007
 20
0.801269
 30
0.0
 40
0.8
100
AcDbArc
 50
224.0
 51
316.0
1001
ACAD
1000
ASC_BOUNDS
1002
{
1070
    19
1005
2C56
1002
}
  0
ARC
  5
2C58
100
AcDbEntity
  8
OGGETTO
  6
CONTINUOUS
100
AcDbCircle
 10
49.165007
 20
14.106916
 30
0.0
 40
10.684272
100
AcDbArc
 50
243.953735
 51
296.046265
1001
ACAD
1000
ASC_BOUNDS
1002
{
1070
    19
1005
2C56
1002
}
  0
LINE
  5
2C59
100
AcDbEntity
  8
OGGETTO
  6
CONTINUOUS
100
AcDbLine
 10
56.636075
 20
8.522337
 30
0.0
 11
31.879494
 21
51.401993
 31
0.0
  0
LINE
  5
2C5A
100
AcDbEntity
  8
OGGETTO
  6
CONTINUOUS
100
AcDbLine
 10
56.165007
 20
96.651269
 30
0.0
 11
35.057866
 21
75.544129
 31
0.0
  0
LINE
  5
2C5B
100
AcDbEntity
  8
OGGETTO
  6
CONTINUOUS
 48
2.0
100
AcDbLine
 10
55.165007
 20
104.651269
 30
0.0
 11
42.165007
 21
104.651269
 31
0.0
  0
ARC
  5
2C5C
100
AcDbEntity
  8
OGGETTO
  6
CONTINUOUS
100
AcDbCircle
 10
49.200002
 20
61.401993
 30
0.0
 40
20.0
100
AcDbArc
 50
135.0
 51
210.0
  0
LINE
  5
2C5D
100
AcDbEntity
  8
OGGETTO
  6
CONTINUOUS
100
AcDbLine
 10
0.165007
 20
92.651269
 30
0.0
 11
0.165007
 21
50.073836
 31
0.0
  0
LINE
  5
2C5E
100
AcDbEntity
  8
OGGETTO
  6
CONTINUOUS
100
AcDbLine
 10
40.986832
 20
9.252011
 30
0.0
 11
0.165007
 21
50.073836
 31
0.0
  0
LINE
  5
2C5F
100
AcDbEntity
  8
OGGETTO
  6
CONTINUOUS
100
AcDbLine
 10
48.589535
 20
0.245543
 30
0.0
 11
40.986832
 21
8.118372
 31
0.0
1001
ACAD
1000
ASC_BOUNDS
1002
{
1070
    19
1005
2C56
1002
}
  0
LINE
  5
2C60
100
AcDbEntity
  8
OGGETTO
  6
CONTINUOUS
100
AcDbLine
 10
40.986832
 20
8.118372
 30
0.0
 11
40.986832
 21
9.252011
 31
0.0
  0
LINE
  5
2C61
100
AcDbEntity
  8
OGGETTO
  6
CONTINUOUS
100
AcDbLine
 10
12.165007
 20
104.651269
 30
0.0
 11
29.165007
 21
104.651269
 31
0.0
  0
LINE
  5
2C62
100
AcDbEntity
  8
OGGETTO
  6
CONTINUOUS
100
AcDbLine
 10
12.165007
 20
104.651269
 30
0.0
 11
0.165007
 21
92.651269
 31
0.0
  0
LINE
  5
2C63
100
AcDbEntity
  8
OGGETTO
  6
CONTINUOUS
100
AcDbLine
 10
29.165007
 20
108.951269
 30
0.0
 11
29.165007
 21
104.651269
 31
0.0
  0
LINE
  5
2C64
100
AcDbEntity
  8
OGGETTO
  6
CONTINUOUS
 48
2.0
100
AcDbLine
 10
42.165007
 20
133.651269
 30
0.0
 11
42.165007
 21
104.651269
 31
0.0
  0
LINE
  5
2C65
100
AcDbEntity
  8
OGGETTO
  6
CONTINUOUS
 48
2.0
100
AcDbLine
 10
41.165007
 20
134.651269
 30
0.0
 11
30.165007
 21
134.651269
 31
0.0
  0
LINE
  5
2C66
100
AcDbEntity
  8
OGGETTO
  6
CONTINUOUS
 48
2.0
100
AcDbLine
 10
29.165007
 20
133.651269
 30
0.0
 11
29.165007
 21
117.951269
 31
0.0
  0
LINE
  5
2C67
100
AcDbEntity
  8
OGGETTO
  6
CONTINUOUS
 48
2.0
100
AcDbLine
 10
32.665007
 20
109.251269
 30
0.0
 11
29.465007
 21
109.251269
 31
0.0
  0
LINE
  5
2C68
100
AcDbEntity
  8
OGGETTO
  6
CONTINUOUS
 48
2.0
100
AcDbLine
 10
29.465007
 20
117.651269
 30
0.0
 11
32.665007
 21
117.651269
 31
0.0
  0
LINE
  5
2C69
100
AcDbEntity
  8
OGGETTO
  6
CONTINUOUS
100
AcDbLine
 10
29.465007
 20
109.251269
 30
0.0
 11
29.165007
 21
108.951269
 31
0.0
  0
LINE
  5
2C6A
100
AcDbEntity
  8
OGGETTO
  6
CONTINUOUS
 48
2.0
100
AcDbLine
 10
29.465007
 20
117.651269
 30
0.0
 11
29.165007
 21
117.951269
 31
0.0
  0
LINE
  5
2C6B
100
AcDbEntity
  8
OGGETTO
  6
CONTINUOUS
 48
2.0
100
AcDbLine
 10
32.665007
 20
117.651269
 30
0.0
 11
32.665007
 21
109.251269
 31
0.0
  0
LINE
  5
2C6C
100
AcDbEntity
  8
OGGETTO
  6
CONTINUOUS
 48
2.0
100
AcDbLine
 10
29.165007
 20
133.651269
 30
0.0
 11
30.165007
 21
134.651269
 31
0.0
  0
LINE
  5
2C6D
100
AcDbEntity
  8
OGGETTO
  6
CONTINUOUS
 48
2.0
100
AcDbLine
 10
42.165007
 20
133.651269
 30
0.0
 11
41.165007
 21
134.651269
 31
0.0
  0
LINE
  5
2C6E
100
AcDbEntity
  8
OGGETTO
  6
CONTINUOUS
100
AcDbLine
 10
49.740479
 20
0.245543
 30
0.0
 11
56.636075
 21
7.386141
 31
0.0
1001
ACAD
1000
ASC_BOUNDS
1002
{
1070
    19
1005
2C56
1002
}
  0
LINE
  5
2C6F
100
AcDbEntity
  8
OGGETTO
  6
CONTINUOUS
100
AcDbLine
 10
56.636075
 20
7.386141
 30
0.0
 11
56.636075
 21
8.522337
 31
0.0
  0
LINE
  5
2C70
100
AcDbEntity
  8
OGGETTO
  6
CONTINUOUS
100
AcDbLine
 10
56.165007
 20
103.651269
 30
0.0
 11
56.165007
 21
96.651269
 31
0.0
  0
LINE
  5
2C71
100
AcDbEntity
  8
OGGETTO
  6
CONTINUOUS
100
AcDbLine
 10
55.165007
 20
104.651269
 30
0.0
 11
56.165007
 21
103.651269
 31
0.0
  0
ENDBLK
  5
2C73
100
AcDbEntity
  8
QUOTE
  6
CONTINUOUS
100
AcDbBlockEnd
  0
BLOCK
  5
2E96
100
AcDbEntity
  8
OGGETTO
  6
CONTINUOUS
100
AcDbBlockBegin
  2
A$C344
 70
     0
 10
0.0
 20
0.0
 30
0.0
  3
A$C344
  1

  0
TEXT
  5
2E91
100
AcDbEntity
  8
SEZIONE
  6
CONTINUOUS
 62
     7
100
AcDbText
 10
11.030145
 20
2.688394
 30
0.0
 40
5.0
  1
42CrMo4
  7
ARIAL
 72
     4
 11
25.150818
 21
5.188394
 31
0.0
100
AcDbText
  0
LINE
  5
2E92
100
AcDbEntity
  8
SEZIONE
  6
CONTINUOUS
 62
     7
100
AcDbLine
 10
0.150818
 20
10.188394
 30
0.0
 11
50.150818
 21
10.188394
 31
0.0
  0
LINE
  5
2E93
100
AcDbEntity
  8
SEZIONE
  6
CONTINUOUS
 62
     7
100
AcDbLine
 10
50.150818
 20
0.188394
 30
0.0
 11
0.150818
 21
0.188394
 31
0.0
  0
LINE
  5
2E94
100
AcDbEntity
  8
SEZIONE
  6
CONTINUOUS
 62
     7
100
AcDbLine
 10
0.150818
 20
0.188394
 30
0.0
 11
0.150818
 21
10.188394
 31
0.0
  0
LINE
  5
2E95
100
AcDbEntity
  8
SEZIONE
  6
CONTINUOUS
 62
     7
100
AcDbLine
 10
50.150818
 20
10.188394
 30
0.0
 11
50.150818
 21
0.188394
 31
0.0
  0
ENDBLK
  5
2E97
100
AcDbEntity
  8
OGGETTO
  6
CONTINUOUS
100
AcDbBlockEnd
  0
BLOCK
  5
30FC
100
AcDbEntity
  8
0
100
AcDbBlockBegin
  2
*D5
 70
    65
 10
0.0
 20
0.0
 30
0.0
  3
*D5
  1

  0
LINE
  5
30FD
100
AcDbEntity
  8
0
  6
BYBLOCK
 62
     0
100
AcDbLine
 10
60.3099
 20
175.294663
 30
0.0
 11
60.3099
 21
192.599895
 31
0.0
  0
LINE
  5
30FE
100
AcDbEntity
  8
0
  6
BYBLOCK
 62
     0
100
AcDbLine
 10
74.3099
 20
175.294663
 30
0.0
 11
74.3099
 21
192.599895
 31
0.0
  0
LINE
  5
30FF
100
AcDbEntity
  8
0
  6
BYBLOCK
 62
     0
100
AcDbLine
 10
62.9099
 20
191.549895
 30
0.0
 11
71.7099
 21
191.549895
 31
0.0
  0
SOLID
  5
3100
100
AcDbEntity
  8
0
  6
BYBLOCK
 62
     0
100
AcDbTrace
 10
62.9099
 20
191.983228
 30
0.0
 11
62.9099
 21
191.116562
 31
0.0
 12
60.3099
 22
191.549895
 32
0.0
 13
60.3099
 23
191.549895
 33
0.0
  0
SOLID
  5
3101
100
AcDbEntity
  8
0
  6
BYBLOCK
 62
     0
100
AcDbTrace
 10
71.7099
 20
191.983228
 30
0.0
 11
71.7099
 21
191.116562
 31
0.0
 12
74.3099
 22
191.549895
 32
0.0
 13
74.3099
 23
191.549895
 33
0.0
  0
MTEXT
  5
3102
100
AcDbEntity
  8
0
  6
BYBLOCK
 62
     0
100
AcDbMText
 10
67.3099
 20
194.579895
 30
0.0
 40
5.0
 41
0.0
 71
     5
 72
     1
  1
\A1;14
  0
POINT
  5
3103
100
AcDbEntity
  8
DEFPOINTS
  6
BYBLOCK
 62
     0
100
AcDbPoint
 10
60.3099
 20
174.764663
 30
0.0
  0
POINT
  5
3104
100
AcDbEntity
  8
DEFPOINTS
  6
BYBLOCK
 62
     0
100
AcDbPoint
 10
74.3099
 20
174.764663
 30
0.0
  0
POINT
  5
3105
100
AcDbEntity
  8
DEFPOINTS
  6
BYBLOCK
 62
     0
100
AcDbPoint
 10
74.3099
 20
191.549895
 30
0.0
  0
ENDBLK
  5
3106
100
AcDbEntity
  8
0
100
AcDbBlockEnd
  0
BLOCK
  5
3109
100
AcDbEntity
  8
0
100
AcDbBlockBegin
  2
*D6
 70
    65
 10
0.0
 20
0.0
 30
0.0
  3
*D6
  1

  0
LINE
  5
310A
100
AcDbEntity
  8
0
  6
BYBLOCK
 62
     0
100
AcDbLine
 10
52.3099
 20
153.834663
 30
0.0
 11
52.3099
 21
130.391207
 31
0.0
  0
LINE
  5
310B
100
AcDbEntity
  8
0
  6
BYBLOCK
 62
     0
100
AcDbLine
 10
82.3099
 20
153.834663
 30
0.0
 11
82.3099
 21
130.391207
 31
0.0
  0
LINE
  5
310C
100
AcDbEntity
  8
0
  6
BYBLOCK
 62
     0
100
AcDbLine
 10
54.9099
 20
131.441207
 30
0.0
 11
79.7099
 21
131.441207
 31
0.0
  0
SOLID
  5
310D
100
AcDbEntity
  8
0
  6
BYBLOCK
 62
     0
100
AcDbTrace
 10
54.9099
 20
131.87454
 30
0.0
 11
54.9099
 21
131.007873
 31
0.0
 12
52.3099
 22
131.441207
 32
0.0
 13
52.3099
 23
131.441207
 33
0.0
  0
SOLID
  5
310E
100
AcDbEntity
  8
0
  6
BYBLOCK
 62
     0
100
AcDbTrace
 10
79.7099
 20
131.87454
 30
0.0
 11
79.7099
 21
131.007873
 31
0.0
 12
82.3099
 22
131.441207
 32
0.0
 13
82.3099
 23
131.441207
 33
0.0
  0
MTEXT
  5
310F
100
AcDbEntity
  8
0
  6
BYBLOCK
 62
     0
100
AcDbMText
 10
67.3099
 20
134.471207
 30
0.0
 40
5.0
 41
0.0
 71
     5
 72
     1
  1
\A1;30
  0
POINT
  5
3110
100
AcDbEntity
  8
DEFPOINTS
  6
BYBLOCK
 62
     0
100
AcDbPoint
 10
52.3099
 20
154.364663
 30
0.0
  0
POINT
  5
3111
100
AcDbEntity
  8
DEFPOINTS
  6
BYBLOCK
 62
     0
100
AcDbPoint
 10
82.3099
 20
154.364663
 30
0.0
  0
POINT
  5
3112
100
AcDbEntity
  8
DEFPOINTS
  6
BYBLOCK
 62
     0
100
AcDbPoint
 10
82.3099
 20
131.441207
 30
0.0
  0
ENDBLK
  5
3113
100
AcDbEntity
  8
0
100
AcDbBlockEnd
  0
BLOCK
  5
3116
100
AcDbEntity
  8
0
100
AcDbBlockBegin
  2
*D7
 70
    65
 10
0.0
 20
0.0
 30
0.0
  3
*D7
  1

  0
LINE
  5
3117
100
AcDbEntity
  8
0
  6
BYBLOCK
 62
     0
100
AcDbLine
 10
59.7799
 20
170.564663
 30
0.0
 11
39.784003
 21
170.564663
 31
0.0
  0
LINE
  5
3118
100
AcDbEntity
  8
0
  6
BYBLOCK
 62
     0
100
AcDbLine
 10
52.5799
 20
153.564663
 30
0.0
 11
39.784003
 21
153.564663
 31
0.0
  0
LINE
  5
3119
100
AcDbEntity
  8
0
  6
BYBLOCK
 62
     0
100
AcDbLine
 10
40.834003
 20
167.964663
 30
0.0
 11
40.834003
 21
156.164663
 31
0.0
  0
SOLID
  5
311A
100
AcDbEntity
  8
0
  6
BYBLOCK
 62
     0
100
AcDbTrace
 10
40.40067
 20
167.964663
 30
0.0
 11
41.267337
 21
167.964663
 31
0.0
 12
40.834003
 22
170.564663
 32
0.0
 13
40.834003
 23
170.564663
 33
0.0
  0
SOLID
  5
311B
100
AcDbEntity
  8
0
  6
BYBLOCK
 62
     0
100
AcDbTrace
 10
40.40067
 20
156.164663
 30
0.0
 11
41.267337
 21
156.164663
 31
0.0
 12
40.834003
 22
153.564663
 32
0.0
 13
40.834003
 23
153.564663
 33
0.0
  0
MTEXT
  5
311C
100
AcDbEntity
  8
0
  6
BYBLOCK
 62
     0
100
AcDbMText
 10
37.804003
 20
162.064663
 30
0.0
 40
5.0
 41
0.0
 71
     5
 72
     1
  1
\A1;17
 11
0.0
 21
1.0
 31
0.0
  0
POINT
  5
311D
100
AcDbEntity
  8
DEFPOINTS
  6
BYBLOCK
 62
     0
100
AcDbPoint
 10
60.3099
 20
170.564663
 30
0.0
  0
POINT
  5
311E
100
AcDbEntity
  8
DEFPOINTS
  6
BYBLOCK
 62
     0
100
AcDbPoint
 10
53.1099
 20
153.564663
 30
0.0
  0
POINT
  5
311F
100
AcDbEntity
  8
DEFPOINTS
  6
BYBLOCK
 62
     0
100
AcDbPoint
 10
40.834003
 20
153.564663
 30
0.0
  0
ENDBLK
  5
3120
100
AcDbEntity
  8
0
100
AcDbBlockEnd
  0
BLOCK
  5
3123
100
AcDbEntity
  8
0
100
AcDbBlockBegin
  2
*D8
 70
    65
 10
0.0
 20
0.0
 30
0.0
  3
*D8
  1

  0
LINE
  5
3124
100
AcDbEntity
  8
0
  6
BYBLOCK
 62
     0
100
AcDbLine
 10
52.5799
 20
175.564663
 30
0.0
 11
26.636973
 21
175.564663
 31
0.0
  0
LINE
  5
3125
100
AcDbEntity
  8
0
  6
BYBLOCK
 62
     0
100
AcDbLine
 10
52.5799
 20
153.564663
 30
0.0
 11
26.636973
 21
153.564663
 31
0.0
  0
LINE
  5
3126
100
AcDbEntity
  8
0
  6
BYBLOCK
 62
     0
100
AcDbLine
 10
27.686973
 20
172.964663
 30
0.0
 11
27.686973
 21
156.164663
 31
0.0
  0
SOLID
  5
3127
100
AcDbEntity
  8
0
  6
BYBLOCK
 62
     0
100
AcDbTrace
 10
27.25364
 20
172.964663
 30
0.0
 11
28.120306
 21
172.964663
 31
0.0
 12
27.686973
 22
175.564663
 32
0.0
 13
27.686973
 23
175.564663
 33
0.0
  0
SOLID
  5
3128
100
AcDbEntity
  8
0
  6
BYBLOCK
 62
     0
100
AcDbTrace
 10
27.25364
 20
156.164663
 30
0.0
 11
28.120306
 21
156.164663
 31
0.0
 12
27.686973
 22
153.564663
 32
0.0
 13
27.686973
 23
153.564663
 33
0.0
  0
MTEXT
  5
3129
100
AcDbEntity
  8
0
  6
BYBLOCK
 62
     0
100
AcDbMText
 10
24.656481
 20
164.564663
 30
0.0
 40
5.0
 41
0.0
 71
     5
 72
     1
  1
\A1;22
 11
0.0
 21
1.0
 31
0.0
  0
POINT
  5
312A
100
AcDbEntity
  8
DEFPOINTS
  6
BYBLOCK
 62
     0
100
AcDbPoint
 10
53.1099
 20
175.564663
 30
0.0
  0
POINT
  5
312B
100
AcDbEntity
  8
DEFPOINTS
  6
BYBLOCK
 62
     0
100
AcDbPoint
 10
53.1099
 20
153.564663
 30
0.0
  0
POINT
  5
312C
100
AcDbEntity
  8
DEFPOINTS
  6
BYBLOCK
 62
     0
100
AcDbPoint
 10
27.686973
 20
153.564663
 30
0.0
  0
ENDBLK
  5
312D
100
AcDbEntity
  8
0
100
AcDbBlockEnd
  0
ENDSEC
  0
SECTION
  2
ENTITIES
  0
MTEXT
  5
F7E
100
AcDbEntity
  8
TESTO
  6
CONTINUOUS
100
AcDbMText
 10
138.285367
 20
36.885825
 30
0.0
 40
2.6
 41
0.0
 71
     7
 72
     1
  1

  0
MTEXT
  5
1095
100
AcDbEntity
  8
TESTO
  6
CONTINUOUS
100
AcDbMText
 10
126.076483
 20
23.185707
 30
0.0
 40
2.6
 41
0.0
 71
     7
 72
     1
  1

  0
TEXT
  5
28E1
100
AcDbEntity
  8
SEZIONE
  6
CONTINUOUS
100
AcDbText
 10
210.657926
 20
174.687932
 30
0.0
 40
5.0
  1
 
  7
ARIAL
 72
     4
 11
211.618107
 21
174.687932
 31
0.0
100
AcDbText
  0
LINE
  5
30E4
100
AcDbEntity
  8
DISEGNO
  6
CONTINUOUS
100
AcDbLine
 10
53.1099
 20
153.564663
 30
0.0
 11
81.5099
 21
153.564663
 31
0.0
  0
LINE
  5
30E5
100
AcDbEntity
  8
DISEGNO
  6
CONTINUOUS
100
AcDbLine
 10
82.3099
 20
154.364663
 30
0.0
 11
82.3099
 21
174.764663
 31
0.0
  0
LINE
  5
30E6
100
AcDbEntity
  8
DISEGNO
  6
CONTINUOUS
100
AcDbLine
 10
81.5099
 20
175.564663
 30
0.0
 11
75.1099
 21
175.564663
 31
0.0
  0
LINE
  5
30E7
100
AcDbEntity
  8
DISEGNO
  6
CONTINUOUS
100
AcDbLine
 10
74.3099
 20
174.764663
 30
0.0
 11
74.3099
 21
170.564663
 31
0.0
  0
LINE
  5
30E8
100
AcDbEntity
  8
DISEGNO
  6
CONTINUOUS
100
AcDbLine
 10
74.3099
 20
170.564663
 30
0.0
 11
60.3099
 21
170.564663
 31
0.0
  0
LINE
  5
30E9
100
AcDbEntity
  8
DISEGNO
  6
CONTINUOUS
100
AcDbLine
 10
60.3099
 20
170.564663
 30
0.0
 11
60.3099
 21
174.764663
 31
0.0
  0
LINE
  5
30EA
100
AcDbEntity
  8
DISEGNO
  6
CONTINUOUS
100
AcDbLine
 10
59.5099
 20
175.564663
 30
0.0
 11
53.1099
 21
175.564663
 31
0.0
  0
LINE
  5
30EB
100
AcDbEntity
  8
DISEGNO
  6
CONTINUOUS
100
AcDbLine
 10
52.3099
 20
174.764663
 30
0.0
 11
52.3099
 21
154.364663
 31
0.0
  0
LINE
  5
30EC
100
AcDbEntity
  8
DISEGNO
  6
TRATTEGGIATA
 48
4.0
100
AcDbLine
 10
63.3099
 20
170.564663
 30
0.0
 11
63.3099
 21
161.564663
 31
0.0
  0
LINE
  5
30ED
100
AcDbEntity
  8
DISEGNO
  6
TRATTEGGIATA
 48
4.0
100
AcDbLine
 10
63.3099
 20
161.564663
 30
0.0
 11
71.3099
 21
161.564663
 31
0.0
  0
LINE
  5
30EE
100
AcDbEntity
  8
DISEGNO
  6
TRATTEGGIATA
 48
4.0
100
AcDbLine
 10
71.3099
 20
161.564663
 30
0.0
 11
71.3099
 21
170.564663
 31
0.0
  0
LINE
  5
30EF
100
AcDbEntity
  8
DISEGNO
  6
TRATTEGGIATA
 48
4.0
100
AcDbLine
 10
64.5599
 20
170.564663
 30
0.0
 11
64.5599
 21
159.064663
 31
0.0
  0
LINE
  5
30F0
100
AcDbEntity
  8
DISEGNO
  6
TRATTEGGIATA
 48
4.0
100
AcDbLine
 10
70.0599
 20
159.064663
 30
0.0
 11
70.0599
 21
170.564663
 31
0.0
  0
LINE
  5
30F1
100
AcDbEntity
  8
DISEGNO
  6
TRATTEGGIATA
 48
4.0
100
AcDbLine
 10
70.0599
 20
159.064663
 30
0.0
 11
64.5599
 21
159.064663
 31
0.0
  0
LINE
  5
30F3
100
AcDbEntity
  8
DISEGNO
  6
TRATTEGGIATA
 48
4.0
100
AcDbLine
 10
70.0599
 20
159.064663
 30
0.0
 11
67.3099
 21
157.47695
 31
0.0
  0
LINE
  5
30F4
100
AcDbEntity
  8
DISEGNO
  6
TRATTEGGIATA
 48
4.0
100
AcDbLine
 10
64.5599
 20
159.064663
 30
0.0
 11
67.3099
 21
157.47695
 31
0.0
  0
LINE
  5
30F5
100
AcDbEntity
  8
DISEGNO
  6
CONTINUOUS
100
AcDbLine
 10
59.5099
 20
175.564663
 30
0.0
 11
60.3099
 21
174.764663
 31
0.0
  0
LINE
  5
30F6
100
AcDbEntity
  8
DISEGNO
  6
CONTINUOUS
100
AcDbLine
 10
75.1099
 20
175.564663
 30
0.0
 11
74.3099
 21
174.764663
 31
0.0
  0
LINE
  5
30F7
100
AcDbEntity
  8
DISEGNO
  6
CONTINUOUS
100
AcDbLine
 10
81.5099
 20
175.564663
 30
0.0
 11
82.3099
 21
174.764663
 31
0.0
  0
LINE
  5
30F8
100
AcDbEntity
  8
DISEGNO
  6
CONTINUOUS
100
AcDbLine
 10
52.3099
 20
154.364663
 30
0.0
 11
53.1099
 21
153.564663
 31
0.0
  0
LINE
  5
30F9
100
AcDbEntity
  8
DISEGNO
  6
CONTINUOUS
100
AcDbLine
 10
82.3099
 20
154.364663
 30
0.0
 11
81.5099
 21
153.564663
 31
0.0
  0
LINE
  5
30FA
100
AcDbEntity
  8
DISEGNO
  6
CONTINUOUS
100
AcDbLine
 10
52.3099
 20
174.764663
 30
0.0
 11
53.1099
 21
175.564663
 31
0.0
  0
VIEWPORT
  5
22
100
AcDbEntity
 67
     1
  8
0
100
AcDbViewport
 10
261.517699
 20
154.724298
 30
0.0
 40
523.035398
 41
309.448596
 68
    -1
 69
     1
1001
ACAD
1000
MVIEW
1002
{
1070
    16
1010
0.0
1020
0.0
1030
0.0
1010
0.0
1020
0.0
1030
1.0
1040
0.0
1040
309.448596
1040
261.517699
1040
154.724298
1040
50.0
1040
0.0
1040
0.0
1070
     0
1070
   100
1070
     1
1070
     0
1070
     0
1070
     0
1070
     0
1070
     0
1040
0.0
1040
0.0
1040
0.0
1040
1.0
1040
1.0
1040
10.0
1040
10.0
1070
     0
1002
{
1002
}
1002
}
  0
ENDSEC
  0
SECTION
  2
OBJECTS
  0
DICTIONARY
  5
C
100
AcDbDictionary
  3
ACAD_GROUP
350
D
  3
ACAD_MLINESTYLE
350
E
  0
DICTIONARY
  5
D
102
{ACAD_REACTORS
330
C
102
}
100
AcDbDictionary
  0
DICTIONARY
  5
E
102
{ACAD_REACTORS
330
C
102
}
100
AcDbDictionary
  3
STANDARD
350
13
  0
MLINESTYLE
  5
13
102
{ACAD_REACTORS
330
E
102
}
100
AcDbMlineStyle
  2
STANDARD
 70
     0
  3

 62
     0
 51
90.0
 52
90.0
 71
     2
 49
0.5
 62
   256
  6
BYLAYER
 49
-0.5
 62
   256
  6
BYLAYER
  0
ENDSEC
  0
EOF
