  0
SECTION
  2
HEADER
  9
$ACADVER
  1
AC1012
  9
$DWGCODEPAGE
  3
iso8859-1
  9
$INSBASE
 10
0.0
 20
0.0
 30
0.0
  9
$EXTMIN
 10
-1940.234365
 20
-1659.251698
 30
0.0
  9
$EXTMAX
 10
-1740.234365
 20
-1372.037392
 30
0.0
  9
$LIMMIN
 10
0.0
 20
0.0
  9
$LIMMAX
 10
210.0
 20
297.0
  9
$ORTHOMODE
 70
     0
  9
$REGENMODE
 70
     1
  9
$FILLMODE
 70
     1
  9
$QTEXTMODE
 70
     0
  9
$MIRRTEXT
 70
     1
  9
$DRAGMODE
 70
     2
  9
$LTSCALE
 40
1.0
  9
$OSMODE
 70
     0
  9
$ATTMODE
 70
     1
  9
$TEXTSIZE
 40
2.5
  9
$TRACEWID
 40
0.05
  9
$TEXTSTYLE
  7
STANDARD
  9
$CLAYER
  8
QUOTE
  9
$CELTYPE
  6
BYLAYER
  9
$CECOLOR
 62
   256
  9
$CELTSCALE
 40
1.0
  9
$DELOBJ
 70
     1
  9
$DISPSILH
 70
     0
  9
$DIMSCALE
 40
1.0
  9
$DIMASZ
 40
2.5
  9
$DIMEXO
 40
0.625
  9
$DIMDLI
 40
3.75
  9
$DIMRND
 40
0.0
  9
$DIMDLE
 40
0.0
  9
$DIMEXE
 40
1.25
  9
$DIMTP
 40
0.2
  9
$DIMTM
 40
0.0
  9
$DIMTXT
 40
3.0
  9
$DIMCEN
 40
0.0
  9
$DIMTSZ
 40
0.0
  9
$DIMTOL
 70
     1
  9
$DIMLIM
 70
     0
  9
$DIMTIH
 70
     0
  9
$DIMTOH
 70
     0
  9
$DIMSE1
 70
     0
  9
$DIMSE2
 70
     0
  9
$DIMTAD
 70
     1
  9
$DIMZIN
 70
     8
  9
$DIMBLK
  1

  9
$DIMASO
 70
     1
  9
$DIMSHO
 70
     1
  9
$DIMPOST
  1

  9
$DIMAPOST
  1

  9
$DIMALT
 70
     0
  9
$DIMALTD
 70
     2
  9
$DIMALTF
 40
0.03937
  9
$DIMLFAC
 40
1.0
  9
$DIMTOFL
 70
     0
  9
$DIMTVP
 40
0.0
  9
$DIMTIX
 70
     0
  9
$DIMSOXD
 70
     0
  9
$DIMSAH
 70
     0
  9
$DIMBLK1
  1

  9
$DIMBLK2
  1

  9
$DIMSTYLE
  2
STANDARD
  9
$DIMCLRD
 70
     0
  9
$DIMCLRE
 70
     0
  9
$DIMCLRT
 70
     0
  9
$DIMTFAC
 40
1.0
  9
$DIMGAP
 40
0.625
  9
$DIMJUST
 70
     0
  9
$DIMSD1
 70
     0
  9
$DIMSD2
 70
     0
  9
$DIMTOLJ
 70
     1
  9
$DIMTZIN
 70
     8
  9
$DIMALTZ
 70
     0
  9
$DIMALTTZ
 70
     0
  9
$DIMFIT
 70
     3
  9
$DIMUPT
 70
     0
  9
$DIMUNIT
 70
     2
  9
$DIMDEC
 70
     2
  9
$DIMTDEC
 70
     2
  9
$DIMALTU
 70
     2
  9
$DIMALTTD
 70
     2
  9
$DIMTXSTY
  7
STANDARD
  9
$DIMAUNIT
 70
     0
  9
$LUNITS
 70
     2
  9
$LUPREC
 70
     4
  9
$SKETCHINC
 40
0.1
  9
$FILLETRAD
 40
8.0
  9
$AUNITS
 70
     0
  9
$AUPREC
 70
     0
  9
$MENU
  1
acad
  9
$ELEVATION
 40
0.0
  9
$PELEVATION
 40
0.0
  9
$THICKNESS
 40
0.0
  9
$LIMCHECK
 70
     0
  9
$BLIPMODE
 70
     1
  9
$CHAMFERA
 40
0.0
  9
$CHAMFERB
 40
0.0
  9
$CHAMFERC
 40
20.0
  9
$CHAMFERD
 40
0.0
  9
$SKPOLY
 70
     0
  9
$TDCREATE
 40
2451817.701590509
  9
$TDUPDATE
 40
2452630.476404166
  9
$TDINDWG
 40
0.0766394676
  9
$TDUSRTIMER
 40
0.0766394676
  9
$USRTIMER
 70
     1
  9
$ANGBASE
 50
0.0
  9
$ANGDIR
 70
     0
  9
$PDMODE
 70
     0
  9
$PDSIZE
 40
0.0
  9
$PLINEWID
 40
0.0
  9
$COORDS
 70
     0
  9
$SPLFRAME
 70
     0
  9
$SPLINETYPE
 70
     6
  9
$SPLINESEGS
 70
     8
  9
$ATTDIA
 70
     0
  9
$ATTREQ
 70
     1
  9
$HANDLING
 70
     1
  9
$HANDSEED
  5
BA3
  9
$SURFTAB1
 70
     6
  9
$SURFTAB2
 70
     6
  9
$SURFTYPE
 70
     6
  9
$SURFU
 70
     6
  9
$SURFV
 70
     6
  9
$UCSNAME
  2

  9
$UCSORG
 10
0.0
 20
0.0
 30
0.0
  9
$UCSXDIR
 10
1.0
 20
0.0
 30
0.0
  9
$UCSYDIR
 10
0.0
 20
1.0
 30
0.0
  9
$PUCSNAME
  2

  9
$PUCSORG
 10
0.0
 20
0.0
 30
0.0
  9
$PUCSXDIR
 10
1.0
 20
0.0
 30
0.0
  9
$PUCSYDIR
 10
0.0
 20
1.0
 30
0.0
  9
$USERI1
 70
     0
  9
$USERI2
 70
     0
  9
$USERI3
 70
     0
  9
$USERI4
 70
     0
  9
$USERI5
 70
     0
  9
$USERR1
 40
0.0
  9
$USERR2
 40
0.0
  9
$USERR3
 40
0.0
  9
$USERR4
 40
0.0
  9
$USERR5
 40
0.0
  9
$WORLDVIEW
 70
     1
  9
$SHADEDGE
 70
     3
  9
$SHADEDIF
 70
    70
  9
$TILEMODE
 70
     1
  9
$MAXACTVP
 70
    16
  9
$PINSBASE
 10
0.0
 20
0.0
 30
0.0
  9
$PLIMCHECK
 70
     0
  9
$PEXTMIN
 10
1.000000E+20
 20
1.000000E+20
 30
1.000000E+20
  9
$PEXTMAX
 10
-1.000000E+20
 20
-1.000000E+20
 30
-1.000000E+20
  9
$PLIMMIN
 10
0.0
 20
0.0
  9
$PLIMMAX
 10
12.0
 20
9.0
  9
$UNITMODE
 70
     0
  9
$VISRETAIN
 70
     0
  9
$PLINEGEN
 70
     0
  9
$PSLTSCALE
 70
     1
  9
$TREEDEPTH
 70
  3020
  9
$PICKSTYLE
 70
     1
  9
$CMLSTYLE
  2
STANDARD
  9
$CMLJUST
 70
     0
  9
$CMLSCALE
 40
20.0
  9
$SAVEIMAGES
 70
     0
  0
ENDSEC
  0
SECTION
  2
CLASSES
  0
ENDSEC
  0
SECTION
  2
TABLES
  0
TABLE
  2
VPORT
  5
8
100
AcDbSymbolTable
 70
     4
  0
VPORT
  5
BA2
100
AcDbSymbolTableRecord
100
AcDbViewportTableRecord
  2
*ACTIVE
 70
     0
 10
0.0
 20
0.0
 11
1.0
 21
1.0
 12
-1812.504786
 22
-1472.19841
 13
0.0
 23
0.0
 14
10.0
 24
10.0
 15
10.0
 25
10.0
 16
0.0
 26
0.0
 36
1.0
 17
0.0
 27
0.0
 37
0.0
 40
284.412644
 41
1.873134
 42
50.0
 43
0.0
 44
0.0
 50
0.0
 51
0.0
 71
     0
 72
   100
 73
     1
 74
     0
 75
     0
 76
     0
 77
     0
 78
     0
  0
ENDTAB
  0
TABLE
  2
LTYPE
  5
5
100
AcDbSymbolTable
 70
     4
  0
LTYPE
  5
13
100
AcDbSymbolTableRecord
100
AcDbLinetypeTableRecord
  2
BYBLOCK
 70
     0
  3

 72
    65
 73
     0
 40
0.0
  0
LTYPE
  5
14
100
AcDbSymbolTableRecord
100
AcDbLinetypeTableRecord
  2
BYLAYER
 70
     0
  3

 72
    65
 73
     0
 40
0.0
  0
LTYPE
  5
15
100
AcDbSymbolTableRecord
100
AcDbLinetypeTableRecord
  2
CONTINUOUS
 70
    64
  3
Solid line
 72
    65
 73
     0
 40
0.0
  0
LTYPE
  5
94
100
AcDbSymbolTableRecord
100
AcDbLinetypeTableRecord
  2
ACAD_ISO04W100
 70
    64
  3
____ . ____ . ____ . ____ . ____ . ____ . ____ 
 72
    65
 73
     4
 40
30.5
 49
24.0
 74
     0
 49
-3.0
 74
     0
 49
0.5
 74
     0
 49
-3.0
 74
     0
  0
LTYPE
  5
225
100
AcDbSymbolTableRecord
100
AcDbLinetypeTableRecord
  2
TRATTEGGIATAX2
 70
    64
  3
____  ____  ____  ____  ____  ____  ____  ____ 
 72
    65
 73
     2
 40
1.5
 49
1.0
 74
     0
 49
-0.5
 74
     0
  0
LTYPE
  5
226
100
AcDbSymbolTableRecord
100
AcDbLinetypeTableRecord
  2
NASCOSTA
 70
    64
  3
__ __ __ __ __ __ __ __ __ __ __ __ __ __ __ __
 72
    65
 73
     2
 40
0.375
 49
0.25
 74
     0
 49
-0.125
 74
     0
  0
ENDTAB
  0
TABLE
  2
LAYER
  5
2
100
AcDbSymbolTable
 70
    10
  0
LAYER
  5
F
100
AcDbSymbolTableRecord
100
AcDbLayerTableRecord
  2
0
 70
     0
 62
     7
  6
CONTINUOUS
  0
LAYER
  5
95
100
AcDbSymbolTableRecord
100
AcDbLayerTableRecord
  2
DISEGNO
 70
    64
 62
     7
  6
CONTINUOUS
  0
LAYER
  5
96
100
AcDbSymbolTableRecord
100
AcDbLayerTableRecord
  2
ASSI
 70
    64
 62
     1
  6
ACAD_ISO04W100
  0
LAYER
  5
97
100
AcDbSymbolTableRecord
100
AcDbLayerTableRecord
  2
SEZIONE
 70
    64
 62
     3
  6
CONTINUOUS
  0
LAYER
  5
98
100
AcDbSymbolTableRecord
100
AcDbLayerTableRecord
  2
TEMPRA
 70
    64
 62
     2
  6
CONTINUOUS
  0
LAYER
  5
99
100
AcDbSymbolTableRecord
100
AcDbLayerTableRecord
  2
QUOTE
 70
    64
 62
     5
  6
CONTINUOUS
  0
LAYER
  5
9A
100
AcDbSymbolTableRecord
100
AcDbLayerTableRecord
  2
FOGLIO
 70
    64
 62
     8
  6
CONTINUOUS
  0
LAYER
  5
1A3
100
AcDbSymbolTableRecord
100
AcDbLayerTableRecord
  2
TRATTO
 70
    64
 62
     6
  6
NASCOSTA
  0
LAYER
  5
28A
100
AcDbSymbolTableRecord
100
AcDbLayerTableRecord
  2
DEFPOINTS
 70
    64
 62
     7
  6
CONTINUOUS
  0
LAYER
  5
4A6
100
AcDbSymbolTableRecord
100
AcDbLayerTableRecord
  2
TABELLA
 70
    64
 62
     8
  6
CONTINUOUS
  0
ENDTAB
  0
TABLE
  2
STYLE
  5
3
100
AcDbSymbolTable
 70
     2
  0
STYLE
  5
10
100
AcDbSymbolTableRecord
100
AcDbTextStyleTableRecord
  2
STANDARD
 70
    64
 40
0.0
 41
1.1
 50
0.0
 71
     0
 42
2.5
  3
C:\Programmi\AutoCAD LT\isocp.shx
  4

  0
STYLE
  5
B0
100
AcDbSymbolTableRecord
100
AcDbTextStyleTableRecord
  2
STYLE3
 70
    64
 40
0.0
 41
1.5
 50
0.0
 71
     0
 42
4.0
  3
C:\Programmi\AutoCAD LT\isocp3.shx
  4

  0
ENDTAB
  0
TABLE
  2
VIEW
  5
6
100
AcDbSymbolTable
 70
     0
  0
ENDTAB
  0
TABLE
  2
UCS
  5
7
100
AcDbSymbolTable
 70
     0
  0
ENDTAB
  0
TABLE
  2
APPID
  5
9
100
AcDbSymbolTable
 70
     1
  0
APPID
  5
11
100
AcDbSymbolTableRecord
100
AcDbRegAppTableRecord
  2
ACAD
 70
     0
  0
ENDTAB
  0
TABLE
  2
DIMSTYLE
  5
A
100
AcDbSymbolTable
 70
    13
  0
DIMSTYLE
105
1D
100
AcDbSymbolTableRecord
100
AcDbDimStyleTableRecord
  2
STANDARD
 70
     0
  3

  4

  5

  6

  7

 40
1.0
 41
2.5
 42
0.625
 43
3.75
 44
1.25
 45
0.0
 46
0.0
 47
0.0
 48
0.0
140
3.0
141
2.5
142
0.0
143
0.03937
144
1.0
145
0.0
146
1.0
147
0.625
 71
     0
 72
     0
 73
     0
 74
     0
 75
     0
 76
     0
 77
     1
 78
     8
170
     0
171
     2
172
     0
173
     0
174
     0
175
     0
176
     0
177
     0
178
     0
270
     2
271
     2
272
     2
273
     2
274
     2
340
10
275
     0
280
     0
281
     0
282
     0
283
     1
284
     8
285
     0
286
     0
287
     3
288
     0
  0
DIMSTYLE
105
198
100
AcDbSymbolTableRecord
100
AcDbDimStyleTableRecord
  2
TOLL-06
 70
     0
  3

  4

  5

  6

  7

 40
1.0
 41
2.5
 42
0.625
 43
3.75
 44
1.25
 45
0.0
 46
0.0
 47
-0.05
 48
0.0
140
3.0
141
2.5
142
0.0
143
0.03937
144
1.0
145
0.0
146
0.8
147
0.625
 71
     1
 72
     0
 73
     0
 74
     0
 75
     0
 76
     0
 77
     1
 78
     8
170
     0
171
     2
172
     0
173
     0
174
     0
175
     0
176
     0
177
     0
178
     0
270
     2
271
     2
272
     2
273
     2
274
     2
340
10
275
     0
280
     0
281
     0
282
     0
283
     2
284
     8
285
     0
286
     0
287
     3
288
     0
  0
DIMSTYLE
105
20B
100
AcDbSymbolTableRecord
100
AcDbDimStyleTableRecord
  2
TOLL-01
 70
     0
  3

  4

  5

  6

  7

 40
1.0
 41
2.5
 42
0.625
 43
3.75
 44
1.25
 45
0.0
 46
0.0
 47
0.02
 48
0.0
140
3.0
141
2.5
142
0.0
143
0.03937
144
1.0
145
0.0
146
0.8
147
0.625
 71
     1
 72
     0
 73
     0
 74
     0
 75
     0
 76
     0
 77
     1
 78
     8
170
     0
171
     2
172
     0
173
     0
174
     0
175
     0
176
     0
177
     0
178
     0
270
     2
271
     2
272
     2
273
     2
274
     2
340
10
275
     0
280
     0
281
     0
282
     0
283
     2
284
     8
285
     0
286
     0
287
     3
288
     0
  0
DIMSTYLE
105
232
100
AcDbSymbolTableRecord
100
AcDbDimStyleTableRecord
  2
TOLL-02
 70
     0
  3

  4

  5

  6

  7

 40
1.0
 41
2.5
 42
0.625
 43
3.75
 44
1.25
 45
0.0
 46
0.0
 47
-0.02
 48
0.0
140
3.0
141
2.5
142
0.0
143
0.03937
144
1.0
145
0.0
146
0.8
147
0.625
 71
     1
 72
     0
 73
     0
 74
     0
 75
     0
 76
     0
 77
     1
 78
     8
170
     0
171
     2
172
     0
173
     0
174
     0
175
     0
176
     0
177
     0
178
     0
270
     2
271
     2
272
     2
273
     2
274
     2
340
10
275
     0
280
     0
281
     0
282
     0
283
     2
284
     8
285
     0
286
     0
287
     3
288
     0
  0
DIMSTYLE
105
233
100
AcDbSymbolTableRecord
100
AcDbDimStyleTableRecord
  2
TOLL-03
 70
     0
  3

  4

  5

  6

  7

 40
1.0
 41
2.5
 42
0.625
 43
3.75
 44
1.25
 45
0.0
 46
0.0
 47
0.01
 48
0.01
140
3.0
141
2.5
142
0.0
143
0.03937
144
1.0
145
0.0
146
0.8
147
0.625
 71
     1
 72
     0
 73
     0
 74
     0
 75
     0
 76
     0
 77
     1
 78
     8
170
     0
171
     2
172
     0
173
     0
174
     0
175
     0
176
     0
177
     0
178
     0
270
     2
271
     2
272
     2
273
     2
274
     2
340
10
275
     0
280
     0
281
     0
282
     0
283
     2
284
     8
285
     0
286
     0
287
     3
288
     0
  0
DIMSTYLE
105
234
100
AcDbSymbolTableRecord
100
AcDbDimStyleTableRecord
  2
TOLL-04
 70
     0
  3

  4

  5

  6

  7

 40
1.0
 41
2.5
 42
0.625
 43
3.75
 44
1.25
 45
0.0
 46
0.0
 47
0.05
 48
0.05
140
3.0
141
2.5
142
0.0
143
0.03937
144
1.0
145
0.0
146
0.8
147
0.625
 71
     1
 72
     0
 73
     0
 74
     0
 75
     0
 76
     0
 77
     1
 78
     8
170
     0
171
     2
172
     0
173
     0
174
     0
175
     0
176
     0
177
     0
178
     0
270
     2
271
     2
272
     2
273
     2
274
     2
340
10
275
     0
280
     0
281
     0
282
     0
283
     2
284
     8
285
     0
286
     0
287
     3
288
     0
  0
DIMSTYLE
105
235
100
AcDbSymbolTableRecord
100
AcDbDimStyleTableRecord
  2
TOLL-05
 70
     0
  3

  4

  5

  6

  7

 40
1.0
 41
2.5
 42
0.625
 43
3.75
 44
1.25
 45
0.0
 46
0.0
 47
0.05
 48
0.0
140
3.0
141
2.5
142
0.0
143
0.03937
144
1.0
145
0.0
146
0.8
147
0.625
 71
     1
 72
     0
 73
     0
 74
     0
 75
     0
 76
     0
 77
     1
 78
     8
170
     0
171
     2
172
     0
173
     0
174
     0
175
     0
176
     0
177
     0
178
     0
270
     2
271
     2
272
     2
273
     2
274
     2
340
10
275
     0
280
     0
281
     0
282
     0
283
     2
284
     8
285
     0
286
     0
287
     3
288
     0
  0
DIMSTYLE
105
247
100
AcDbSymbolTableRecord
100
AcDbDimStyleTableRecord
  2
TOLL-07
 70
     0
  3

  4

  5

  6

  7

 40
1.0
 41
2.5
 42
0.625
 43
3.75
 44
1.25
 45
0.0
 46
0.0
 47
0.1
 48
0.1
140
3.0
141
2.5
142
0.0
143
0.03937
144
1.0
145
0.0
146
1.0
147
0.625
 71
     1
 72
     0
 73
     0
 74
     0
 75
     0
 76
     0
 77
     1
 78
     8
170
     0
171
     2
172
     0
173
     0
174
     0
175
     0
176
     0
177
     0
178
     0
270
     2
271
     2
272
     2
273
     2
274
     2
340
10
275
     0
280
     0
281
     0
282
     0
283
     1
284
     8
285
     0
286
     0
287
     3
288
     0
  0
DIMSTYLE
105
251
100
AcDbSymbolTableRecord
100
AcDbDimStyleTableRecord
  2
TOLL-08
 70
     0
  3

  4

  5

  6

  7

 40
1.0
 41
2.5
 42
0.625
 43
3.75
 44
1.25
 45
0.0
 46
0.0
 47
0.1
 48
0.0
140
3.0
141
2.5
142
0.0
143
0.03937
144
1.0
145
0.0
146
1.0
147
0.625
 71
     1
 72
     0
 73
     0
 74
     0
 75
     0
 76
     0
 77
     1
 78
     8
170
     0
171
     2
172
     0
173
     0
174
     0
175
     0
176
     0
177
     0
178
     0
270
     2
271
     2
272
     2
273
     2
274
     2
340
10
275
     0
280
     0
281
     0
282
     0
283
     1
284
     8
285
     0
286
     0
287
     3
288
     0
  0
DIMSTYLE
105
257
100
AcDbSymbolTableRecord
100
AcDbDimStyleTableRecord
  2
TOLL-09
 70
     0
  3

  4

  5

  6

  7

 40
1.0
 41
2.5
 42
0.625
 43
3.75
 44
1.25
 45
0.0
 46
0.0
 47
-0.1
 48
0.0
140
3.0
141
2.5
142
0.0
143
0.03937
144
1.0
145
0.0
146
1.0
147
0.625
 71
     1
 72
     0
 73
     0
 74
     0
 75
     0
 76
     0
 77
     1
 78
     8
170
     0
171
     2
172
     0
173
     0
174
     0
175
     0
176
     0
177
     0
178
     0
270
     2
271
     2
272
     2
273
     2
274
     2
340
10
275
     0
280
     0
281
     0
282
     0
283
     1
284
     8
285
     0
286
     0
287
     3
288
     0
  0
DIMSTYLE
105
258
100
AcDbSymbolTableRecord
100
AcDbDimStyleTableRecord
  2
TOLL-10
 70
     0
  3

  4

  5

  6

  7

 40
1.0
 41
2.5
 42
0.625
 43
3.75
 44
1.25
 45
0.0
 46
0.0
 47
0.2
 48
0.2
140
3.0
141
2.5
142
0.0
143
0.03937
144
1.0
145
0.0
146
1.0
147
0.625
 71
     1
 72
     0
 73
     0
 74
     0
 75
     0
 76
     0
 77
     1
 78
     8
170
     0
171
     2
172
     0
173
     0
174
     0
175
     0
176
     0
177
     0
178
     0
270
     2
271
     2
272
     2
273
     2
274
     2
340
10
275
     0
280
     0
281
     0
282
     0
283
     1
284
     8
285
     0
286
     0
287
     3
288
     0
  0
DIMSTYLE
105
259
100
AcDbSymbolTableRecord
100
AcDbDimStyleTableRecord
  2
TOLL-11
 70
     0
  3

  4

  5

  6

  7

 40
1.0
 41
2.5
 42
0.625
 43
3.75
 44
1.25
 45
0.0
 46
0.0
 47
0.2
 48
0.0
140
3.0
141
2.5
142
0.0
143
0.03937
144
1.0
145
0.0
146
1.0
147
0.625
 71
     1
 72
     0
 73
     0
 74
     0
 75
     0
 76
     0
 77
     1
 78
     8
170
     0
171
     2
172
     0
173
     0
174
     0
175
     0
176
     0
177
     0
178
     0
270
     2
271
     2
272
     2
273
     2
274
     2
340
10
275
     0
280
     0
281
     0
282
     0
283
     1
284
     8
285
     0
286
     0
287
     3
288
     0
  0
DIMSTYLE
105
4A7
100
AcDbSymbolTableRecord
100
AcDbDimStyleTableRecord
  2
ISO-25
 70
     0
  3

  4

  5

  6

  7

 40
1.0
 41
2.5
 42
0.625
 43
3.75
 44
1.25
 45
0.0
 46
0.0
 47
0.0
 48
0.0
140
2.5
141
2.5
142
0.0
143
0.0394
144
1.0
145
1.0
146
1.0
147
0.625
 71
     0
 72
     0
 73
     1
 74
     0
 75
     0
 76
     0
 77
     1
 78
     8
170
     0
171
     2
172
     1
173
     0
174
     0
175
     0
176
     0
177
     0
178
     0
270
     2
271
     4
272
     4
273
     2
274
     2
340
10
275
     0
280
     0
281
     0
282
     0
283
     1
284
     0
285
     0
286
     0
287
     3
288
     0
  0
ENDTAB
  0
TABLE
  2
BLOCK_RECORD
  5
1
100
AcDbSymbolTable
 70
    36
  0
BLOCK_RECORD
  5
19
100
AcDbSymbolTableRecord
100
AcDbBlockTableRecord
  2
*MODEL_SPACE
  0
BLOCK_RECORD
  5
16
100
AcDbSymbolTableRecord
100
AcDbBlockTableRecord
  2
*PAPER_SPACE
  0
BLOCK_RECORD
  5
3A2
100
AcDbSymbolTableRecord
100
AcDbBlockTableRecord
  2
RUGOSITA
  0
BLOCK_RECORD
  5
4A8
100
AcDbSymbolTableRecord
100
AcDbBlockTableRecord
  2
A$C52B2
  0
BLOCK_RECORD
  5
56D
100
AcDbSymbolTableRecord
100
AcDbBlockTableRecord
  2
*D2
  0
BLOCK_RECORD
  5
57A
100
AcDbSymbolTableRecord
100
AcDbBlockTableRecord
  2
*D3
  0
BLOCK_RECORD
  5
588
100
AcDbSymbolTableRecord
100
AcDbBlockTableRecord
  2
*D4
  0
BLOCK_RECORD
  5
5AC
100
AcDbSymbolTableRecord
100
AcDbBlockTableRecord
  2
*D5
  0
BLOCK_RECORD
  5
5B9
100
AcDbSymbolTableRecord
100
AcDbBlockTableRecord
  2
*D6
  0
BLOCK_RECORD
  5
5C6
100
AcDbSymbolTableRecord
100
AcDbBlockTableRecord
  2
*D7
  0
BLOCK_RECORD
  5
5D3
100
AcDbSymbolTableRecord
100
AcDbBlockTableRecord
  2
*D8
  0
BLOCK_RECORD
  5
5E0
100
AcDbSymbolTableRecord
100
AcDbBlockTableRecord
  2
*D9
  0
BLOCK_RECORD
  5
5EE
100
AcDbSymbolTableRecord
100
AcDbBlockTableRecord
  2
*D10
  0
BLOCK_RECORD
  5
60A
100
AcDbSymbolTableRecord
100
AcDbBlockTableRecord
  2
*D11
  0
BLOCK_RECORD
  5
623
100
AcDbSymbolTableRecord
100
AcDbBlockTableRecord
  2
*D12
  0
BLOCK_RECORD
  5
631
100
AcDbSymbolTableRecord
100
AcDbBlockTableRecord
  2
*D13
  0
BLOCK_RECORD
  5
63F
100
AcDbSymbolTableRecord
100
AcDbBlockTableRecord
  2
*D14
  0
BLOCK_RECORD
  5
64C
100
AcDbSymbolTableRecord
100
AcDbBlockTableRecord
  2
*D15
  0
BLOCK_RECORD
  5
65A
100
AcDbSymbolTableRecord
100
AcDbBlockTableRecord
  2
*D16
  0
BLOCK_RECORD
  5
667
100
AcDbSymbolTableRecord
100
AcDbBlockTableRecord
  2
*D17
  0
BLOCK_RECORD
  5
670
100
AcDbSymbolTableRecord
100
AcDbBlockTableRecord
  2
*D18
  0
BLOCK_RECORD
  5
679
100
AcDbSymbolTableRecord
100
AcDbBlockTableRecord
  2
*D19
  0
BLOCK_RECORD
  5
686
100
AcDbSymbolTableRecord
100
AcDbBlockTableRecord
  2
*D20
  0
BLOCK_RECORD
  5
712
100
AcDbSymbolTableRecord
100
AcDbBlockTableRecord
  2
*D21
  0
BLOCK_RECORD
  5
721
100
AcDbSymbolTableRecord
100
AcDbBlockTableRecord
  2
*D22
  0
BLOCK_RECORD
  5
7BA
100
AcDbSymbolTableRecord
100
AcDbBlockTableRecord
  2
*D23
  0
BLOCK_RECORD
  5
7C9
100
AcDbSymbolTableRecord
100
AcDbBlockTableRecord
  2
*D24
  0
BLOCK_RECORD
  5
7E3
100
AcDbSymbolTableRecord
100
AcDbBlockTableRecord
  2
*D25
  0
BLOCK_RECORD
  5
8FC
100
AcDbSymbolTableRecord
100
AcDbBlockTableRecord
  2
*D26
  0
BLOCK_RECORD
  5
90A
100
AcDbSymbolTableRecord
100
AcDbBlockTableRecord
  2
*D27
  0
BLOCK_RECORD
  5
92B
100
AcDbSymbolTableRecord
100
AcDbBlockTableRecord
  2
*D28
  0
BLOCK_RECORD
  5
960
100
AcDbSymbolTableRecord
100
AcDbBlockTableRecord
  2
*D29
  0
BLOCK_RECORD
  5
99A
100
AcDbSymbolTableRecord
100
AcDbBlockTableRecord
  2
*D30
  0
BLOCK_RECORD
  5
9A7
100
AcDbSymbolTableRecord
100
AcDbBlockTableRecord
  2
*D31
  0
BLOCK_RECORD
  5
9D4
100
AcDbSymbolTableRecord
100
AcDbBlockTableRecord
  2
A$C7154
  0
BLOCK_RECORD
  5
A5C
100
AcDbSymbolTableRecord
100
AcDbBlockTableRecord
  2
*X33
  0
BLOCK_RECORD
  5
AF2
100
AcDbSymbolTableRecord
100
AcDbBlockTableRecord
  2
*D34
  0
BLOCK_RECORD
  5
B1D
100
AcDbSymbolTableRecord
100
AcDbBlockTableRecord
  2
A$CC003
  0
ENDTAB
  0
ENDSEC
  0
SECTION
  2
BLOCKS
  0
BLOCK
  5
1A
100
AcDbEntity
  8
0
100
AcDbBlockBegin
  2
*MODEL_SPACE
 70
     0
 10
0.0
 20
0.0
 30
0.0
  3
*MODEL_SPACE
  1

  0
ENDBLK
  5
1B
100
AcDbEntity
  8
0
100
AcDbBlockEnd
  0
BLOCK
  5
17
100
AcDbEntity
 67
     1
  8
0
100
AcDbBlockBegin
  2
*PAPER_SPACE
 70
     0
 10
0.0
 20
0.0
 30
0.0
  3
*PAPER_SPACE
  1

  0
ENDBLK
  5
18
100
AcDbEntity
 67
     1
  8
0
100
AcDbBlockEnd
  0
BLOCK
  5
3A7
100
AcDbEntity
  8
DISEGNO
100
AcDbBlockBegin
  2
RUGOSITA
 70
     2
 10
0.0
 20
0.0
 30
0.0
  3
RUGOSITA
  1

  0
ATTDEF
  5
3A3
100
AcDbEntity
  8
QUOTE
100
AcDbText
 10
-1.071886
 20
3.214106
 30
0.0
 40
1.5
  1
0.8
100
AcDbAttributeDefinition
  3
CHE RUGOSITA ?
  2
RUGOSITA
 70
     0
  0
LINE
  5
3A4
100
AcDbEntity
  8
QUOTE
100
AcDbLine
 10
0.0
 20
0.0
 30
0.0
 11
4.0
 21
6.928203
 31
0.0
  0
LINE
  5
3A5
100
AcDbEntity
  8
QUOTE
100
AcDbLine
 10
0.0
 20
0.0
 30
0.0
 11
-1.75
 21
3.031089
 31
0.0
  0
LINE
  5
3A6
100
AcDbEntity
  8
QUOTE
100
AcDbLine
 10
-1.75
 20
3.031089
 30
0.0
 11
1.75
 21
3.031089
 31
0.0
  0
ENDBLK
  5
3A8
100
AcDbEntity
  8
DISEGNO
100
AcDbBlockEnd
  0
BLOCK
  5
547
100
AcDbEntity
  8
QUOTE
100
AcDbBlockBegin
  2
A$C52B2
 70
     0
 10
0.0
 20
0.0
 30
0.0
  3
A$C52B2
  1

  0
LINE
  5
4A9
100
AcDbEntity
  8
TABELLA
  6
CONTINUOUS
100
AcDbLine
 10
100.781064
 20
5.387067
 30
0.0
 11
103.281064
 21
0.387067
 31
0.0
  0
LINE
  5
4AA
100
AcDbEntity
  8
TABELLA
  6
CONTINUOUS
100
AcDbLine
 10
100.781064
 20
0.387067
 30
0.0
 11
103.281064
 21
0.387067
 31
0.0
  0
LINE
  5
4AB
100
AcDbEntity
  8
TABELLA
  6
CONTINUOUS
100
AcDbLine
 10
103.281064
 20
287.387067
 30
0.0
 11
100.781064
 21
282.387067
 31
0.0
  0
LINE
  5
4AC
100
AcDbEntity
  8
TABELLA
  6
CONTINUOUS
100
AcDbLine
 10
100.781064
 20
287.387067
 30
0.0
 11
103.281064
 21
287.387067
 31
0.0
  0
TEXT
  5
4AD
100
AcDbEntity
  8
TABELLA
  6
CONTINUOUS
100
AcDbText
 10
83.891226
 20
14.123583
 30
0.0
 40
6.0
  1
ROLLERI
100
AcDbText
  0
LINE
  5
4AE
100
AcDbEntity
  8
TABELLA
  6
CONTINUOUS
100
AcDbLine
 10
115.706968
 20
22.612261
 30
0.0
 11
84.107383
 21
22.612261
 31
0.0
1001
ACAD
1000
ASC_BOUNDS
1002
{
1070
    19
1002
}
  0
LINE
  5
4AF
100
AcDbEntity
  8
TABELLA
  6
CONTINUOUS
100
AcDbLine
 10
82.055262
 20
11.456564
 30
0.0
 11
113.654847
 21
11.456564
 31
0.0
1001
ACAD
1000
ASC_BOUNDS
1002
{
1070
    19
1002
}
  0
LINE
  5
4B0
100
AcDbEntity
  8
TABELLA
  6
CONTINUOUS
100
AcDbLine
 10
116.407176
 20
23.612261
 30
0.0
 11
83.407176
 21
23.612261
 31
0.0
1001
ACAD
1000
ASC_BOUNDS
1002
{
1070
    19
1002
}
  0
LINE
  5
4B1
100
AcDbEntity
  8
TABELLA
  6
CONTINUOUS
100
AcDbLine
 10
81.355055
 20
10.456564
 30
0.0
 11
114.355055
 21
10.456564
 31
0.0
1001
ACAD
1000
ASC_BOUNDS
1002
{
1070
    19
1002
}
  0
TEXT
  5
4B2
100
AcDbEntity
  8
TABELLA
  6
CONTINUOUS
100
AcDbText
 10
79.770815
 20
6.679292
 30
0.0
 40
2.0
  1
Vigolzone ( Piacenza ) - ITALIA
100
AcDbText
  0
LINE
  5
4B3
100
AcDbEntity
  8
TABELLA
  6
CONTINUOUS
100
AcDbLine
 10
125.782064
 20
35.387067
 30
0.0
 11
75.782064
 21
35.387067
 31
0.0
  0
LINE
  5
4B4
100
AcDbEntity
  8
TABELLA
  6
CONTINUOUS
100
AcDbLine
 10
195.782064
 20
45.387067
 30
0.0
 11
5.697058
 21
45.395351
 31
0.0
  0
LINE
  5
4B5
100
AcDbEntity
  8
TABELLA
  6
CONTINUOUS
100
AcDbLine
 10
125.782064
 20
25.387067
 30
0.0
 11
75.782064
 21
25.387067
 31
0.0
  0
LINE
  5
4B6
100
AcDbEntity
  8
TABELLA
  6
CONTINUOUS
100
AcDbLine
 10
195.782064
 20
5.387067
 30
0.0
 11
5.782064
 21
5.387067
 31
0.0
  0
LINE
  5
4B7
100
AcDbEntity
  8
TABELLA
  6
CONTINUOUS
100
AcDbLine
 10
5.782064
 20
282.387067
 30
0.0
 11
195.782064
 21
282.387067
 31
0.0
  0
LINE
  5
4B8
100
AcDbEntity
  8
TABELLA
  6
CONTINUOUS
100
AcDbLine
 10
5.782064
 20
143.887067
 30
0.0
 11
0.782064
 21
141.387067
 31
0.0
  0
LINE
  5
4B9
100
AcDbEntity
  8
TABELLA
  6
CONTINUOUS
100
AcDbLine
 10
0.782064
 20
143.887067
 30
0.0
 11
0.782064
 21
141.387067
 31
0.0
  0
LINE
  5
4BA
100
AcDbEntity
  8
TABELLA
  6
CONTINUOUS
100
AcDbLine
 10
5.782064
 20
5.387067
 30
0.0
 11
5.782064
 21
282.387067
 31
0.0
  0
POLYLINE
  5
4BB
100
AcDbEntity
  8
QUOTE
100
AcDb2dPolyline
 66
     1
 10
0.0
 20
0.0
 30
0.0
 70
     1
  0
VERTEX
  5
4BC
100
AcDbEntity
  8
QUOTE
100
AcDbVertex
100
AcDb2dVertex
 10
11.507487
 20
62.582414
 30
0.0
  0
VERTEX
  5
4BD
100
AcDbEntity
  8
QUOTE
100
AcDbVertex
100
AcDb2dVertex
 10
11.507487
 20
49.867806
 30
0.0
  0
VERTEX
  5
4BE
100
AcDbEntity
  8
QUOTE
100
AcDbVertex
100
AcDb2dVertex
 10
52.626527
 20
49.867806
 30
0.0
  0
VERTEX
  5
4BF
100
AcDbEntity
  8
QUOTE
100
AcDbVertex
100
AcDb2dVertex
 10
52.626527
 20
62.582414
 30
0.0
  0
SEQEND
  5
4C0
100
AcDbEntity
  8
QUOTE
  0
TOLERANCE
  5
4C1
100
AcDbEntity
  8
QUOTE
  6
CONTINUOUS
100
AcDbFcf
  3
ISO-25
 10
30.863585
 20
54.182522
 30
0.0
  1
{\Fgdt;u}%%v0.02%%v%%v%%v%%v
1001
ACAD
1000
DSTYLE
1002
{
1070
   140
1040
2.6
1070
    47
1040
0.02
1070
    73
1070
     0
1070
   272
1070
     2
1070
   147
1040
0.53
1070
    42
1040
0.5261
1070
    44
1040
1.0522
1070
    43
1040
3.1566
1070
   271
1070
     2
1070
   141
1040
2.1044
1070
    41
1040
2.6
1002
}
  0
TEXT
  5
4C2
100
AcDbEntity
  8
QUOTE
100
AcDbText
 10
12.101072
 20
58.118453
 30
0.0
 40
2.5
  1
TOLLERANZE AL METRO
 41
1.1
100
AcDbText
  0
TEXT
  5
4C3
100
AcDbEntity
  8
TABELLA
  6
CONTINUOUS
100
AcDbText
 10
7.271803
 20
15.7314
 30
0.0
 40
2.0
  1
- Angoli su superfici lavorate = +/- 30'
100
AcDbText
  0
TEXT
  5
4C4
100
AcDbEntity
  8
TABELLA
  6
CONTINUOUS
100
AcDbText
 10
7.271803
 20
23.3314
 30
0.0
 40
2.0
  1
   da mm 151 a mm 500 = +/- 0.4
100
AcDbText
  0
TEXT
  5
4C5
100
AcDbEntity
  8
TABELLA
  6
CONTINUOUS
100
AcDbText
 10
7.271803
 20
27.1314
 30
0.0
 40
2.0
  1
   da mm 51 a mm 150 = +/- 0.3
100
AcDbText
  0
TEXT
  5
4C6
100
AcDbEntity
  8
TABELLA
  6
CONTINUOUS
100
AcDbText
 10
7.271803
 20
30.9314
 30
0.0
 40
2.0
  1
- Superfici lavorate da mm 1 a mm 50 = +/- 0.2
100
AcDbText
  0
TEXT
  5
4C7
100
AcDbEntity
  8
TABELLA
  6
CONTINUOUS
100
AcDbText
 10
7.271803
 20
34.7314
 30
0.0
 40
2.0
  1
- Parti fuse con spessori >10 mm = +/- 10%
100
AcDbText
  0
TEXT
  5
4C8
100
AcDbEntity
  8
TABELLA
  6
CONTINUOUS
100
AcDbText
 10
7.271803
 20
38.5314
 30
0.0
 40
2.0
  1
- Parti fuse con spessori <10 mm = +/- 1 mm
100
AcDbText
  0
TOLERANCE
  5
4C9
100
AcDbEntity
  8
QUOTE
  6
CONTINUOUS
100
AcDbFcf
  3
ISO-25
 10
15.305627
 20
54.182522
 30
0.0
  1
{\Fgdt;b}%%v0.02%%v%%v%%v%%v
1001
ACAD
1000
DSTYLE
1002
{
1070
   140
1040
2.6
1070
    47
1040
0.02
1070
    73
1070
     0
1070
   272
1070
     2
1070
   147
1040
0.53
1070
    42
1040
0.5261
1070
    44
1040
1.0522
1070
    43
1040
3.1566
1070
   271
1070
     2
1070
   141
1040
2.1044
1070
    41
1040
2.6
1002
}
  0
TEXT
  5
4CA
100
AcDbEntity
  8
TABELLA
  6
CONTINUOUS
100
AcDbText
 10
0.769342
 20
51.259863
 30
0.0
 40
4.0
  1
B
100
AcDbText
  0
TEXT
  5
4CB
100
AcDbEntity
  8
TABELLA
  6
CONTINUOUS
100
AcDbText
 10
0.353187
 20
15.100813
 30
0.0
 40
4.0
  1
A
100
AcDbText
  0
LINE
  5
4CC
100
AcDbEntity
  8
TABELLA
  6
CONTINUOUS
100
AcDbLine
 10
5.782064
 20
36.262067
 30
0.0
 11
0.782064
 21
36.262067
 31
0.0
  0
TEXT
  5
4CD
100
AcDbEntity
  8
TABELLA
  6
CONTINUOUS
100
AcDbText
 10
15.583223
 20
0.138446
 30
0.0
 40
4.0
  1
6
100
AcDbText
  0
LINE
  5
4CE
100
AcDbEntity
  8
TABELLA
  6
CONTINUOUS
100
AcDbLine
 10
34.115064
 20
5.387067
 30
0.0
 11
34.115064
 21
0.387067
 31
0.0
  0
TEXT
  5
4CF
100
AcDbEntity
  8
TABELLA
  6
CONTINUOUS
100
AcDbText
 10
7.271803
 20
11.9314
 30
0.0
 40
2.0
  1
- Interassi fori = +/- 0.25
100
AcDbText
  0
TEXT
  5
4D0
100
AcDbEntity
  8
TABELLA
  6
CONTINUOUS
100
AcDbText
 10
7.271803
 20
19.5314
 30
0.0
 40
2.0
  1
   oltre 500 mm = +/- 0.5
100
AcDbText
  0
TEXT
  5
4D1
100
AcDbEntity
  8
TABELLA
  6
CONTINUOUS
100
AcDbText
 10
7.271803
 20
42.3314
 30
0.0
 40
2.0
  1
TOLLERANZE GENERALI :
100
AcDbText
  0
LINE
  5
4D2
100
AcDbEntity
  8
TABELLA
  6
CONTINUOUS
100
AcDbLine
 10
5.782064
 20
72.137067
 30
0.0
 11
0.782064
 21
72.137067
 31
0.0
  0
TEXT
  5
4D3
100
AcDbEntity
  8
TABELLA
  6
CONTINUOUS
100
AcDbText
 10
0.769342
 20
87.459725
 30
0.0
 40
4.0
  1
C
100
AcDbText
  0
LINE
  5
4D4
100
AcDbEntity
  8
TABELLA
  6
CONTINUOUS
100
AcDbLine
 10
5.782064
 20
108.012067
 30
0.0
 11
0.782064
 21
108.012067
 31
0.0
  0
TEXT
  5
4D5
100
AcDbEntity
  8
TABELLA
  6
CONTINUOUS
100
AcDbText
 10
0.769342
 20
124.034397
 30
0.0
 40
4.0
  1
D
100
AcDbText
  0
LINE
  5
4D6
100
AcDbEntity
  8
TABELLA
  6
CONTINUOUS
100
AcDbLine
 10
65.792444
 20
45.394891
 30
0.0
 11
65.782064
 21
5.389662
 31
0.0
  0
TEXT
  5
4D7
100
AcDbEntity
  8
TABELLA
  6
CONTINUOUS
100
AcDbText
 10
68.438556
 20
7.454028
 30
0.0
 40
1.5
  1
A termine di legge la Rolleri si riserva la
 50
90.0
100
AcDbText
  0
TEXT
  5
4D8
100
AcDbEntity
  8
TABELLA
  6
CONTINUOUS
100
AcDbText
 10
49.29176
 20
0.138446
 30
0.0
 40
4.0
  1
5
100
AcDbText
  0
LINE
  5
4D9
100
AcDbEntity
  8
TABELLA
  6
CONTINUOUS
100
AcDbLine
 10
67.448064
 20
5.387067
 30
0.0
 11
67.448064
 21
0.387067
 31
0.0
  0
LINE
  5
4DA
100
AcDbEntity
  8
TABELLA
  6
CONTINUOUS
100
AcDbLine
 10
75.792442
 20
45.387067
 30
0.0
 11
75.792442
 21
5.387067
 31
0.0
  0
TEXT
  5
4DB
100
AcDbEntity
  8
TABELLA
  6
CONTINUOUS
100
AcDbText
 10
74.138556
 20
7.454028
 30
0.0
 40
1.5
  1
di riprodurlo e di comunicarlo a terzi.
 50
90.0
100
AcDbText
  0
TEXT
  5
4DC
100
AcDbEntity
  8
TABELLA
  6
CONTINUOUS
100
AcDbText
 10
71.288556
 20
7.454028
 30
0.0
 40
1.5
  1
proprietà di questo disegno, con divieto
 50
90.0
100
AcDbText
  0
TEXT
  5
4DD
100
AcDbEntity
  8
TABELLA
  6
CONTINUOUS
100
AcDbText
 10
83.416451
 20
0.554068
 30
0.0
 40
4.0
  1
4
100
AcDbText
  0
LINE
  5
4DE
100
AcDbEntity
  8
TABELLA
  6
CONTINUOUS
100
AcDbLine
 10
98.281064
 20
0.387067
 30
0.0
 11
100.781064
 21
5.387067
 31
0.0
  0
LINE
  5
4DF
100
AcDbEntity
  8
TABELLA
  6
CONTINUOUS
100
AcDbLine
 10
100.781064
 20
5.387067
 30
0.0
 11
100.781064
 21
0.387067
 31
0.0
  0
LINE
  5
4E0
100
AcDbEntity
  8
TABELLA
  6
CONTINUOUS
100
AcDbLine
 10
100.781064
 20
0.387067
 30
0.0
 11
98.281064
 21
0.387067
 31
0.0
  0
TEXT
  5
4E1
100
AcDbEntity
  8
TABELLA
  6
CONTINUOUS
100
AcDbText
 10
77.180326
 20
42.484843
 30
0.0
 40
2.0
  1
Materiale
100
AcDbText
  0
TEXT
  5
4E2
100
AcDbEntity
  8
TABELLA
  6
CONTINUOUS
100
AcDbText
 10
76.949018
 20
32.320687
 30
0.0
 40
2.0
  1
Disegnato da
100
AcDbText
  0
LINE
  5
4E3
100
AcDbEntity
  8
TABELLA
  6
CONTINUOUS
100
AcDbLine
 10
84.107383
 20
22.612261
 30
0.0
 11
81.051152
 21
14.215335
 31
0.0
1001
ACAD
1000
ASC_BOUNDS
1002
{
1070
    19
1002
}
  0
LINE
  5
4E4
100
AcDbEntity
  8
TABELLA
  6
CONTINUOUS
100
AcDbLine
 10
83.407176
 20
23.612261
 30
0.0
 11
79.986974
 21
14.215335
 31
0.0
1001
ACAD
1000
ASC_BOUNDS
1002
{
1070
    19
1002
}
  0
LINE
  5
4E5
100
AcDbEntity
  8
TABELLA
  6
CONTINUOUS
100
AcDbLine
 10
81.051152
 20
14.215335
 30
0.0
 11
82.055262
 21
11.456564
 31
0.0
1001
ACAD
1000
ASC_BOUNDS
1002
{
1070
    19
1002
}
  0
LINE
  5
4E6
100
AcDbEntity
  8
TABELLA
  6
CONTINUOUS
100
AcDbLine
 10
79.986974
 20
14.215335
 30
0.0
 11
81.355055
 21
10.456564
 31
0.0
1001
ACAD
1000
ASC_BOUNDS
1002
{
1070
    19
1002
}
  0
LINE
  5
4E7
100
AcDbEntity
  8
TABELLA
  6
CONTINUOUS
100
AcDbLine
 10
100.782064
 20
35.387067
 30
0.0
 11
100.782064
 21
25.387067
 31
0.0
  0
TEXT
  5
4E8
100
AcDbEntity
  8
TABELLA
  6
CONTINUOUS
100
AcDbText
 10
1.185497
 20
230.800736
 30
0.0
 40
4.0
  1
G
100
AcDbText
  0
LINE
  5
4E9
100
AcDbEntity
  8
TABELLA
  6
CONTINUOUS
100
AcDbLine
 10
0.782064
 20
146.387067
 30
0.0
 11
5.782064
 21
143.887067
 31
0.0
  0
LINE
  5
4EA
100
AcDbEntity
  8
TABELLA
  6
CONTINUOUS
100
AcDbLine
 10
5.782064
 20
143.887067
 30
0.0
 11
0.782064
 21
143.887067
 31
0.0
  0
LINE
  5
4EB
100
AcDbEntity
  8
TABELLA
  6
CONTINUOUS
100
AcDbLine
 10
0.782064
 20
143.887067
 30
0.0
 11
0.782064
 21
146.387067
 31
0.0
  0
TEXT
  5
4EC
100
AcDbEntity
  8
TABELLA
  6
CONTINUOUS
100
AcDbText
 10
1.601651
 20
158.319393
 30
0.0
 40
4.0
  1
E
100
AcDbText
  0
LINE
  5
4ED
100
AcDbEntity
  8
TABELLA
  6
CONTINUOUS
100
AcDbLine
 10
5.782064
 20
179.762067
 30
0.0
 11
0.782064
 21
179.762067
 31
0.0
  0
TEXT
  5
4EE
100
AcDbEntity
  8
TABELLA
  6
CONTINUOUS
100
AcDbText
 10
1.185497
 20
195.309687
 30
0.0
 40
4.0
  1
F
100
AcDbText
  0
LINE
  5
4EF
100
AcDbEntity
  8
TABELLA
  6
CONTINUOUS
100
AcDbLine
 10
5.782064
 20
215.637067
 30
0.0
 11
0.782064
 21
215.637067
 31
0.0
  0
LINE
  5
4F0
100
AcDbEntity
  8
TABELLA
  6
CONTINUOUS
100
AcDbLine
 10
5.782064
 20
251.512067
 30
0.0
 11
0.782064
 21
251.512067
 31
0.0
  0
TEXT
  5
4F1
100
AcDbEntity
  8
TABELLA
  6
CONTINUOUS
100
AcDbText
 10
1.185497
 20
268.206651
 30
0.0
 40
4.0
  1
H
100
AcDbText
  0
TEXT
  5
4F2
100
AcDbEntity
  8
TABELLA
  6
CONTINUOUS
100
AcDbText
 10
15.583224
 20
283.209827
 30
0.0
 40
4.0
  1
6
100
AcDbText
  0
LINE
  5
4F3
100
AcDbEntity
  8
TABELLA
  6
CONTINUOUS
100
AcDbLine
 10
34.115064
 20
282.387067
 30
0.0
 11
34.115064
 21
287.387067
 31
0.0
  0
TEXT
  5
4F4
100
AcDbEntity
  8
TABELLA
  6
CONTINUOUS
100
AcDbText
 10
50.12407
 20
283.250638
 30
0.0
 40
4.0
  1
5
100
AcDbText
  0
LINE
  5
4F5
100
AcDbEntity
  8
TABELLA
  6
CONTINUOUS
100
AcDbLine
 10
67.448064
 20
282.387067
 30
0.0
 11
67.448064
 21
287.387067
 31
0.0
  0
TEXT
  5
4F6
100
AcDbEntity
  8
TABELLA
  6
CONTINUOUS
100
AcDbText
 10
83.832607
 20
283.250638
 30
0.0
 40
4.0
  1
4
100
AcDbText
  0
LINE
  5
4F7
100
AcDbEntity
  8
TABELLA
  6
CONTINUOUS
100
AcDbLine
 10
100.781064
 20
282.387067
 30
0.0
 11
98.281064
 21
287.387067
 31
0.0
  0
LINE
  5
4F8
100
AcDbEntity
  8
TABELLA
  6
CONTINUOUS
100
AcDbLine
 10
100.781064
 20
282.387067
 30
0.0
 11
100.781064
 21
287.387067
 31
0.0
  0
LINE
  5
4F9
100
AcDbEntity
  8
TABELLA
  6
CONTINUOUS
100
AcDbLine
 10
100.781064
 20
287.387067
 30
0.0
 11
98.281064
 21
287.387067
 31
0.0
  0
LINE
  5
4FA
100
AcDbEntity
  8
TABELLA
  6
CONTINUOUS
100
AcDbLine
 10
200.782064
 20
141.387067
 30
0.0
 11
195.782064
 21
143.887067
 31
0.0
  0
LINE
  5
4FB
100
AcDbEntity
  8
TABELLA
  6
CONTINUOUS
100
AcDbLine
 10
200.782064
 20
143.887067
 30
0.0
 11
200.782064
 21
141.387067
 31
0.0
  0
LINE
  5
4FC
100
AcDbEntity
  8
TABELLA
  6
CONTINUOUS
100
AcDbLine
 10
191.781227
 20
165.387241
 30
0.0
 11
191.781227
 21
45.387241
 31
0.0
  0
LINE
  5
4FD
100
AcDbEntity
  8
TABELLA
  6
CONTINUOUS
100
AcDbLine
 10
195.782064
 20
5.387067
 30
0.0
 11
195.782064
 21
282.387067
 31
0.0
  0
TEXT
  5
4FE
100
AcDbEntity
  8
TABELLA
  6
CONTINUOUS
100
AcDbText
 10
147.267168
 20
42.484843
 30
0.0
 40
2.0
  1
Trattamento Termico
100
AcDbText
  0
TEXT
  5
4FF
100
AcDbEntity
  8
TABELLA
  6
CONTINUOUS
100
AcDbText
 10
161.83968
 20
32.089683
 30
0.0
 40
2.0
  1
Scala
100
AcDbText
  0
TEXT
  5
500
100
AcDbEntity
  8
TABELLA
  6
CONTINUOUS
100
AcDbText
 10
162.070991
 20
12.223377
 30
0.0
 40
2.0
  1
Data
100
AcDbText
  0
LINE
  5
501
100
AcDbEntity
  8
TABELLA
  6
CONTINUOUS
100
AcDbLine
 10
125.782064
 20
35.387067
 30
0.0
 11
195.782064
 21
35.387067
 31
0.0
  0
LINE
  5
502
100
AcDbEntity
  8
TABELLA
  6
CONTINUOUS
100
AcDbLine
 10
125.782064
 20
25.387067
 30
0.0
 11
195.782064
 21
25.387067
 31
0.0
  0
LINE
  5
503
100
AcDbEntity
  8
TABELLA
  6
CONTINUOUS
100
AcDbLine
 10
120.666552
 20
15.457427
 30
0.0
 11
195.782064
 21
15.387067
 31
0.0
  0
TEXT
  5
504
100
AcDbEntity
  8
TABELLA
  6
CONTINUOUS
100
AcDbText
 10
116.965597
 20
42.484843
 30
0.0
 40
2.0
  1
Dimensioni di prelievo
100
AcDbText
  0
TEXT
  5
505
100
AcDbEntity
  8
TABELLA
  6
CONTINUOUS
100
AcDbText
 10
126.911915
 20
32.089683
 30
0.0
 40
2.0
  1
Approvato da - data
100
AcDbText
  0
TEXT
  5
506
100
AcDbEntity
  8
TABELLA
  6
CONTINUOUS
100
AcDbText
 10
121.823101
 20
22.387534
 30
0.0
 40
2.0
  1
Particolare
100
AcDbText
  0
LINE
  5
507
100
AcDbEntity
  8
TABELLA
  6
CONTINUOUS
100
AcDbLine
 10
120.782064
 20
15.387067
 30
0.0
 11
120.782064
 21
5.387067
 31
0.0
  0
TEXT
  5
508
100
AcDbEntity
  8
TABELLA
  6
CONTINUOUS
100
AcDbText
 10
116.708833
 20
0.138446
 30
0.0
 40
4.0
  1
3
100
AcDbText
  0
LINE
  5
509
100
AcDbEntity
  8
TABELLA
  6
CONTINUOUS
100
AcDbLine
 10
116.711078
 20
19.853491
 30
0.0
 11
115.706968
 21
22.612261
 31
0.0
1001
ACAD
1000
ASC_BOUNDS
1002
{
1070
    19
1002
}
  0
LINE
  5
50A
100
AcDbEntity
  8
TABELLA
  6
CONTINUOUS
100
AcDbLine
 10
113.654847
 20
11.456564
 30
0.0
 11
116.711078
 21
19.853491
 31
0.0
1001
ACAD
1000
ASC_BOUNDS
1002
{
1070
    19
1002
}
  0
LINE
  5
50B
100
AcDbEntity
  8
TABELLA
  6
CONTINUOUS
100
AcDbLine
 10
114.355055
 20
10.456564
 30
0.0
 11
117.775256
 21
19.853491
 31
0.0
1001
ACAD
1000
ASC_BOUNDS
1002
{
1070
    19
1002
}
  0
TEXT
  5
50C
100
AcDbEntity
  8
TABELLA
  6
CONTINUOUS
100
AcDbText
 10
101.930465
 20
32.089683
 30
0.0
 40
2.0
  1
Controllato da
100
AcDbText
  0
LINE
  5
50D
100
AcDbEntity
  8
TABELLA
  6
CONTINUOUS
100
AcDbLine
 10
115.782064
 20
35.387067
 30
0.0
 11
115.782064
 21
45.387067
 31
0.0
  0
LINE
  5
50E
100
AcDbEntity
  8
TABELLA
  6
CONTINUOUS
100
AcDbLine
 10
125.782064
 20
35.387067
 30
0.0
 11
125.782064
 21
25.387067
 31
0.0
  0
TEXT
  5
50F
100
AcDbEntity
  8
TABELLA
  6
CONTINUOUS
100
AcDbText
 10
121.591791
 20
12.223377
 30
0.0
 40
2.0
  1
Disegno
100
AcDbText
  0
LINE
  5
510
100
AcDbEntity
  8
TABELLA
  6
CONTINUOUS
100
AcDbLine
 10
117.775256
 20
19.853491
 30
0.0
 11
116.407176
 21
23.612261
 31
0.0
1001
ACAD
1000
ASC_BOUNDS
1002
{
1070
    19
1002
}
  0
LINE
  5
511
100
AcDbEntity
  8
TABELLA
  6
CONTINUOUS
100
AcDbLine
 10
120.782064
 20
25.387067
 30
0.0
 11
120.782064
 21
15.387067
 31
0.0
  0
LINE
  5
512
100
AcDbEntity
  8
TABELLA
  6
CONTINUOUS
100
AcDbLine
 10
160.782064
 20
15.387067
 30
0.0
 11
160.782064
 21
5.387067
 31
0.0
  0
LINE
  5
513
100
AcDbEntity
  8
TABELLA
  6
CONTINUOUS
100
AcDbLine
 10
134.114064
 20
5.387067
 30
0.0
 11
134.114064
 21
0.387067
 31
0.0
  0
TEXT
  5
514
100
AcDbEntity
  8
TABELLA
  6
CONTINUOUS
100
AcDbText
 10
150.41737
 20
0.138446
 30
0.0
 40
4.0
  1
2
100
AcDbText
  0
LINE
  5
515
100
AcDbEntity
  8
TABELLA
  6
CONTINUOUS
100
AcDbLine
 10
145.782064
 20
35.387067
 30
0.0
 11
145.782064
 21
45.387067
 31
0.0
  0
LINE
  5
516
100
AcDbEntity
  8
TABELLA
  6
CONTINUOUS
100
AcDbLine
 10
160.782064
 20
35.387067
 30
0.0
 11
160.782064
 21
25.387067
 31
0.0
  0
TEXT
  5
517
100
AcDbEntity
  8
TABELLA
  6
CONTINUOUS
100
AcDbText
 10
197.026704
 20
51.259863
 30
0.0
 40
4.0
  1
B
100
AcDbText
  0
TEXT
  5
518
100
AcDbEntity
  8
TABELLA
  6
CONTINUOUS
100
AcDbText
 10
195.001816
 20
46.303578
 30
0.0
 40
2.0
  1
N° rev.
 50
90.0
100
AcDbText
  0
LINE
  5
519
100
AcDbEntity
  8
TABELLA
  6
CONTINUOUS
100
AcDbLine
 10
176.747411
 20
30.474182
 30
0.0
 11
194.673913
 21
30.474182
 31
0.0
  0
LINE
  5
51A
100
AcDbEntity
  8
TABELLA
  6
CONTINUOUS
100
AcDbLine
 10
180.782064
 20
15.387067
 30
0.0
 11
180.782064
 21
5.387067
 31
0.0
  0
LINE
  5
51B
100
AcDbEntity
  8
TABELLA
  6
CONTINUOUS
100
AcDbLine
 10
167.447064
 20
5.387067
 30
0.0
 11
167.447064
 21
0.387067
 31
0.0
  0
TEXT
  5
51C
100
AcDbEntity
  8
TABELLA
  6
CONTINUOUS
100
AcDbText
 10
184.542061
 20
0.138446
 30
0.0
 40
4.0
  1
1
100
AcDbText
  0
LINE
  5
51D
100
AcDbEntity
  8
TABELLA
  6
CONTINUOUS
100
AcDbLine
 10
176.747411
 20
31.974182
 30
0.0
 11
182.656258
 21
33.016071
 31
0.0
  0
LINE
  5
51E
100
AcDbEntity
  8
TABELLA
  6
CONTINUOUS
100
AcDbLine
 10
176.747411
 20
28.974182
 30
0.0
 11
182.656258
 21
27.932293
 31
0.0
  0
LINE
  5
51F
100
AcDbEntity
  8
TABELLA
  6
CONTINUOUS
100
AcDbLine
 10
176.747411
 20
31.974182
 30
0.0
 11
176.747411
 21
28.974182
 31
0.0
  0
LINE
  5
520
100
AcDbEntity
  8
TABELLA
  6
CONTINUOUS
100
AcDbLine
 10
175.782064
 20
35.387067
 30
0.0
 11
175.782064
 21
25.387067
 31
0.0
  0
CIRCLE
  5
521
100
AcDbEntity
  8
TABELLA
  6
CONTINUOUS
100
AcDbCircle
 10
189.932065
 20
30.474182
 30
0.0
 40
1.5
  0
LINE
  5
522
100
AcDbEntity
  8
TABELLA
  6
CONTINUOUS
100
AcDbLine
 10
189.932065
 20
28.369782
 30
0.0
 11
189.932065
 21
32.578582
 31
0.0
  0
CIRCLE
  5
523
100
AcDbEntity
  8
TABELLA
  6
CONTINUOUS
100
AcDbCircle
 10
189.932065
 20
30.474182
 30
0.0
 40
2.54
  0
LINE
  5
524
100
AcDbEntity
  8
TABELLA
  6
CONTINUOUS
100
AcDbLine
 10
182.656258
 20
33.016071
 30
0.0
 11
182.656258
 21
27.932293
 31
0.0
  0
TEXT
  5
525
100
AcDbEntity
  8
TABELLA
  6
CONTINUOUS
100
AcDbText
 10
181.963625
 20
11.992375
 30
0.0
 40
2.0
  1
Formato
100
AcDbText
  0
LINE
  5
526
100
AcDbEntity
  8
TABELLA
  6
CONTINUOUS
100
AcDbLine
 10
187.827665
 20
30.474182
 30
0.0
 11
192.036465
 21
30.474182
 31
0.0
  0
LINE
  5
527
100
AcDbEntity
  8
TABELLA
  6
CONTINUOUS
100
AcDbLine
 10
195.782064
 20
5.387067
 30
0.0
 11
195.782064
 21
35.387067
 31
0.0
  0
TEXT
  5
528
100
AcDbEntity
  8
TABELLA
  6
CONTINUOUS
100
AcDbText
 10
197.026704
 20
14.685191
 30
0.0
 40
4.0
  1
A
100
AcDbText
  0
LINE
  5
529
100
AcDbEntity
  8
TABELLA
  6
CONTINUOUS
100
AcDbLine
 10
195.782064
 20
36.262067
 30
0.0
 11
200.782064
 21
36.262067
 31
0.0
  0
TEXT
  5
52A
100
AcDbEntity
  8
TABELLA
  6
CONTINUOUS
100
AcDbText
 10
195.209894
 20
130.984517
 30
0.0
 40
2.0
  1
Data
 50
90.0
100
AcDbText
  0
TEXT
  5
52B
100
AcDbEntity
  8
TABELLA
  6
CONTINUOUS
100
AcDbText
 10
195.209894
 20
56.278486
 30
0.0
 40
2.0
  1
Nota di revisione
 50
90.0
100
AcDbText
  0
LINE
  5
52C
100
AcDbEntity
  8
TABELLA
  6
CONTINUOUS
100
AcDbLine
 10
191.781227
 20
55.387241
 30
0.0
 11
195.782064
 21
55.387241
 31
0.0
  0
LINE
  5
52D
100
AcDbEntity
  8
TABELLA
  6
CONTINUOUS
100
AcDbLine
 10
191.781227
 20
130.387241
 30
0.0
 11
195.782064
 21
130.387241
 31
0.0
  0
LINE
  5
52E
100
AcDbEntity
  8
TABELLA
  6
CONTINUOUS
100
AcDbLine
 10
195.782064
 20
72.137067
 30
0.0
 11
200.782064
 21
72.137067
 31
0.0
  0
TEXT
  5
52F
100
AcDbEntity
  8
TABELLA
  6
CONTINUOUS
100
AcDbText
 10
197.442859
 20
87.459725
 30
0.0
 40
4.0
  1
C
100
AcDbText
  0
LINE
  5
530
100
AcDbEntity
  8
TABELLA
  6
CONTINUOUS
100
AcDbLine
 10
195.782064
 20
108.012067
 30
0.0
 11
200.782064
 21
108.012067
 31
0.0
  0
TEXT
  5
531
100
AcDbEntity
  8
TABELLA
  6
CONTINUOUS
100
AcDbText
 10
197.442859
 20
123.618776
 30
0.0
 40
4.0
  1
D
100
AcDbText
  0
TEXT
  5
532
100
AcDbEntity
  8
TABELLA
  6
CONTINUOUS
100
AcDbText
 10
116.708835
 20
283.250638
 30
0.0
 40
4.0
  1
3
100
AcDbText
  0
LINE
  5
533
100
AcDbEntity
  8
TABELLA
  6
CONTINUOUS
100
AcDbLine
 10
134.114064
 20
282.387067
 30
0.0
 11
134.114064
 21
287.387067
 31
0.0
  0
TEXT
  5
534
100
AcDbEntity
  8
TABELLA
  6
CONTINUOUS
100
AcDbText
 10
150.417372
 20
283.250638
 30
0.0
 40
4.0
  1
2
100
AcDbText
  0
TEXT
  5
535
100
AcDbEntity
  8
TABELLA
  6
CONTINUOUS
100
AcDbText
 10
197.026704
 20
230.800736
 30
0.0
 40
4.0
  1
G
100
AcDbText
  0
TEXT
  5
536
100
AcDbEntity
  8
TABELLA
  6
CONTINUOUS
100
AcDbText
 10
195.209894
 20
155.7956
 30
0.0
 40
2.0
  1
Control.
 50
90.0
100
AcDbText
  0
TEXT
  5
537
100
AcDbEntity
  8
TABELLA
  6
CONTINUOUS
100
AcDbText
 10
195.209894
 20
146.028502
 30
0.0
 40
2.0
  1
Firma
 50
90.0
100
AcDbText
  0
LINE
  5
538
100
AcDbEntity
  8
TABELLA
  6
CONTINUOUS
100
AcDbLine
 10
191.781227
 20
145.387241
 30
0.0
 11
195.782064
 21
145.387241
 31
0.0
  0
LINE
  5
539
100
AcDbEntity
  8
TABELLA
  6
CONTINUOUS
100
AcDbLine
 10
191.781227
 20
155.387241
 30
0.0
 11
195.782064
 21
155.387241
 31
0.0
  0
LINE
  5
53A
100
AcDbEntity
  8
TABELLA
  6
CONTINUOUS
100
AcDbLine
 10
191.781227
 20
165.387241
 30
0.0
 11
195.782064
 21
165.387241
 31
0.0
  0
LINE
  5
53B
100
AcDbEntity
  8
TABELLA
  6
CONTINUOUS
100
AcDbLine
 10
195.782064
 20
143.887067
 30
0.0
 11
200.782064
 21
146.387067
 31
0.0
  0
LINE
  5
53C
100
AcDbEntity
  8
TABELLA
  6
CONTINUOUS
100
AcDbLine
 10
195.782064
 20
143.887067
 30
0.0
 11
200.782064
 21
143.887067
 31
0.0
  0
LINE
  5
53D
100
AcDbEntity
  8
TABELLA
  6
CONTINUOUS
100
AcDbLine
 10
200.782064
 20
143.887067
 30
0.0
 11
200.782064
 21
146.387067
 31
0.0
  0
TEXT
  5
53E
100
AcDbEntity
  8
TABELLA
  6
CONTINUOUS
100
AcDbText
 10
197.442859
 20
158.319393
 30
0.0
 40
4.0
  1
E
100
AcDbText
  0
LINE
  5
53F
100
AcDbEntity
  8
TABELLA
  6
CONTINUOUS
100
AcDbLine
 10
195.782064
 20
179.762067
 30
0.0
 11
200.782064
 21
179.762067
 31
0.0
  0
TEXT
  5
540
100
AcDbEntity
  8
TABELLA
  6
CONTINUOUS
100
AcDbText
 10
197.859013
 20
195.309687
 30
0.0
 40
4.0
  1
F
100
AcDbText
  0
LINE
  5
541
100
AcDbEntity
  8
TABELLA
  6
CONTINUOUS
100
AcDbLine
 10
195.782064
 20
215.637067
 30
0.0
 11
200.782064
 21
215.637067
 31
0.0
  0
LINE
  5
542
100
AcDbEntity
  8
TABELLA
  6
CONTINUOUS
100
AcDbLine
 10
167.447064
 20
282.387067
 30
0.0
 11
167.447064
 21
287.387067
 31
0.0
  0
TEXT
  5
543
100
AcDbEntity
  8
TABELLA
  6
CONTINUOUS
100
AcDbText
 10
184.958217
 20
283.250638
 30
0.0
 40
4.0
  1
1
100
AcDbText
  0
LINE
  5
544
100
AcDbEntity
  8
TABELLA
  6
CONTINUOUS
100
AcDbLine
 10
195.782064
 20
282.387067
 30
0.0
 11
195.782064
 21
278.387067
 31
0.0
  0
LINE
  5
545
100
AcDbEntity
  8
TABELLA
  6
CONTINUOUS
100
AcDbLine
 10
195.782064
 20
251.512067
 30
0.0
 11
200.782064
 21
251.512067
 31
0.0
  0
TEXT
  5
546
100
AcDbEntity
  8
TABELLA
  6
CONTINUOUS
100
AcDbText
 10
197.026704
 20
268.206651
 30
0.0
 40
4.0
  1
H
100
AcDbText
  0
ENDBLK
  5
548
100
AcDbEntity
  8
QUOTE
100
AcDbBlockEnd
  0
BLOCK
  5
B71
100
AcDbEntity
  8
0
100
AcDbBlockBegin
  2
*D2
 70
    65
 10
0.0
 20
0.0
 30
0.0
  3
*D2
  1

  0
LINE
  5
B72
100
AcDbEntity
  8
0
  6
BYBLOCK
 62
     0
100
AcDbLine
 10
-1836.81848
 20
-1413.934752
 30
0.0
 11
-1836.81848
 21
-1399.909701
 31
0.0
  0
LINE
  5
B73
100
AcDbEntity
  8
0
  6
BYBLOCK
 62
     0
100
AcDbLine
 10
-1823.81848
 20
-1413.934752
 30
0.0
 11
-1823.81848
 21
-1399.909701
 31
0.0
  0
LINE
  5
B74
100
AcDbEntity
  8
0
  6
BYBLOCK
 62
     0
100
AcDbLine
 10
-1826.31848
 20
-1401.159701
 30
0.0
 11
-1834.31848
 21
-1401.159701
 31
0.0
  0
LINE
  5
B75
100
AcDbEntity
  8
0
  6
BYBLOCK
 62
     0
100
AcDbLine
 10
-1836.81848
 20
-1401.159701
 30
0.0
 11
-1850.83748
 21
-1401.159701
 31
0.0
  0
SOLID
  5
B76
100
AcDbEntity
  8
0
  6
BYBLOCK
 62
     0
100
AcDbTrace
 10
-1826.31848
 20
-1400.743034
 30
0.0
 11
-1826.31848
 21
-1401.576368
 31
0.0
 12
-1823.81848
 22
-1401.159701
 32
0.0
 13
-1823.81848
 23
-1401.159701
 33
0.0
  0
SOLID
  5
B77
100
AcDbEntity
  8
0
  6
BYBLOCK
 62
     0
100
AcDbTrace
 10
-1834.31848
 20
-1400.743034
 30
0.0
 11
-1834.31848
 21
-1401.576368
 31
0.0
 12
-1836.81848
 22
-1401.159701
 32
0.0
 13
-1836.81848
 23
-1401.159701
 33
0.0
  0
MTEXT
  5
B78
100
AcDbEntity
  8
0
  6
BYBLOCK
 62
     0
100
AcDbMText
 10
-1844.14048
 20
-1397.793992
 30
0.0
 40
3.0
 41
0.0
 71
     5
 72
     1
  1
\A2;13{\H2.400000;\S+0.02^  0;}
  0
POINT
  5
B79
100
AcDbEntity
  8
DEFPOINTS
  6
BYBLOCK
 62
     0
100
AcDbPoint
 10
-1836.81848
 20
-1414.559752
 30
0.0
  0
POINT
  5
B7A
100
AcDbEntity
  8
DEFPOINTS
  6
BYBLOCK
 62
     0
100
AcDbPoint
 10
-1823.81848
 20
-1414.559752
 30
0.0
  0
POINT
  5
B7B
100
AcDbEntity
  8
DEFPOINTS
  6
BYBLOCK
 62
     0
100
AcDbPoint
 10
-1823.81848
 20
-1401.159701
 30
0.0
  0
ENDBLK
  5
B7C
100
AcDbEntity
  8
0
100
AcDbBlockEnd
  0
BLOCK
  5
B65
100
AcDbEntity
  8
0
100
AcDbBlockBegin
  2
*D3
 70
    65
 10
0.0
 20
0.0
 30
0.0
  3
*D3
  1

  0
LINE
  5
B66
100
AcDbEntity
  8
0
  6
BYBLOCK
 62
     0
100
AcDbLine
 10
-1823.81848
 20
-1413.934752
 30
0.0
 11
-1823.81848
 21
-1399.909701
 31
0.0
  0
LINE
  5
B67
100
AcDbEntity
  8
0
  6
BYBLOCK
 62
     0
100
AcDbLine
 10
-1816.81848
 20
-1402.363853
 30
0.0
 11
-1816.81848
 21
-1399.909701
 31
0.0
  0
LINE
  5
B68
100
AcDbEntity
  8
0
  6
BYBLOCK
 62
     0
100
AcDbLine
 10
-1821.31848
 20
-1401.159701
 30
0.0
 11
-1819.31848
 21
-1401.159701
 31
0.0
  0
LINE
  5
B69
100
AcDbEntity
  8
0
  6
BYBLOCK
 62
     0
100
AcDbLine
 10
-1816.81848
 20
-1401.159701
 30
0.0
 11
-1793.215942
 21
-1401.159701
 31
0.0
  0
SOLID
  5
B6A
100
AcDbEntity
  8
0
  6
BYBLOCK
 62
     0
100
AcDbTrace
 10
-1821.31848
 20
-1400.743034
 30
0.0
 11
-1821.31848
 21
-1401.576368
 31
0.0
 12
-1823.81848
 22
-1401.159701
 32
0.0
 13
-1823.81848
 23
-1401.159701
 33
0.0
  0
SOLID
  5
B6B
100
AcDbEntity
  8
0
  6
BYBLOCK
 62
     0
100
AcDbTrace
 10
-1819.31848
 20
-1400.743034
 30
0.0
 11
-1819.31848
 21
-1401.576368
 31
0.0
 12
-1816.81848
 22
-1401.159701
 32
0.0
 13
-1816.81848
 23
-1401.159701
 33
0.0
  0
MTEXT
  5
B6C
100
AcDbEntity
  8
0
  6
BYBLOCK
 62
     0
100
AcDbMText
 10
-1798.427942
 20
-1399.034701
 30
0.0
 40
3.0
 41
0.0
 71
     5
 72
     1
  1
\A2;7{\H2.400000;±0.01}
  0
POINT
  5
B6D
100
AcDbEntity
  8
DEFPOINTS
  6
BYBLOCK
 62
     0
100
AcDbPoint
 10
-1823.81848
 20
-1414.559752
 30
0.0
  0
POINT
  5
B6E
100
AcDbEntity
  8
DEFPOINTS
  6
BYBLOCK
 62
     0
100
AcDbPoint
 10
-1816.81848
 20
-1402.988853
 30
0.0
  0
POINT
  5
B6F
100
AcDbEntity
  8
DEFPOINTS
  6
BYBLOCK
 62
     0
100
AcDbPoint
 10
-1816.81848
 20
-1401.159701
 30
0.0
  0
ENDBLK
  5
B70
100
AcDbEntity
  8
0
100
AcDbBlockEnd
  0
BLOCK
  5
B37
100
AcDbEntity
  8
0
100
AcDbBlockBegin
  2
*D4
 70
    65
 10
0.0
 20
0.0
 30
0.0
  3
*D4
  1

  0
LINE
  5
B38
100
AcDbEntity
  8
0
  6
BYBLOCK
 62
     0
100
AcDbLine
 10
-1865.81848
 20
-1453.934752
 30
0.0
 11
-1865.81848
 21
-1389.622164
 31
0.0
  0
LINE
  5
B39
100
AcDbEntity
  8
0
  6
BYBLOCK
 62
     0
100
AcDbLine
 10
-1810.81848
 20
-1443.934752
 30
0.0
 11
-1810.81848
 21
-1389.622164
 31
0.0
  0
LINE
  5
B3A
100
AcDbEntity
  8
0
  6
BYBLOCK
 62
     0
100
AcDbLine
 10
-1863.31848
 20
-1390.872164
 30
0.0
 11
-1813.31848
 21
-1390.872164
 31
0.0
  0
SOLID
  5
B3B
100
AcDbEntity
  8
0
  6
BYBLOCK
 62
     0
100
AcDbTrace
 10
-1863.31848
 20
-1390.455497
 30
0.0
 11
-1863.31848
 21
-1391.28883
 31
0.0
 12
-1865.81848
 22
-1390.872164
 32
0.0
 13
-1865.81848
 23
-1390.872164
 33
0.0
  0
SOLID
  5
B3C
100
AcDbEntity
  8
0
  6
BYBLOCK
 62
     0
100
AcDbTrace
 10
-1813.31848
 20
-1390.455497
 30
0.0
 11
-1813.31848
 21
-1391.28883
 31
0.0
 12
-1810.81848
 22
-1390.872164
 32
0.0
 13
-1810.81848
 23
-1390.872164
 33
0.0
  0
MTEXT
  5
B3D
100
AcDbEntity
  8
0
  6
BYBLOCK
 62
     0
100
AcDbMText
 10
-1838.31848
 20
-1388.747164
 30
0.0
 40
3.0
 41
0.0
 71
     5
 72
     1
  1
\A2;55{\H2.400000;±0.05}
  0
POINT
  5
B3E
100
AcDbEntity
  8
DEFPOINTS
  6
BYBLOCK
 62
     0
100
AcDbPoint
 10
-1865.81848
 20
-1454.559752
 30
0.0
  0
POINT
  5
B3F
100
AcDbEntity
  8
DEFPOINTS
  6
BYBLOCK
 62
     0
100
AcDbPoint
 10
-1810.81848
 20
-1444.559752
 30
0.0
  0
POINT
  5
B40
100
AcDbEntity
  8
DEFPOINTS
  6
BYBLOCK
 62
     0
100
AcDbPoint
 10
-1810.81848
 20
-1390.872164
 30
0.0
  0
ENDBLK
  5
B41
100
AcDbEntity
  8
0
100
AcDbBlockEnd
  0
BLOCK
  5
B5A
100
AcDbEntity
  8
0
100
AcDbBlockBegin
  2
*D5
 70
    65
 10
0.0
 20
0.0
 30
0.0
  3
*D5
  1

  0
LINE
  5
B5B
100
AcDbEntity
  8
0
  6
BYBLOCK
 62
     0
100
AcDbLine
 10
-1865.81848
 20
-1453.934752
 30
0.0
 11
-1865.81848
 21
-1407.359297
 31
0.0
  0
LINE
  5
B5C
100
AcDbEntity
  8
0
  6
BYBLOCK
 62
     0
100
AcDbLine
 10
-1836.81848
 20
-1418.114178
 30
0.0
 11
-1836.81848
 21
-1407.359297
 31
0.0
  0
LINE
  5
B5D
100
AcDbEntity
  8
0
  6
BYBLOCK
 62
     0
100
AcDbLine
 10
-1863.31848
 20
-1408.609297
 30
0.0
 11
-1839.31848
 21
-1408.609297
 31
0.0
  0
SOLID
  5
B5E
100
AcDbEntity
  8
0
  6
BYBLOCK
 62
     0
100
AcDbTrace
 10
-1863.31848
 20
-1408.19263
 30
0.0
 11
-1863.31848
 21
-1409.025964
 31
0.0
 12
-1865.81848
 22
-1408.609297
 32
0.0
 13
-1865.81848
 23
-1408.609297
 33
0.0
  0
SOLID
  5
B5F
100
AcDbEntity
  8
0
  6
BYBLOCK
 62
     0
100
AcDbTrace
 10
-1839.31848
 20
-1408.19263
 30
0.0
 11
-1839.31848
 21
-1409.025964
 31
0.0
 12
-1836.81848
 22
-1408.609297
 32
0.0
 13
-1836.81848
 23
-1408.609297
 33
0.0
  0
MTEXT
  5
B60
100
AcDbEntity
  8
0
  6
BYBLOCK
 62
     0
100
AcDbMText
 10
-1851.31848
 20
-1406.484297
 30
0.0
 40
3.0
 41
0.0
 71
     5
 72
     1
  1
\A2;29{\H2.400000;±0.05}
  0
POINT
  5
B61
100
AcDbEntity
  8
DEFPOINTS
  6
BYBLOCK
 62
     0
100
AcDbPoint
 10
-1865.81848
 20
-1454.559752
 30
0.0
  0
POINT
  5
B62
100
AcDbEntity
  8
DEFPOINTS
  6
BYBLOCK
 62
     0
100
AcDbPoint
 10
-1836.81848
 20
-1418.739178
 30
0.0
  0
POINT
  5
B63
100
AcDbEntity
  8
DEFPOINTS
  6
BYBLOCK
 62
     0
100
AcDbPoint
 10
-1836.81848
 20
-1408.609297
 30
0.0
  0
ENDBLK
  5
B64
100
AcDbEntity
  8
0
100
AcDbBlockEnd
  0
BLOCK
  5
805
100
AcDbEntity
  8
0
100
AcDbBlockBegin
  2
*D6
 70
    65
 10
0.0
 20
0.0
 30
0.0
  3
*D6
  1

  0
LINE
  5
806
100
AcDbEntity
  8
0
  6
BYBLOCK
 62
     0
100
AcDbLine
 10
-1846.842804
 20
-1414.559752
 30
0.0
 11
-1799.702517
 21
-1414.559752
 31
0.0
  0
LINE
  5
807
100
AcDbEntity
  8
0
  6
BYBLOCK
 62
     0
100
AcDbLine
 10
-1833.842804
 20
-1444.559752
 30
0.0
 11
-1799.702517
 21
-1444.559752
 31
0.0
  0
LINE
  5
808
100
AcDbEntity
  8
0
  6
BYBLOCK
 62
     0
100
AcDbLine
 10
-1800.952517
 20
-1417.059752
 30
0.0
 11
-1800.952517
 21
-1442.059752
 31
0.0
  0
SOLID
  5
809
100
AcDbEntity
  8
0
  6
BYBLOCK
 62
     0
100
AcDbTrace
 10
-1801.369184
 20
-1417.059752
 30
0.0
 11
-1800.53585
 21
-1417.059752
 31
0.0
 12
-1800.952517
 22
-1414.559752
 32
0.0
 13
-1800.952517
 23
-1414.559752
 33
0.0
  0
SOLID
  5
80A
100
AcDbEntity
  8
0
  6
BYBLOCK
 62
     0
100
AcDbTrace
 10
-1801.369184
 20
-1442.059752
 30
0.0
 11
-1800.53585
 21
-1442.059752
 31
0.0
 12
-1800.952517
 22
-1444.559752
 32
0.0
 13
-1800.952517
 23
-1444.559752
 33
0.0
  0
MTEXT
  5
80B
100
AcDbEntity
  8
0
  6
BYBLOCK
 62
     0
100
AcDbMText
 10
-1803.077517
 20
-1429.559752
 30
0.0
 40
3.0
 41
0.0
 71
     5
 72
     1
  1
\A1;30
 11
0.0
 21
1.0
 31
0.0
  0
POINT
  5
80C
100
AcDbEntity
  8
DEFPOINTS
  6
BYBLOCK
 62
     0
100
AcDbPoint
 10
-1847.467804
 20
-1414.559752
 30
0.0
  0
POINT
  5
80D
100
AcDbEntity
  8
DEFPOINTS
  6
BYBLOCK
 62
     0
100
AcDbPoint
 10
-1834.467804
 20
-1444.559752
 30
0.0
  0
POINT
  5
80E
100
AcDbEntity
  8
DEFPOINTS
  6
BYBLOCK
 62
     0
100
AcDbPoint
 10
-1800.952517
 20
-1444.559752
 30
0.0
  0
ENDBLK
  5
80F
100
AcDbEntity
  8
0
100
AcDbBlockEnd
  0
BLOCK
  5
ACD
100
AcDbEntity
  8
0
100
AcDbBlockBegin
  2
*D7
 70
    65
 10
0.0
 20
0.0
 30
0.0
  3
*D7
  1

  0
LINE
  5
ACE
100
AcDbEntity
  8
0
  6
BYBLOCK
 62
     0
100
AcDbLine
 10
-1811.19348
 20
-1444.559752
 30
0.0
 11
-1793.366314
 21
-1444.559752
 31
0.0
  0
LINE
  5
ACF
100
AcDbEntity
  8
0
  6
BYBLOCK
 62
     0
100
AcDbLine
 10
-1810.19348
 20
-1452.559752
 30
0.0
 11
-1793.366314
 21
-1452.559752
 31
0.0
  0
LINE
  5
AD0
100
AcDbEntity
  8
0
  6
BYBLOCK
 62
     0
100
AcDbLine
 10
-1794.616314
 20
-1447.059752
 30
0.0
 11
-1794.616314
 21
-1450.059752
 31
0.0
  0
SOLID
  5
AD1
100
AcDbEntity
  8
0
  6
BYBLOCK
 62
     0
100
AcDbTrace
 10
-1795.03298
 20
-1447.059752
 30
0.0
 11
-1794.199647
 21
-1447.059752
 31
0.0
 12
-1794.616314
 22
-1444.559752
 32
0.0
 13
-1794.616314
 23
-1444.559752
 33
0.0
  0
SOLID
  5
AD2
100
AcDbEntity
  8
0
  6
BYBLOCK
 62
     0
100
AcDbTrace
 10
-1795.03298
 20
-1450.059752
 30
0.0
 11
-1794.199647
 21
-1450.059752
 31
0.0
 12
-1794.616314
 22
-1452.559752
 32
0.0
 13
-1794.616314
 23
-1452.559752
 33
0.0
  0
MTEXT
  5
AD3
100
AcDbEntity
  8
0
  6
BYBLOCK
 62
     0
100
AcDbMText
 10
-1796.741314
 20
-1448.559752
 30
0.0
 40
3.0
 41
0.0
 71
     5
 72
     1
  1
\A1;8
 11
0.0
 21
1.0
 31
0.0
  0
POINT
  5
AD4
100
AcDbEntity
  8
DEFPOINTS
  6
BYBLOCK
 62
     0
100
AcDbPoint
 10
-1811.81848
 20
-1444.559752
 30
0.0
  0
POINT
  5
AD5
100
AcDbEntity
  8
DEFPOINTS
  6
BYBLOCK
 62
     0
100
AcDbPoint
 10
-1810.81848
 20
-1452.559752
 30
0.0
  0
POINT
  5
AD6
100
AcDbEntity
  8
DEFPOINTS
  6
BYBLOCK
 62
     0
100
AcDbPoint
 10
-1794.616314
 20
-1452.559752
 30
0.0
  0
ENDBLK
  5
AD7
100
AcDbEntity
  8
0
100
AcDbBlockEnd
  0
BLOCK
  5
AC2
100
AcDbEntity
  8
0
100
AcDbBlockBegin
  2
*D8
 70
    65
 10
0.0
 20
0.0
 30
0.0
  3
*D8
  1

  0
LINE
  5
AC3
100
AcDbEntity
  8
0
  6
BYBLOCK
 62
     0
100
AcDbLine
 10
-1810.19348
 20
-1452.559752
 30
0.0
 11
-1793.366314
 21
-1452.559752
 31
0.0
  0
LINE
  5
AC4
100
AcDbEntity
  8
0
  6
BYBLOCK
 62
     0
100
AcDbLine
 10
-1830.19348
 20
-1483.873461
 30
0.0
 11
-1793.366314
 21
-1483.873461
 31
0.0
  0
LINE
  5
AC5
100
AcDbEntity
  8
0
  6
BYBLOCK
 62
     0
100
AcDbLine
 10
-1794.616314
 20
-1455.059752
 30
0.0
 11
-1794.616314
 21
-1481.373461
 31
0.0
  0
SOLID
  5
AC6
100
AcDbEntity
  8
0
  6
BYBLOCK
 62
     0
100
AcDbTrace
 10
-1795.03298
 20
-1455.059752
 30
0.0
 11
-1794.199647
 21
-1455.059752
 31
0.0
 12
-1794.616314
 22
-1452.559752
 32
0.0
 13
-1794.616314
 23
-1452.559752
 33
0.0
  0
SOLID
  5
AC7
100
AcDbEntity
  8
0
  6
BYBLOCK
 62
     0
100
AcDbTrace
 10
-1795.03298
 20
-1481.373461
 30
0.0
 11
-1794.199647
 21
-1481.373461
 31
0.0
 12
-1794.616314
 22
-1483.873461
 32
0.0
 13
-1794.616314
 23
-1483.873461
 33
0.0
  0
MTEXT
  5
AC8
100
AcDbEntity
  8
0
  6
BYBLOCK
 62
     0
100
AcDbMText
 10
-1796.741314
 20
-1468.216607
 30
0.0
 40
3.0
 41
0.0
 71
     5
 72
     1
  1
\A1;31.31
 11
0.0
 21
1.0
 31
0.0
  0
POINT
  5
AC9
100
AcDbEntity
  8
DEFPOINTS
  6
BYBLOCK
 62
     0
100
AcDbPoint
 10
-1810.81848
 20
-1452.559752
 30
0.0
  0
POINT
  5
ACA
100
AcDbEntity
  8
DEFPOINTS
  6
BYBLOCK
 62
     0
100
AcDbPoint
 10
-1830.81848
 20
-1483.873461
 30
0.0
  0
POINT
  5
ACB
100
AcDbEntity
  8
DEFPOINTS
  6
BYBLOCK
 62
     0
100
AcDbPoint
 10
-1794.616314
 20
-1483.873461
 30
0.0
  0
ENDBLK
  5
ACC
100
AcDbEntity
  8
0
100
AcDbBlockEnd
  0
BLOCK
  5
5E1
100
AcDbEntity
  8
0
100
AcDbBlockBegin
  2
*D9
 70
    65
 10
0.0
 20
0.0
 30
0.0
  3
*D9
  1

  0
LINE
  5
5E2
100
AcDbEntity
  8
0
  6
BYBLOCK
 62
     0
100
AcDbLine
 10
-1853.842804
 20
-1483.873461
 30
0.0
 11
-1817.0614
 21
-1483.873461
 31
0.0
  0
LINE
  5
5E3
100
AcDbEntity
  8
0
  6
BYBLOCK
 62
     0
100
AcDbLine
 10
-1853.842804
 20
-1494.401754
 30
0.0
 11
-1817.0614
 21
-1494.401754
 31
0.0
  0
LINE
  5
5E4
100
AcDbEntity
  8
0
  6
BYBLOCK
 62
     0
100
AcDbLine
 10
-1818.3114
 20
-1481.373461
 30
0.0
 11
-1818.3114
 21
-1478.873461
 31
0.0
  0
LINE
  5
5E5
100
AcDbEntity
  8
0
  6
BYBLOCK
 62
     0
100
AcDbLine
 10
-1818.3114
 20
-1496.901754
 30
0.0
 11
-1818.3114
 21
-1499.401754
 31
0.0
  0
SOLID
  5
5E6
100
AcDbEntity
  8
0
  6
BYBLOCK
 62
     0
100
AcDbTrace
 10
-1818.728067
 20
-1481.373461
 30
0.0
 11
-1817.894733
 21
-1481.373461
 31
0.0
 12
-1818.3114
 22
-1483.873461
 32
0.0
 13
-1818.3114
 23
-1483.873461
 33
0.0
  0
SOLID
  5
5E7
100
AcDbEntity
  8
0
  6
BYBLOCK
 62
     0
100
AcDbTrace
 10
-1818.728067
 20
-1496.901754
 30
0.0
 11
-1817.894733
 21
-1496.901754
 31
0.0
 12
-1818.3114
 22
-1494.401754
 32
0.0
 13
-1818.3114
 23
-1494.401754
 33
0.0
  0
MTEXT
  5
5E8
100
AcDbEntity
  8
0
  6
BYBLOCK
 62
     0
100
AcDbMText
 10
-1820.4364
 20
-1489.137607
 30
0.0
 40
3.0
 41
0.0
 71
     5
 72
     1
  1
\A1;10.53
 11
0.0
 21
1.0
 31
0.0
  0
POINT
  5
5E9
100
AcDbEntity
  8
DEFPOINTS
  6
BYBLOCK
 62
     0
100
AcDbPoint
 10
-1854.467804
 20
-1483.873461
 30
0.0
  0
POINT
  5
5EA
100
AcDbEntity
  8
DEFPOINTS
  6
BYBLOCK
 62
     0
100
AcDbPoint
 10
-1854.467804
 20
-1494.401754
 30
0.0
  0
POINT
  5
5EB
100
AcDbEntity
  8
DEFPOINTS
  6
BYBLOCK
 62
     0
100
AcDbPoint
 10
-1818.3114
 20
-1494.401754
 30
0.0
  0
ENDBLK
  5
5EC
100
AcDbEntity
  8
0
100
AcDbBlockEnd
  0
BLOCK
  5
5EF
100
AcDbEntity
  8
0
100
AcDbBlockBegin
  2
*D10
 70
    65
 10
0.0
 20
0.0
 30
0.0
  3
*D10
  1

  0
LINE
  5
5F0
100
AcDbEntity
  8
0
  6
BYBLOCK
 62
     0
100
AcDbLine
 10
-1836.467804
 20
-1540.953668
 30
0.0
 11
-1836.467804
 21
-1509.559938
 31
0.0
  0
LINE
  5
5F1
100
AcDbEntity
  8
0
  6
BYBLOCK
 62
     0
100
AcDbLine
 10
-1840.467804
 20
-1511.413777
 30
0.0
 11
-1840.467804
 21
-1509.559938
 31
0.0
  0
LINE
  5
5F2
100
AcDbEntity
  8
0
  6
BYBLOCK
 62
     0
100
AcDbLine
 10
-1833.967804
 20
-1510.809938
 30
0.0
 11
-1831.467804
 21
-1510.809938
 31
0.0
  0
LINE
  5
5F3
100
AcDbEntity
  8
0
  6
BYBLOCK
 62
     0
100
AcDbLine
 10
-1842.967804
 20
-1510.809938
 30
0.0
 11
-1845.467804
 21
-1510.809938
 31
0.0
  0
SOLID
  5
5F4
100
AcDbEntity
  8
0
  6
BYBLOCK
 62
     0
100
AcDbTrace
 10
-1833.967804
 20
-1510.393271
 30
0.0
 11
-1833.967804
 21
-1511.226604
 31
0.0
 12
-1836.467804
 22
-1510.809938
 32
0.0
 13
-1836.467804
 23
-1510.809938
 33
0.0
  0
SOLID
  5
5F5
100
AcDbEntity
  8
0
  6
BYBLOCK
 62
     0
100
AcDbTrace
 10
-1842.967804
 20
-1510.393271
 30
0.0
 11
-1842.967804
 21
-1511.226604
 31
0.0
 12
-1840.467804
 22
-1510.809938
 32
0.0
 13
-1840.467804
 23
-1510.809938
 33
0.0
  0
MTEXT
  5
5F6
100
AcDbEntity
  8
0
  6
BYBLOCK
 62
     0
100
AcDbMText
 10
-1838.467804
 20
-1508.684938
 30
0.0
 40
3.0
 41
0.0
 71
     5
 72
     1
  1
\A1;4
  0
POINT
  5
5F7
100
AcDbEntity
  8
DEFPOINTS
  6
BYBLOCK
 62
     0
100
AcDbPoint
 10
-1836.467804
 20
-1541.578668
 30
0.0
  0
POINT
  5
5F8
100
AcDbEntity
  8
DEFPOINTS
  6
BYBLOCK
 62
     0
100
AcDbPoint
 10
-1840.467804
 20
-1512.038777
 30
0.0
  0
POINT
  5
5F9
100
AcDbEntity
  8
DEFPOINTS
  6
BYBLOCK
 62
     0
100
AcDbPoint
 10
-1840.467804
 20
-1510.809938
 30
0.0
  0
ENDBLK
  5
5FA
100
AcDbEntity
  8
0
100
AcDbBlockEnd
  0
BLOCK
  5
617
100
AcDbEntity
  8
0
100
AcDbBlockBegin
  2
*D11
 70
    65
 10
0.0
 20
0.0
 30
0.0
  3
*D11
  1

  0
LINE
  5
618
100
AcDbEntity
  8
0
  6
BYBLOCK
 62
     0
100
AcDbLine
 10
-1862.467804
 20
-1487.758644
 30
0.0
 11
-1862.467804
 21
-1485.597598
 31
0.0
  0
LINE
  5
619
100
AcDbEntity
  8
0
  6
BYBLOCK
 62
     0
100
AcDbLine
 10
-1889.467804
 20
-1486.222598
 30
0.0
 11
-1889.467804
 21
-1485.597598
 31
0.0
  0
LINE
  5
61A
100
AcDbEntity
  8
0
  6
BYBLOCK
 62
     0
100
AcDbLine
 10
-1864.967804
 20
-1486.847598
 30
0.0
 11
-1886.967804
 21
-1486.847598
 31
0.0
  0
LINE
  5
61B
100
AcDbEntity
  8
0
  6
BYBLOCK
 62
     0
100
AcDbLine
 10
-1889.467804
 20
-1486.847598
 30
0.0
 11
-1901.634585
 21
-1486.847598
 31
0.0
  0
SOLID
  5
61C
100
AcDbEntity
  8
0
  6
BYBLOCK
 62
     0
100
AcDbTrace
 10
-1864.967804
 20
-1486.430931
 30
0.0
 11
-1864.967804
 21
-1487.264265
 31
0.0
 12
-1862.467804
 22
-1486.847598
 32
0.0
 13
-1862.467804
 23
-1486.847598
 33
0.0
  0
SOLID
  5
61D
100
AcDbEntity
  8
0
  6
BYBLOCK
 62
     0
100
AcDbTrace
 10
-1886.967804
 20
-1486.430931
 30
0.0
 11
-1886.967804
 21
-1487.264265
 31
0.0
 12
-1889.467804
 22
-1486.847598
 32
0.0
 13
-1889.467804
 23
-1486.847598
 33
0.0
  0
MTEXT
  5
61E
100
AcDbEntity
  8
0
  6
BYBLOCK
 62
     0
100
AcDbMText
 10
-1899.194585
 20
-1484.722598
 30
0.0
 40
3.0
 41
0.0
 71
     5
 72
     1
  1
\A1;27
  0
POINT
  5
61F
100
AcDbEntity
  8
DEFPOINTS
  6
BYBLOCK
 62
     0
100
AcDbPoint
 10
-1862.467804
 20
-1488.383644
 30
0.0
  0
POINT
  5
620
100
AcDbEntity
  8
DEFPOINTS
  6
BYBLOCK
 62
     0
100
AcDbPoint
 10
-1889.467804
 20
-1486.847598
 30
0.0
  0
POINT
  5
621
100
AcDbEntity
  8
DEFPOINTS
  6
BYBLOCK
 62
     0
100
AcDbPoint
 10
-1889.467804
 20
-1486.847598
 30
0.0
  0
ENDBLK
  5
622
100
AcDbEntity
  8
0
100
AcDbBlockEnd
  0
BLOCK
  5
624
100
AcDbEntity
  8
0
100
AcDbBlockBegin
  2
*D12
 70
    65
 10
0.0
 20
0.0
 30
0.0
  3
*D12
  1

  0
LINE
  5
625
100
AcDbEntity
  8
0
  6
BYBLOCK
 62
     0
100
AcDbLine
 10
-1889.467804
 20
-1495.614598
 30
0.0
 11
-1889.467804
 21
-1520.264103
 31
0.0
  0
ARC
  5
626
100
AcDbEntity
  8
0
  6
BYBLOCK
 62
     0
100
AcDbCircle
 10
-1889.467804
 20
-1494.989598
 30
0.0
 40
24.024505
100
AcDbArc
 50
275.964916
 51
306.535084
  0
SOLID
  5
627
100
AcDbEntity
  8
0
  6
BYBLOCK
 62
     0
100
AcDbTrace
 10
-1886.949511
 20
-1519.30013
 30
0.0
 11
-1886.992869
 21
-1518.467925
 31
0.0
 12
-1889.467804
 22
-1519.014103
 32
0.0
 13
-1889.467804
 23
-1519.014103
 33
0.0
  0
SOLID
  5
628
100
AcDbEntity
  8
0
  6
BYBLOCK
 62
     0
100
AcDbTrace
 10
-1875.430789
 20
-1513.971678
 30
0.0
 11
-1874.900527
 21
-1514.614536
 31
0.0
 12
-1873.237084
 22
-1512.702321
 32
0.0
 13
-1873.237084
 23
-1512.702321
 33
0.0
  0
MTEXT
  5
629
100
AcDbEntity
  8
0
  6
BYBLOCK
 62
     0
100
AcDbMText
 10
-1881.53059
 20
-1515.400109
 30
0.0
 40
3.0
 41
0.0
 71
     5
 72
     1
  1
\A1;42.5°
 11
0.932008
 21
0.362438
 31
0.0
  0
POINT
  5
62A
100
AcDbEntity
  8
DEFPOINTS
  6
BYBLOCK
 62
     0
100
AcDbPoint
 10
-1883.587966
 20
-1518.283468
 30
0.0
  0
POINT
  5
62B
100
AcDbEntity
  8
DEFPOINTS
  6
BYBLOCK
 62
     0
100
AcDbPoint
 10
-1889.467804
 20
-1454.559752
 30
0.0
  0
POINT
  5
62C
100
AcDbEntity
  8
DEFPOINTS
  6
BYBLOCK
 62
     0
100
AcDbPoint
 10
-1848.150462
 20
-1540.079565
 30
0.0
  0
POINT
  5
62D
100
AcDbEntity
  8
DEFPOINTS
  6
BYBLOCK
 62
     0
100
AcDbPoint
 10
-1889.467804
 20
-1494.989598
 30
0.0
  0
POINT
  5
62E
100
AcDbEntity
  8
DEFPOINTS
  6
BYBLOCK
 62
     0
100
AcDbPoint
 10
-1889.467804
 20
-1494.989598
 30
0.0
  0
ENDBLK
  5
62F
100
AcDbEntity
  8
0
100
AcDbBlockEnd
  0
BLOCK
  5
632
100
AcDbEntity
  8
0
100
AcDbBlockBegin
  2
*D13
 70
    65
 10
0.0
 20
0.0
 30
0.0
  3
*D13
  1

  0
LINE
  5
633
100
AcDbEntity
  8
0
  6
BYBLOCK
 62
     0
100
AcDbLine
 10
-1848.572706
 20
-1539.618767
 30
0.0
 11
-1856.581381
 21
-1530.878832
 31
0.0
  0
LINE
  5
634
100
AcDbEntity
  8
0
  6
BYBLOCK
 62
     0
100
AcDbLine
 10
-1849.309983
 20
-1540.294357
 30
0.0
 11
-1857.318658
 21
-1531.554422
 31
0.0
  0
LINE
  5
635
100
AcDbEntity
  8
0
  6
BYBLOCK
 62
     0
100
AcDbLine
 10
-1853.8937
 20
-1530.111453
 30
0.0
 11
-1852.050506
 21
-1528.422477
 31
0.0
  0
LINE
  5
636
100
AcDbEntity
  8
0
  6
BYBLOCK
 62
     0
100
AcDbLine
 10
-1858.317364
 20
-1534.164994
 30
0.0
 11
-1861.568757
 21
-1537.144347
 31
0.0
  0
SOLID
  5
637
100
AcDbEntity
  8
0
  6
BYBLOCK
 62
     0
100
AcDbTrace
 10
-1854.175196
 20
-1529.804254
 30
0.0
 11
-1853.612204
 21
-1530.418652
 31
0.0
 12
-1855.736893
 22
-1531.800428
 32
0.0
 13
-1855.736893
 23
-1531.800428
 33
0.0
  0
SOLID
  5
638
100
AcDbEntity
  8
0
  6
BYBLOCK
 62
     0
100
AcDbTrace
 10
-1858.59886
 20
-1533.857795
 30
0.0
 11
-1858.035868
 21
-1534.472193
 31
0.0
 12
-1856.47417
 22
-1532.476018
 32
0.0
 13
-1856.47417
 23
-1532.476018
 33
0.0
  0
MTEXT
  5
639
100
AcDbEntity
  8
0
  6
BYBLOCK
 62
     0
100
AcDbMText
 10
-1862.300286
 20
-1534.932444
 30
0.0
 40
3.0
 41
0.0
 71
     5
 72
     1
  1
\A1;1
 11
0.737277
 21
0.67559
 31
0.0
  0
POINT
  5
63A
100
AcDbEntity
  8
DEFPOINTS
  6
BYBLOCK
 62
     0
100
AcDbPoint
 10
-1848.150462
 20
-1540.079565
 30
0.0
  0
POINT
  5
63B
100
AcDbEntity
  8
DEFPOINTS
  6
BYBLOCK
 62
     0
100
AcDbPoint
 10
-1848.887739
 20
-1540.755155
 30
0.0
  0
POINT
  5
63C
100
AcDbEntity
  8
DEFPOINTS
  6
BYBLOCK
 62
     0
100
AcDbPoint
 10
-1856.47417
 20
-1532.476018
 30
0.0
  0
ENDBLK
  5
63D
100
AcDbEntity
  8
0
100
AcDbBlockEnd
  0
BLOCK
  5
A22
100
AcDbEntity
  8
0
100
AcDbBlockBegin
  2
*D14
 70
    65
 10
0.0
 20
0.0
 30
0.0
  3
*D14
  1

  0
LINE
  5
A23
100
AcDbEntity
  8
0
  6
BYBLOCK
 62
     0
100
AcDbLine
 10
-1818.939228
 20
-1540.559752
 30
0.0
 11
-1828.994943
 21
-1540.559752
 31
0.0
  0
LINE
  5
A24
100
AcDbEntity
  8
0
  6
BYBLOCK
 62
     0
100
AcDbLine
 10
-1810.340239
 20
-1549.559752
 30
0.0
 11
-1828.994943
 21
-1549.559752
 31
0.0
  0
LINE
  5
A25
100
AcDbEntity
  8
0
  6
BYBLOCK
 62
     0
100
AcDbLine
 10
-1827.744943
 20
-1543.059752
 30
0.0
 11
-1827.744943
 21
-1547.059752
 31
0.0
  0
SOLID
  5
A26
100
AcDbEntity
  8
0
  6
BYBLOCK
 62
     0
100
AcDbTrace
 10
-1828.16161
 20
-1543.059752
 30
0.0
 11
-1827.328277
 21
-1543.059752
 31
0.0
 12
-1827.744943
 22
-1540.559752
 32
0.0
 13
-1827.744943
 23
-1540.559752
 33
0.0
  0
SOLID
  5
A27
100
AcDbEntity
  8
0
  6
BYBLOCK
 62
     0
100
AcDbTrace
 10
-1828.16161
 20
-1547.059752
 30
0.0
 11
-1827.328277
 21
-1547.059752
 31
0.0
 12
-1827.744943
 22
-1549.559752
 32
0.0
 13
-1827.744943
 23
-1549.559752
 33
0.0
  0
MTEXT
  5
A28
100
AcDbEntity
  8
0
  6
BYBLOCK
 62
     0
100
AcDbMText
 10
-1829.869943
 20
-1545.059752
 30
0.0
 40
3.0
 41
0.0
 71
     5
 72
     1
  1
\A1;9
 11
0.0
 21
1.0
 31
0.0
  0
POINT
  5
A29
100
AcDbEntity
  8
DEFPOINTS
  6
BYBLOCK
 62
     0
100
AcDbPoint
 10
-1818.314228
 20
-1540.559752
 30
0.0
  0
POINT
  5
A2A
100
AcDbEntity
  8
DEFPOINTS
  6
BYBLOCK
 62
     0
100
AcDbPoint
 10
-1809.715239
 20
-1549.559752
 30
0.0
  0
POINT
  5
A2B
100
AcDbEntity
  8
DEFPOINTS
  6
BYBLOCK
 62
     0
100
AcDbPoint
 10
-1827.744943
 20
-1549.559752
 30
0.0
  0
ENDBLK
  5
A2C
100
AcDbEntity
  8
0
100
AcDbBlockEnd
  0
BLOCK
  5
64D
100
AcDbEntity
  8
0
100
AcDbBlockBegin
  2
*D15
 70
    65
 10
0.0
 20
0.0
 30
0.0
  3
*D15
  1

  0
LINE
  5
64E
100
AcDbEntity
  8
0
  6
BYBLOCK
 62
     0
100
AcDbLine
 10
-1834.467804
 20
-1453.184752
 30
0.0
 11
-1834.467804
 21
-1473.587781
 31
0.0
  0
ARC
  5
64F
100
AcDbEntity
  8
0
  6
BYBLOCK
 62
     0
100
AcDbCircle
 10
-1834.467804
 20
-1452.559752
 30
0.0
 40
19.778029
100
AcDbArc
 50
232.247182
 51
262.752818
  0
SOLID
  5
650
100
AcDbEntity
  8
0
  6
BYBLOCK
 62
     0
100
AcDbTrace
 10
-1846.852442
 20
-1468.510098
 30
0.0
 11
-1846.301606
 21
-1467.884779
 31
0.0
 12
-1848.452982
 22
-1466.544931
 32
0.0
 13
-1848.452982
 23
-1466.544931
 33
0.0
  0
SOLID
  5
651
100
AcDbEntity
  8
0
  6
BYBLOCK
 62
     0
100
AcDbTrace
 10
-1836.936472
 20
-1471.763944
 30
0.0
 11
-1836.98914
 21
-1472.595612
 31
0.0
 12
-1834.467804
 22
-1472.337781
 32
0.0
 13
-1834.467804
 23
-1472.337781
 33
0.0
  0
MTEXT
  5
652
100
AcDbEntity
  8
0
  6
BYBLOCK
 62
     0
100
AcDbMText
 10
-1841.223326
 20
-1468.869025
 30
0.0
 40
3.0
 41
0.0
 71
     5
 72
     1
  1
\A1;45°
 11
0.92388
 21
-0.382683
 31
0.0
  0
POINT
  5
653
100
AcDbEntity
  8
DEFPOINTS
  6
BYBLOCK
 62
     0
100
AcDbPoint
 10
-1844.356818
 20
-1469.688028
 30
0.0
  0
POINT
  5
654
100
AcDbEntity
  8
DEFPOINTS
  6
BYBLOCK
 62
     0
100
AcDbPoint
 10
-1834.467804
 20
-1452.559752
 30
0.0
  0
POINT
  5
655
100
AcDbEntity
  8
DEFPOINTS
  6
BYBLOCK
 62
     0
100
AcDbPoint
 10
-1834.467804
 20
-1444.559752
 30
0.0
  0
POINT
  5
656
100
AcDbEntity
  8
DEFPOINTS
  6
BYBLOCK
 62
     0
100
AcDbPoint
 10
-1834.467804
 20
-1452.559752
 30
0.0
  0
POINT
  5
657
100
AcDbEntity
  8
DEFPOINTS
  6
BYBLOCK
 62
     0
100
AcDbPoint
 10
-1860.124658
 20
-1478.216607
 30
0.0
  0
ENDBLK
  5
658
100
AcDbEntity
  8
0
100
AcDbBlockEnd
  0
BLOCK
  5
65B
100
AcDbEntity
  8
0
100
AcDbBlockBegin
  2
*D16
 70
    65
 10
0.0
 20
0.0
 30
0.0
  3
*D16
  1

  0
ARC
  5
65C
100
AcDbEntity
  8
0
  6
BYBLOCK
 62
     0
100
AcDbCircle
 10
-1840.467804
 20
-1534.650465
 30
0.0
 40
28.161737
100
AcDbArc
 50
95.087986
 51
114.912014
  0
SOLID
  5
65D
100
AcDbEntity
  8
0
  6
BYBLOCK
 62
     0
100
AcDbTrace
 10
-1842.983834
 20
-1506.183439
 30
0.0
 11
-1842.946846
 21
-1507.015951
 31
0.0
 12
-1840.467804
 22
-1506.488729
 32
0.0
 13
-1840.467804
 23
-1506.488729
 33
0.0
  0
SOLID
  5
65E
100
AcDbEntity
  8
0
  6
BYBLOCK
 62
     0
100
AcDbTrace
 10
-1852.138148
 20
-1509.478753
 30
0.0
 11
-1852.522371
 21
-1508.739282
 31
0.0
 12
-1854.548672
 22
-1510.261686
 32
0.0
 13
-1854.548672
 23
-1510.261686
 33
0.0
  0
MTEXT
  5
65F
100
AcDbEntity
  8
0
  6
BYBLOCK
 62
     0
100
AcDbMText
 10
-1848.306588
 20
-1505.395724
 30
0.0
 40
3.0
 41
0.0
 71
     5
 72
     1
  1
\A1;30°
 11
0.965926
 21
0.258819
 31
0.0
  0
POINT
  5
660
100
AcDbEntity
  8
DEFPOINTS
  6
BYBLOCK
 62
     0
100
AcDbPoint
 10
-1845.358038
 20
-1506.916569
 30
0.0
  0
POINT
  5
661
100
AcDbEntity
  8
DEFPOINTS
  6
BYBLOCK
 62
     0
100
AcDbPoint
 10
-1836.467804
 20
-1541.578668
 30
0.0
  0
POINT
  5
662
100
AcDbEntity
  8
DEFPOINTS
  6
BYBLOCK
 62
     0
100
AcDbPoint
 10
-1840.467804
 20
-1402.988853
 30
0.0
  0
POINT
  5
663
100
AcDbEntity
  8
DEFPOINTS
  6
BYBLOCK
 62
     0
100
AcDbPoint
 10
-1840.467804
 20
-1554.750335
 30
0.0
  0
POINT
  5
664
100
AcDbEntity
  8
DEFPOINTS
  6
BYBLOCK
 62
     0
100
AcDbPoint
 10
-1861.396007
 20
-1498.401754
 30
0.0
  0
ENDBLK
  5
665
100
AcDbEntity
  8
0
100
AcDbBlockEnd
  0
BLOCK
  5
668
100
AcDbEntity
  8
0
100
AcDbBlockBegin
  2
*D17
 70
    65
 10
0.0
 20
0.0
 30
0.0
  3
*D17
  1

  0
LINE
  5
669
100
AcDbEntity
  8
0
  6
BYBLOCK
 62
     0
100
AcDbLine
 10
-1854.467804
 20
-1483.873461
 30
0.0
 11
-1859.480271
 21
-1481.609576
 31
0.0
  0
SOLID
  5
66A
100
AcDbEntity
  8
0
  6
BYBLOCK
 62
     0
100
AcDbTrace
 10
-1859.308765
 20
-1481.229844
 30
0.0
 11
-1859.651777
 21
-1481.989309
 31
0.0
 12
-1861.758665
 22
-1480.580538
 32
0.0
 13
-1861.758665
 23
-1480.580538
 33
0.0
  0
MTEXT
  5
66B
100
AcDbEntity
  8
0
  6
BYBLOCK
 62
     0
100
AcDbMText
 10
-1857.238552
 20
-1480.290364
 30
0.0
 40
3.0
 41
0.0
 71
     5
 72
     1
  1
\A1;R8
 11
0.911358
 21
-0.411615
 31
0.0
  0
POINT
  5
66C
100
AcDbEntity
  8
DEFPOINTS
  6
BYBLOCK
 62
     0
100
AcDbPoint
 10
-1861.758665
 20
-1480.580538
 30
0.0
  0
POINT
  5
66D
100
AcDbEntity
  8
DEFPOINTS
  6
BYBLOCK
 62
     0
100
AcDbPoint
 10
-1854.467804
 20
-1483.873461
 30
0.0
  0
ENDBLK
  5
66E
100
AcDbEntity
  8
0
100
AcDbBlockEnd
  0
BLOCK
  5
671
100
AcDbEntity
  8
0
100
AcDbBlockBegin
  2
*D18
 70
    65
 10
0.0
 20
0.0
 30
0.0
  3
*D18
  1

  0
LINE
  5
672
100
AcDbEntity
  8
0
  6
BYBLOCK
 62
     0
100
AcDbLine
 10
-1854.467804
 20
-1494.401754
 30
0.0
 11
-1859.710072
 21
-1496.065672
 31
0.0
  0
SOLID
  5
673
100
AcDbEntity
  8
0
  6
BYBLOCK
 62
     0
100
AcDbTrace
 10
-1859.836126
 20
-1495.668531
 30
0.0
 11
-1859.584018
 21
-1496.462814
 31
0.0
 12
-1862.092921
 22
-1496.821999
 32
0.0
 13
-1862.092921
 23
-1496.821999
 33
0.0
  0
MTEXT
  5
674
100
AcDbEntity
  8
0
  6
BYBLOCK
 62
     0
100
AcDbMText
 10
-1858.92324
 20
-1493.586455
 30
0.0
 40
3.0
 41
0.0
 71
     5
 72
     1
  1
\A1;R8
 11
0.95314
 21
0.302531
 31
0.0
  0
POINT
  5
675
100
AcDbEntity
  8
DEFPOINTS
  6
BYBLOCK
 62
     0
100
AcDbPoint
 10
-1862.092921
 20
-1496.821999
 30
0.0
  0
POINT
  5
676
100
AcDbEntity
  8
DEFPOINTS
  6
BYBLOCK
 62
     0
100
AcDbPoint
 10
-1854.467804
 20
-1494.401754
 30
0.0
  0
ENDBLK
  5
677
100
AcDbEntity
  8
0
100
AcDbBlockEnd
  0
BLOCK
  5
7FA
100
AcDbEntity
  8
0
100
AcDbBlockBegin
  2
*D19
 70
    65
 10
0.0
 20
0.0
 30
0.0
  3
*D19
  1

  0
LINE
  5
7FB
100
AcDbEntity
  8
0
  6
BYBLOCK
 62
     0
100
AcDbLine
 10
-1833.842804
 20
-1444.559752
 30
0.0
 11
-1799.702517
 21
-1444.559752
 31
0.0
  0
LINE
  5
7FC
100
AcDbEntity
  8
0
  6
BYBLOCK
 62
     0
100
AcDbLine
 10
-1839.842804
 20
-1549.559752
 30
0.0
 11
-1799.702517
 21
-1549.559752
 31
0.0
  0
LINE
  5
7FD
100
AcDbEntity
  8
0
  6
BYBLOCK
 62
     0
100
AcDbLine
 10
-1800.952517
 20
-1447.059752
 30
0.0
 11
-1800.952517
 21
-1547.059752
 31
0.0
  0
SOLID
  5
7FE
100
AcDbEntity
  8
0
  6
BYBLOCK
 62
     0
100
AcDbTrace
 10
-1801.369184
 20
-1447.059752
 30
0.0
 11
-1800.53585
 21
-1447.059752
 31
0.0
 12
-1800.952517
 22
-1444.559752
 32
0.0
 13
-1800.952517
 23
-1444.559752
 33
0.0
  0
SOLID
  5
7FF
100
AcDbEntity
  8
0
  6
BYBLOCK
 62
     0
100
AcDbTrace
 10
-1801.369184
 20
-1547.059752
 30
0.0
 11
-1800.53585
 21
-1547.059752
 31
0.0
 12
-1800.952517
 22
-1549.559752
 32
0.0
 13
-1800.952517
 23
-1549.559752
 33
0.0
  0
MTEXT
  5
800
100
AcDbEntity
  8
0
  6
BYBLOCK
 62
     0
100
AcDbMText
 10
-1804.318226
 20
-1497.059752
 30
0.0
 40
3.0
 41
0.0
 71
     5
 72
     1
  1
\A2;105{\H2.400000;\S+0.02^  0;}
 11
0.0
 21
1.0
 31
0.0
  0
POINT
  5
801
100
AcDbEntity
  8
DEFPOINTS
  6
BYBLOCK
 62
     0
100
AcDbPoint
 10
-1834.467804
 20
-1444.559752
 30
0.0
  0
POINT
  5
802
100
AcDbEntity
  8
DEFPOINTS
  6
BYBLOCK
 62
     0
100
AcDbPoint
 10
-1840.467804
 20
-1549.559752
 30
0.0
  0
POINT
  5
803
100
AcDbEntity
  8
DEFPOINTS
  6
BYBLOCK
 62
     0
100
AcDbPoint
 10
-1800.952517
 20
-1549.559752
 30
0.0
  0
ENDBLK
  5
804
100
AcDbEntity
  8
0
100
AcDbBlockEnd
  0
BLOCK
  5
810
100
AcDbEntity
  8
0
100
AcDbBlockBegin
  2
*D20
 70
    65
 10
0.0
 20
0.0
 30
0.0
  3
*D20
  1

  0
LINE
  5
811
100
AcDbEntity
  8
0
  6
BYBLOCK
 62
     0
100
AcDbLine
 10
-1846.842804
 20
-1414.559752
 30
0.0
 11
-1786.786439
 21
-1414.559752
 31
0.0
  0
LINE
  5
812
100
AcDbEntity
  8
0
  6
BYBLOCK
 62
     0
100
AcDbLine
 10
-1839.842804
 20
-1549.559752
 30
0.0
 11
-1786.786439
 21
-1549.559752
 31
0.0
  0
LINE
  5
813
100
AcDbEntity
  8
0
  6
BYBLOCK
 62
     0
100
AcDbLine
 10
-1788.036439
 20
-1417.059752
 30
0.0
 11
-1788.036439
 21
-1547.059752
 31
0.0
  0
SOLID
  5
814
100
AcDbEntity
  8
0
  6
BYBLOCK
 62
     0
100
AcDbTrace
 10
-1788.453106
 20
-1417.059752
 30
0.0
 11
-1787.619772
 21
-1417.059752
 31
0.0
 12
-1788.036439
 22
-1414.559752
 32
0.0
 13
-1788.036439
 23
-1414.559752
 33
0.0
  0
SOLID
  5
815
100
AcDbEntity
  8
0
  6
BYBLOCK
 62
     0
100
AcDbTrace
 10
-1788.453106
 20
-1547.059752
 30
0.0
 11
-1787.619772
 21
-1547.059752
 31
0.0
 12
-1788.036439
 22
-1549.559752
 32
0.0
 13
-1788.036439
 23
-1549.559752
 33
0.0
  0
MTEXT
  5
816
100
AcDbEntity
  8
0
  6
BYBLOCK
 62
     0
100
AcDbMText
 10
-1792.01262
 20
-1482.059752
 30
0.0
 40
3.0
 41
0.0
 71
     5
 72
     1
  1
\A1;135\S+0.1^  0;
 11
0.0
 21
1.0
 31
0.0
  0
POINT
  5
817
100
AcDbEntity
  8
DEFPOINTS
  6
BYBLOCK
 62
     0
100
AcDbPoint
 10
-1847.467804
 20
-1414.559752
 30
0.0
  0
POINT
  5
818
100
AcDbEntity
  8
DEFPOINTS
  6
BYBLOCK
 62
     0
100
AcDbPoint
 10
-1840.467804
 20
-1549.559752
 30
0.0
  0
POINT
  5
819
100
AcDbEntity
  8
DEFPOINTS
  6
BYBLOCK
 62
     0
100
AcDbPoint
 10
-1788.036439
 20
-1549.559752
 30
0.0
  0
ENDBLK
  5
81A
100
AcDbEntity
  8
0
100
AcDbBlockEnd
  0
BLOCK
  5
8C2
100
AcDbEntity
  8
0
100
AcDbBlockBegin
  2
*D21
 70
    65
 10
0.0
 20
0.0
 30
0.0
  3
*D21
  1

  0
LINE
  5
8C3
100
AcDbEntity
  8
0
  6
BYBLOCK
 62
     0
100
AcDbLine
 10
-1810.137483
 20
-1550.404701
 30
0.0
 11
-1825.835819
 21
-1567.536428
 31
0.0
  0
LINE
  5
8C4
100
AcDbEntity
  8
0
  6
BYBLOCK
 62
     0
100
AcDbLine
 10
-1809.292996
 20
-1550.404701
 30
0.0
 11
-1793.59466
 21
-1567.536428
 31
0.0
  0
ARC
  5
8C5
100
AcDbEntity
  8
0
  6
BYBLOCK
 62
     0
100
AcDbCircle
 10
-1809.715239
 20
-1549.943902
 30
0.0
 40
22.611476
100
AcDbArc
 50
233.838043
 51
306.161957
  0
SOLID
  5
8C6
100
AcDbEntity
  8
0
  6
BYBLOCK
 62
     0
100
AcDbTrace
 10
-1823.32167
 20
-1568.52162
 30
0.0
 11
-1822.793504
 21
-1567.877039
 31
0.0
 12
-1824.991331
 22
-1566.614831
 32
0.0
 13
-1824.991331
 23
-1566.614831
 33
0.0
  0
SOLID
  5
8C7
100
AcDbEntity
  8
0
  6
BYBLOCK
 62
     0
100
AcDbTrace
 10
-1796.636974
 20
-1567.877039
 30
0.0
 11
-1796.108808
 21
-1568.52162
 31
0.0
 12
-1794.439147
 22
-1566.614831
 32
0.0
 13
-1794.439147
 23
-1566.614831
 33
0.0
  0
MTEXT
  5
8C8
100
AcDbEntity
  8
0
  6
BYBLOCK
 62
     0
100
AcDbMText
 10
-1808.812993
 20
-1570.410501
 30
0.0
 40
3.0
 41
0.0
 71
     5
 72
     1
  1
\A1;85°
 11
0.99903
 21
0.044041
 31
0.0
  0
POINT
  5
8C9
100
AcDbEntity
  8
DEFPOINTS
  6
BYBLOCK
 62
     0
100
AcDbPoint
 10
-1815.249248
 20
-1571.867716
 30
0.0
  0
POINT
  5
8CA
100
AcDbEntity
  8
DEFPOINTS
  6
BYBLOCK
 62
     0
100
AcDbPoint
 10
-1810.305061
 20
-1549.300225
 30
0.0
  0
POINT
  5
8CB
100
AcDbEntity
  8
DEFPOINTS
  6
BYBLOCK
 62
     0
100
AcDbPoint
 10
-1809.125418
 20
-1549.300225
 30
0.0
  0
POINT
  5
8CC
100
AcDbEntity
  8
DEFPOINTS
  6
BYBLOCK
 62
     0
100
AcDbPoint
 10
-1805.715239
 20
-1545.578668
 30
0.0
  0
POINT
  5
8CD
100
AcDbEntity
  8
DEFPOINTS
  6
BYBLOCK
 62
     0
100
AcDbPoint
 10
-1817.397897
 20
-1541.559752
 30
0.0
  0
ENDBLK
  5
8CE
100
AcDbEntity
  8
0
100
AcDbBlockEnd
  0
BLOCK
  5
722
100
AcDbEntity
  8
0
100
AcDbBlockBegin
  2
*D22
 70
    65
 10
0.0
 20
0.0
 30
0.0
  3
*D22
  1

  0
LINE
  5
723
100
AcDbEntity
  8
0
  6
BYBLOCK
 62
     0
100
AcDbLine
 10
-1840.120322
 20
-1552.041407
 30
0.0
 11
-1838.960997
 21
-1562.9902
 31
0.0
  0
SOLID
  5
724
100
AcDbEntity
  8
0
  6
BYBLOCK
 62
     0
100
AcDbTrace
 10
-1839.705972
 20
-1551.997533
 30
0.0
 11
-1840.534672
 21
-1552.085281
 31
0.0
 12
-1840.383566
 22
-1549.555305
 32
0.0
 13
-1840.383566
 23
-1549.555305
 33
0.0
  0
MTEXT
  5
725
100
AcDbEntity
  8
0
  6
BYBLOCK
 62
     0
100
AcDbMText
 10
-1837.295851
 20
-1558.535097
 30
0.0
 40
3.0
 41
0.0
 71
     5
 72
     1
  1
\A1;R0.8
 11
0.105298
 21
-0.994441
 31
0.0
  0
POINT
  5
726
100
AcDbEntity
  8
DEFPOINTS
  6
BYBLOCK
 62
     0
100
AcDbPoint
 10
-1840.383566
 20
-1549.555305
 30
0.0
  0
POINT
  5
727
100
AcDbEntity
  8
DEFPOINTS
  6
BYBLOCK
 62
     0
100
AcDbPoint
 10
-1840.467804
 20
-1548.759752
 30
0.0
  0
ENDBLK
  5
728
100
AcDbEntity
  8
0
100
AcDbBlockEnd
  0
BLOCK
  5
7BB
100
AcDbEntity
  8
0
100
AcDbBlockBegin
  2
*D23
 70
    65
 10
0.0
 20
0.0
 30
0.0
  3
*D23
  1

  0
LINE
  5
7BC
100
AcDbEntity
  8
0
  6
BYBLOCK
 62
     0
100
AcDbLine
 10
-1861.092804
 20
-1431.559752
 30
0.0
 11
-1872.190435
 21
-1431.559752
 31
0.0
  0
LINE
  5
7BD
100
AcDbEntity
  8
0
  6
BYBLOCK
 62
     0
100
AcDbLine
 10
-1861.092804
 20
-1439.959752
 30
0.0
 11
-1872.190435
 21
-1439.959752
 31
0.0
  0
LINE
  5
7BE
100
AcDbEntity
  8
0
  6
BYBLOCK
 62
     0
100
AcDbLine
 10
-1870.940435
 20
-1429.059752
 30
0.0
 11
-1870.940435
 21
-1426.559752
 31
0.0
  0
LINE
  5
7BF
100
AcDbEntity
  8
0
  6
BYBLOCK
 62
     0
100
AcDbLine
 10
-1870.940435
 20
-1442.459752
 30
0.0
 11
-1870.940435
 21
-1444.959752
 31
0.0
  0
SOLID
  5
7C0
100
AcDbEntity
  8
0
  6
BYBLOCK
 62
     0
100
AcDbTrace
 10
-1871.357102
 20
-1429.059752
 30
0.0
 11
-1870.523768
 21
-1429.059752
 31
0.0
 12
-1870.940435
 22
-1431.559752
 32
0.0
 13
-1870.940435
 23
-1431.559752
 33
0.0
  0
SOLID
  5
7C1
100
AcDbEntity
  8
0
  6
BYBLOCK
 62
     0
100
AcDbTrace
 10
-1871.357102
 20
-1442.459752
 30
0.0
 11
-1870.523768
 21
-1442.459752
 31
0.0
 12
-1870.940435
 22
-1439.959752
 32
0.0
 13
-1870.940435
 23
-1439.959752
 33
0.0
  0
MTEXT
  5
7C2
100
AcDbEntity
  8
0
  6
BYBLOCK
 62
     0
100
AcDbMText
 10
-1873.065435
 20
-1435.759752
 30
0.0
 40
3.0
 41
0.0
 71
     5
 72
     1
  1
\A1;8.4
 11
0.0
 21
1.0
 31
0.0
  0
POINT
  5
7C3
100
AcDbEntity
  8
DEFPOINTS
  6
BYBLOCK
 62
     0
100
AcDbPoint
 10
-1860.467804
 20
-1431.559752
 30
0.0
  0
POINT
  5
7C4
100
AcDbEntity
  8
DEFPOINTS
  6
BYBLOCK
 62
     0
100
AcDbPoint
 10
-1860.467804
 20
-1439.959752
 30
0.0
  0
POINT
  5
7C5
100
AcDbEntity
  8
DEFPOINTS
  6
BYBLOCK
 62
     0
100
AcDbPoint
 10
-1870.940435
 20
-1439.959752
 30
0.0
  0
ENDBLK
  5
7C6
100
AcDbEntity
  8
0
100
AcDbBlockEnd
  0
BLOCK
  5
7D7
100
AcDbEntity
  8
0
100
AcDbBlockBegin
  2
*D24
 70
    65
 10
0.0
 20
0.0
 30
0.0
  3
*D24
  1

  0
LINE
  5
7D8
100
AcDbEntity
  8
0
  6
BYBLOCK
 62
     0
100
AcDbLine
 10
-1860.467804
 20
-1430.934752
 30
0.0
 11
-1860.467804
 21
-1421.346124
 31
0.0
  0
LINE
  5
7D9
100
AcDbEntity
  8
0
  6
BYBLOCK
 62
     0
100
AcDbLine
 10
-1856.967804
 20
-1430.934752
 30
0.0
 11
-1856.967804
 21
-1421.346124
 31
0.0
  0
LINE
  5
7DA
100
AcDbEntity
  8
0
  6
BYBLOCK
 62
     0
100
AcDbLine
 10
-1862.967804
 20
-1422.596124
 30
0.0
 11
-1865.467804
 21
-1422.596124
 31
0.0
  0
LINE
  5
7DB
100
AcDbEntity
  8
0
  6
BYBLOCK
 62
     0
100
AcDbLine
 10
-1854.467804
 20
-1422.596124
 30
0.0
 11
-1847.836113
 21
-1422.596124
 31
0.0
  0
SOLID
  5
7DC
100
AcDbEntity
  8
0
  6
BYBLOCK
 62
     0
100
AcDbTrace
 10
-1862.967804
 20
-1422.179457
 30
0.0
 11
-1862.967804
 21
-1423.012791
 31
0.0
 12
-1860.467804
 22
-1422.596124
 32
0.0
 13
-1860.467804
 23
-1422.596124
 33
0.0
  0
SOLID
  5
7DD
100
AcDbEntity
  8
0
  6
BYBLOCK
 62
     0
100
AcDbTrace
 10
-1854.467804
 20
-1422.179457
 30
0.0
 11
-1854.467804
 21
-1423.012791
 31
0.0
 12
-1856.967804
 22
-1422.596124
 32
0.0
 13
-1856.967804
 23
-1422.596124
 33
0.0
  0
MTEXT
  5
7DE
100
AcDbEntity
  8
0
  6
BYBLOCK
 62
     0
100
AcDbMText
 10
-1850.839459
 20
-1420.471124
 30
0.0
 40
3.0
 41
0.0
 71
     5
 72
     1
  1
\A1;3.5
  0
POINT
  5
7DF
100
AcDbEntity
  8
DEFPOINTS
  6
BYBLOCK
 62
     0
100
AcDbPoint
 10
-1860.467804
 20
-1431.559752
 30
0.0
  0
POINT
  5
7E0
100
AcDbEntity
  8
DEFPOINTS
  6
BYBLOCK
 62
     0
100
AcDbPoint
 10
-1856.967804
 20
-1431.559752
 30
0.0
  0
POINT
  5
7E1
100
AcDbEntity
  8
DEFPOINTS
  6
BYBLOCK
 62
     0
100
AcDbPoint
 10
-1856.967804
 20
-1422.596124
 30
0.0
  0
ENDBLK
  5
7E2
100
AcDbEntity
  8
0
100
AcDbBlockEnd
  0
BLOCK
  5
7E4
100
AcDbEntity
  8
0
100
AcDbBlockBegin
  2
*D25
 70
    65
 10
0.0
 20
0.0
 30
0.0
  3
*D25
  1

  0
ARC
  5
7E5
100
AcDbEntity
  8
0
  6
BYBLOCK
 62
     0
100
AcDbCircle
 10
-1889.467804
 20
-1454.559752
 30
0.0
 40
11.083515
100
AcDbArc
 50
282.951203
 51
32.048797
  0
SOLID
  5
7E6
100
AcDbEntity
  8
0
  6
BYBLOCK
 62
     0
100
AcDbTrace
 10
-1886.936762
 20
-1465.775326
 30
0.0
 11
-1887.030746
 21
-1464.947309
 31
0.0
 12
-1889.467804
 22
-1465.643268
 32
0.0
 13
-1889.467804
 23
-1465.643268
 33
0.0
  0
SOLID
  5
7E7
100
AcDbEntity
  8
0
  6
BYBLOCK
 62
     0
100
AcDbTrace
 10
-1880.399432
 20
-1448.937901
 30
0.0
 11
-1879.747479
 21
-1448.418861
 31
0.0
 12
-1881.630575
 22
-1446.722524
 32
0.0
 13
-1881.630575
 23
-1446.722524
 33
0.0
  0
MTEXT
  5
7E8
100
AcDbEntity
  8
0
  6
BYBLOCK
 62
     0
100
AcDbMText
 10
-1881.191215
 20
-1457.988028
 30
0.0
 40
3.0
 41
0.0
 71
     5
 72
     1
  1
\A1;135°
 11
0.382683
 21
0.92388
 31
0.0
  0
POINT
  5
7E9
100
AcDbEntity
  8
DEFPOINTS
  6
BYBLOCK
 62
     0
100
AcDbPoint
 10
-1881.630575
 20
-1462.396981
 30
0.0
  0
POINT
  5
7EA
100
AcDbEntity
  8
DEFPOINTS
  6
BYBLOCK
 62
     0
100
AcDbPoint
 10
-1889.467804
 20
-1454.559752
 30
0.0
  0
POINT
  5
7EB
100
AcDbEntity
  8
DEFPOINTS
  6
BYBLOCK
 62
     0
100
AcDbPoint
 10
-1889.467804
 20
-1454.559752
 30
0.0
  0
POINT
  5
7EC
100
AcDbEntity
  8
DEFPOINTS
  6
BYBLOCK
 62
     0
100
AcDbPoint
 10
-1879.467804
 20
-1444.559752
 30
0.0
  0
POINT
  5
7ED
100
AcDbEntity
  8
DEFPOINTS
  6
BYBLOCK
 62
     0
100
AcDbPoint
 10
-1889.467804
 20
-1494.989598
 30
0.0
  0
ENDBLK
  5
7EE
100
AcDbEntity
  8
0
100
AcDbBlockEnd
  0
BLOCK
  5
8FD
100
AcDbEntity
  8
0
100
AcDbBlockBegin
  2
*D26
 70
    65
 10
0.0
 20
0.0
 30
0.0
  3
*D26
  1

  0
LINE
  5
8FE
100
AcDbEntity
  8
0
  6
BYBLOCK
 62
     0
100
AcDbLine
 10
-1870.043916
 20
-1605.360507
 30
0.0
 11
-1858.835205
 21
-1605.360507
 31
0.0
  0
ARC
  5
8FF
100
AcDbEntity
  8
0
  6
BYBLOCK
 62
     0
100
AcDbCircle
 10
-1870.668916
 20
-1605.360507
 30
0.0
 40
10.583711
100
AcDbArc
 50
13.565617
 51
76.434383
  0
SOLID
  5
900
100
AcDbEntity
  8
0
  6
BYBLOCK
 62
     0
100
AcDbTrace
 10
-1859.96672
 20
-1602.828794
 30
0.0
 11
-1860.794221
 21
-1602.927216
 31
0.0
 12
-1860.085205
 22
-1605.360507
 32
0.0
 13
-1860.085205
 23
-1605.360507
 33
0.0
  0
SOLID
  5
901
100
AcDbEntity
  8
0
  6
BYBLOCK
 62
     0
100
AcDbTrace
 10
-1868.235625
 20
-1595.485812
 30
0.0
 11
-1868.137203
 21
-1594.658311
 31
0.0
 12
-1870.668916
 22
-1594.776796
 32
0.0
 13
-1870.668916
 23
-1594.776796
 33
0.0
  0
MTEXT
  5
902
100
AcDbEntity
  8
0
  6
BYBLOCK
 62
     0
100
AcDbMText
 10
-1861.682501
 20
-1596.374092
 30
0.0
 40
3.0
 41
0.0
 71
     5
 72
     1
  1
\A1;90°
 11
0.707107
 21
-0.707107
 31
0.0
  0
POINT
  5
903
100
AcDbEntity
  8
DEFPOINTS
  6
BYBLOCK
 62
     0
100
AcDbPoint
 10
-1861.503154
 20
-1600.068652
 30
0.0
  0
POINT
  5
904
100
AcDbEntity
  8
DEFPOINTS
  6
BYBLOCK
 62
     0
100
AcDbPoint
 10
-1870.668916
 20
-1569.360507
 30
0.0
  0
POINT
  5
905
100
AcDbEntity
  8
DEFPOINTS
  6
BYBLOCK
 62
     0
100
AcDbPoint
 10
-1920.668916
 20
-1605.360507
 30
0.0
  0
POINT
  5
906
100
AcDbEntity
  8
DEFPOINTS
  6
BYBLOCK
 62
     0
100
AcDbPoint
 10
-1870.668916
 20
-1605.360507
 30
0.0
  0
POINT
  5
907
100
AcDbEntity
  8
DEFPOINTS
  6
BYBLOCK
 62
     0
100
AcDbPoint
 10
-1870.668916
 20
-1605.360507
 30
0.0
  0
ENDBLK
  5
908
100
AcDbEntity
  8
0
100
AcDbBlockEnd
  0
BLOCK
  5
90B
100
AcDbEntity
  8
0
100
AcDbBlockBegin
  2
*D27
 70
    65
 10
0.0
 20
0.0
 30
0.0
  3
*D27
  1

  0
LINE
  5
90C
100
AcDbEntity
  8
0
  6
BYBLOCK
 62
     0
100
AcDbLine
 10
-1921.293916
 20
-1605.360507
 30
0.0
 11
-1931.633199
 21
-1605.360507
 31
0.0
  0
ARC
  5
90D
100
AcDbEntity
  8
0
  6
BYBLOCK
 62
     0
100
AcDbCircle
 10
-1920.668916
 20
-1605.360507
 30
0.0
 40
9.714283
100
AcDbArc
 50
104.786239
 51
165.213761
  0
SOLID
  5
90E
100
AcDbEntity
  8
0
  6
BYBLOCK
 62
     0
100
AcDbTrace
 10
-1923.201748
 20
-1595.554713
 30
0.0
 11
-1923.094518
 21
-1596.381119
 31
0.0
 12
-1920.668916
 22
-1595.646225
 32
0.0
 13
-1920.668916
 23
-1595.646225
 33
0.0
  0
SOLID
  5
90F
100
AcDbEntity
  8
0
  6
BYBLOCK
 62
     0
100
AcDbTrace
 10
-1929.648305
 20
-1602.934906
 30
0.0
 11
-1930.47471
 21
-1602.827676
 31
0.0
 12
-1930.383199
 22
-1605.360507
 32
0.0
 13
-1930.383199
 23
-1605.360507
 33
0.0
  0
MTEXT
  5
910
100
AcDbEntity
  8
0
  6
BYBLOCK
 62
     0
100
AcDbMText
 10
-1929.040553
 20
-1596.98887
 30
0.0
 40
3.0
 41
0.0
 71
     5
 72
     1
  1
\A1;90°
 11
0.707107
 21
0.707107
 31
0.0
  0
POINT
  5
911
100
AcDbEntity
  8
DEFPOINTS
  6
BYBLOCK
 62
     0
100
AcDbPoint
 10
-1925.526058
 20
-1596.947692
 30
0.0
  0
POINT
  5
912
100
AcDbEntity
  8
DEFPOINTS
  6
BYBLOCK
 62
     0
100
AcDbPoint
 10
-1920.668916
 20
-1605.360507
 30
0.0
  0
POINT
  5
913
100
AcDbEntity
  8
DEFPOINTS
  6
BYBLOCK
 62
     0
100
AcDbPoint
 10
-1920.668916
 20
-1605.360507
 30
0.0
  0
POINT
  5
914
100
AcDbEntity
  8
DEFPOINTS
  6
BYBLOCK
 62
     0
100
AcDbPoint
 10
-1870.668916
 20
-1605.360507
 30
0.0
  0
POINT
  5
915
100
AcDbEntity
  8
DEFPOINTS
  6
BYBLOCK
 62
     0
100
AcDbPoint
 10
-1920.668916
 20
-1590.360507
 30
0.0
  0
ENDBLK
  5
916
100
AcDbEntity
  8
0
100
AcDbBlockEnd
  0
BLOCK
  5
94E
100
AcDbEntity
  8
0
100
AcDbBlockBegin
  2
*D28
 70
    65
 10
0.0
 20
0.0
 30
0.0
  3
*D28
  1

  0
LINE
  5
94F
100
AcDbEntity
  8
0
  6
BYBLOCK
 62
     0
100
AcDbLine
 10
-1920.668916
 20
-1605.985507
 30
0.0
 11
-1920.668916
 21
-1612.467117
 31
0.0
  0
LINE
  5
950
100
AcDbEntity
  8
0
  6
BYBLOCK
 62
     0
100
AcDbLine
 10
-1870.668916
 20
-1605.985507
 30
0.0
 11
-1870.668916
 21
-1612.467117
 31
0.0
  0
LINE
  5
951
100
AcDbEntity
  8
0
  6
BYBLOCK
 62
     0
100
AcDbLine
 10
-1918.168916
 20
-1611.217117
 30
0.0
 11
-1873.168916
 21
-1611.217117
 31
0.0
  0
SOLID
  5
952
100
AcDbEntity
  8
0
  6
BYBLOCK
 62
     0
100
AcDbTrace
 10
-1918.168916
 20
-1610.80045
 30
0.0
 11
-1918.168916
 21
-1611.633784
 31
0.0
 12
-1920.668916
 22
-1611.217117
 32
0.0
 13
-1920.668916
 23
-1611.217117
 33
0.0
  0
SOLID
  5
953
100
AcDbEntity
  8
0
  6
BYBLOCK
 62
     0
100
AcDbTrace
 10
-1873.168916
 20
-1610.80045
 30
0.0
 11
-1873.168916
 21
-1611.633784
 31
0.0
 12
-1870.668916
 22
-1611.217117
 32
0.0
 13
-1870.668916
 23
-1611.217117
 33
0.0
  0
MTEXT
  5
954
100
AcDbEntity
  8
0
  6
BYBLOCK
 62
     0
100
AcDbMText
 10
-1895.668916
 20
-1609.092117
 30
0.0
 40
3.0
 41
0.0
 71
     5
 72
     1
  1
\A1;{835}
  0
POINT
  5
955
100
AcDbEntity
  8
DEFPOINTS
  6
BYBLOCK
 62
     0
100
AcDbPoint
 10
-1920.668916
 20
-1605.360507
 30
0.0
  0
POINT
  5
956
100
AcDbEntity
  8
DEFPOINTS
  6
BYBLOCK
 62
     0
100
AcDbPoint
 10
-1870.668916
 20
-1605.360507
 30
0.0
  0
POINT
  5
957
100
AcDbEntity
  8
DEFPOINTS
  6
BYBLOCK
 62
     0
100
AcDbPoint
 10
-1870.668916
 20
-1611.217117
 30
0.0
  0
ENDBLK
  5
958
100
AcDbEntity
  8
0
100
AcDbBlockEnd
  0
BLOCK
  5
983
100
AcDbEntity
  8
0
100
AcDbBlockBegin
  2
*D29
 70
    65
 10
0.0
 20
0.0
 30
0.0
  3
*D29
  1

  0
LINE
  5
984
100
AcDbEntity
  8
0
  6
BYBLOCK
 62
     0
100
AcDbLine
 10
-1910.668916
 20
-1587.985507
 30
0.0
 11
-1910.668916
 21
-1602.413762
 31
0.0
  0
LINE
  5
985
100
AcDbEntity
  8
0
  6
BYBLOCK
 62
     0
100
AcDbLine
 10
-1920.668916
 20
-1598.715864
 30
0.0
 11
-1920.668916
 21
-1602.413762
 31
0.0
  0
LINE
  5
986
100
AcDbEntity
  8
0
  6
BYBLOCK
 62
     0
100
AcDbLine
 10
-1913.168916
 20
-1601.163762
 30
0.0
 11
-1918.168916
 21
-1601.163762
 31
0.0
  0
SOLID
  5
987
100
AcDbEntity
  8
0
  6
BYBLOCK
 62
     0
100
AcDbTrace
 10
-1913.168916
 20
-1600.747095
 30
0.0
 11
-1913.168916
 21
-1601.580429
 31
0.0
 12
-1910.668916
 22
-1601.163762
 32
0.0
 13
-1910.668916
 23
-1601.163762
 33
0.0
  0
SOLID
  5
988
100
AcDbEntity
  8
0
  6
BYBLOCK
 62
     0
100
AcDbTrace
 10
-1918.168916
 20
-1600.747095
 30
0.0
 11
-1918.168916
 21
-1601.580429
 31
0.0
 12
-1920.668916
 22
-1601.163762
 32
0.0
 13
-1920.668916
 23
-1601.163762
 33
0.0
  0
MTEXT
  5
989
100
AcDbEntity
  8
0
  6
BYBLOCK
 62
     0
100
AcDbMText
 10
-1915.668916
 20
-1599.038762
 30
0.0
 40
3.0
 41
0.0
 71
     5
 72
     1
  1
\A1;{50}
  0
POINT
  5
98A
100
AcDbEntity
  8
DEFPOINTS
  6
BYBLOCK
 62
     0
100
AcDbPoint
 10
-1910.668916
 20
-1587.360507
 30
0.0
  0
POINT
  5
98B
100
AcDbEntity
  8
DEFPOINTS
  6
BYBLOCK
 62
     0
100
AcDbPoint
 10
-1920.668916
 20
-1598.090864
 30
0.0
  0
POINT
  5
98C
100
AcDbEntity
  8
DEFPOINTS
  6
BYBLOCK
 62
     0
100
AcDbPoint
 10
-1920.668916
 20
-1601.163762
 30
0.0
  0
ENDBLK
  5
98D
100
AcDbEntity
  8
0
100
AcDbBlockEnd
  0
BLOCK
  5
9C0
100
AcDbEntity
  8
0
100
AcDbBlockBegin
  2
*D30
 70
    65
 10
0.0
 20
0.0
 30
0.0
  3
*D30
  1

  0
LINE
  5
9C1
100
AcDbEntity
  8
0
  6
BYBLOCK
 62
     0
100
AcDbLine
 10
-1829.340239
 20
-1414.559752
 30
0.0
 11
-1881.269798
 21
-1414.559752
 31
0.0
  0
LINE
  5
9C2
100
AcDbEntity
  8
0
  6
BYBLOCK
 62
     0
100
AcDbLine
 10
-1849.540239
 20
-1444.759752
 30
0.0
 11
-1881.269798
 21
-1444.759752
 31
0.0
  0
LINE
  5
9C3
100
AcDbEntity
  8
0
  6
BYBLOCK
 62
     0
100
AcDbLine
 10
-1880.019798
 20
-1417.059752
 30
0.0
 11
-1880.019798
 21
-1442.259752
 31
0.0
  0
SOLID
  5
9C4
100
AcDbEntity
  8
0
  6
BYBLOCK
 62
     0
100
AcDbTrace
 10
-1880.436464
 20
-1417.059752
 30
0.0
 11
-1879.603131
 21
-1417.059752
 31
0.0
 12
-1880.019798
 22
-1414.559752
 32
0.0
 13
-1880.019798
 23
-1414.559752
 33
0.0
  0
SOLID
  5
9C5
100
AcDbEntity
  8
0
  6
BYBLOCK
 62
     0
100
AcDbTrace
 10
-1880.436464
 20
-1442.259752
 30
0.0
 11
-1879.603131
 21
-1442.259752
 31
0.0
 12
-1880.019798
 22
-1444.759752
 32
0.0
 13
-1880.019798
 23
-1444.759752
 33
0.0
  0
MTEXT
  5
9C6
100
AcDbEntity
  8
0
  6
BYBLOCK
 62
     0
100
AcDbMText
 10
-1883.995979
 20
-1429.659752
 30
0.0
 40
3.0
 41
0.0
 71
     5
 72
     1
  1
\A1;30.2\S+0.1^  0;
 11
0.0
 21
1.0
 31
0.0
  0
POINT
  5
9C7
100
AcDbEntity
  8
DEFPOINTS
  6
BYBLOCK
 62
     0
100
AcDbPoint
 10
-1828.715239
 20
-1414.559752
 30
0.0
  0
POINT
  5
9C8
100
AcDbEntity
  8
DEFPOINTS
  6
BYBLOCK
 62
     0
100
AcDbPoint
 10
-1848.915239
 20
-1444.759752
 30
0.0
  0
POINT
  5
9C9
100
AcDbEntity
  8
DEFPOINTS
  6
BYBLOCK
 62
     0
100
AcDbPoint
 10
-1880.019798
 20
-1444.759752
 30
0.0
  0
ENDBLK
  5
9CA
100
AcDbEntity
  8
0
100
AcDbBlockEnd
  0
BLOCK
  5
9A8
100
AcDbEntity
  8
0
100
AcDbBlockBegin
  2
*D31
 70
    65
 10
0.0
 20
0.0
 30
0.0
  3
*D31
  1

  0
LINE
  5
9A9
100
AcDbEntity
  8
0
  6
BYBLOCK
 62
     0
100
AcDbLine
 10
-1849.540239
 20
-1444.759752
 30
0.0
 11
-1881.269798
 21
-1444.759752
 31
0.0
  0
LINE
  5
9AA
100
AcDbEntity
  8
0
  6
BYBLOCK
 62
     0
100
AcDbLine
 10
-1859.340239
 20
-1454.559752
 30
0.0
 11
-1881.269798
 21
-1454.559752
 31
0.0
  0
LINE
  5
9AB
100
AcDbEntity
  8
0
  6
BYBLOCK
 62
     0
100
AcDbLine
 10
-1880.019798
 20
-1442.259752
 30
0.0
 11
-1880.019798
 21
-1439.759752
 31
0.0
  0
LINE
  5
9AC
100
AcDbEntity
  8
0
  6
BYBLOCK
 62
     0
100
AcDbLine
 10
-1880.019798
 20
-1457.059752
 30
0.0
 11
-1880.019798
 21
-1459.559752
 31
0.0
  0
SOLID
  5
9AD
100
AcDbEntity
  8
0
  6
BYBLOCK
 62
     0
100
AcDbTrace
 10
-1880.436464
 20
-1442.259752
 30
0.0
 11
-1879.603131
 21
-1442.259752
 31
0.0
 12
-1880.019798
 22
-1444.759752
 32
0.0
 13
-1880.019798
 23
-1444.759752
 33
0.0
  0
SOLID
  5
9AE
100
AcDbEntity
  8
0
  6
BYBLOCK
 62
     0
100
AcDbTrace
 10
-1880.436464
 20
-1457.059752
 30
0.0
 11
-1879.603131
 21
-1457.059752
 31
0.0
 12
-1880.019798
 22
-1454.559752
 32
0.0
 13
-1880.019798
 23
-1454.559752
 33
0.0
  0
MTEXT
  5
9AF
100
AcDbEntity
  8
0
  6
BYBLOCK
 62
     0
100
AcDbMText
 10
-1882.144798
 20
-1449.659752
 30
0.0
 40
3.0
 41
0.0
 71
     5
 72
     1
  1
\A1;9.8
 11
0.0
 21
1.0
 31
0.0
  0
POINT
  5
9B0
100
AcDbEntity
  8
DEFPOINTS
  6
BYBLOCK
 62
     0
100
AcDbPoint
 10
-1848.915239
 20
-1444.759752
 30
0.0
  0
POINT
  5
9B1
100
AcDbEntity
  8
DEFPOINTS
  6
BYBLOCK
 62
     0
100
AcDbPoint
 10
-1858.715239
 20
-1454.559752
 30
0.0
  0
POINT
  5
9B2
100
AcDbEntity
  8
DEFPOINTS
  6
BYBLOCK
 62
     0
100
AcDbPoint
 10
-1880.019798
 20
-1454.559752
 30
0.0
  0
ENDBLK
  5
9B3
100
AcDbEntity
  8
0
100
AcDbBlockEnd
  0
BLOCK
  5
9D9
100
AcDbEntity
  8
QUOTE
100
AcDbBlockBegin
  2
A$C7154
 70
     0
 10
0.0
 20
0.0
 30
0.0
  3
A$C7154
  1

  0
TEXT
  5
9D5
100
AcDbEntity
  8
DISEGNO
100
AcDbText
 10
0.095028
 20
0.004601
 30
0.0
 40
2.5
  1
RISPETTO AL MASTER: P.97.88.R0.25
 41
1.1
100
AcDbText
  0
TEXT
  5
9D6
100
AcDbEntity
  8
DISEGNO
100
AcDbText
 10
0.095028
 20
4.754601
 30
0.0
 40
2.5
  1
AGLI SCOSTAMENTI AMMESSI
 41
1.1
100
AcDbText
  0
TEXT
  5
9D7
100
AcDbEntity
  8
DISEGNO
100
AcDbText
 10
0.095028
 20
9.504601
 30
0.0
 40
2.5
  1
SONO INDICATIVE E SI RIFERISCONO
 41
1.1
100
AcDbText
  0
TEXT
  5
9D8
100
AcDbEntity
  8
DISEGNO
100
AcDbText
 10
0.095028
 20
14.254601
 30
0.0
 40
2.5
  1
LE TOLLERANZE DEI PROFILI
 41
1.1
100
AcDbText
  0
ENDBLK
  5
9DA
100
AcDbEntity
  8
QUOTE
100
AcDbBlockEnd
  0
BLOCK
  5
A5D
100
AcDbEntity
  8
0
100
AcDbBlockBegin
  2
*X33
 70
    65
 10
0.0
 20
0.0
 30
0.0
  3
*X33
  1

  0
LINE
  5
A5F
100
AcDbEntity
  8
0
 62
     0
100
AcDbLine
 10
-1817.922382
 20
-1548.739205
 30
0.0
 11
-1816.81848
 21
-1547.635303
 31
0.0
  0
LINE
  5
A60
100
AcDbEntity
  8
0
 62
     0
100
AcDbLine
 10
-1816.81848
 20
-1547.635303
 30
0.0
 11
-1815.12108
 21
-1545.937903
 31
0.0
  0
LINE
  5
A61
100
AcDbEntity
  8
0
 62
     0
100
AcDbLine
 10
-1818.029734
 20
-1548.62205
 30
0.0
 11
-1816.81848
 21
-1547.410796
 31
0.0
  0
LINE
  5
A62
100
AcDbEntity
  8
0
 62
     0
100
AcDbLine
 10
-1816.81848
 20
-1547.410796
 30
0.0
 11
-1815.370336
 21
-1545.962652
 31
0.0
  0
LINE
  5
A63
100
AcDbEntity
  8
0
 62
     0
100
AcDbLine
 10
-1818.137086
 20
-1548.504896
 30
0.0
 11
-1816.81848
 21
-1547.18629
 31
0.0
  0
LINE
  5
A64
100
AcDbEntity
  8
0
 62
     0
100
AcDbLine
 10
-1816.81848
 20
-1547.18629
 30
0.0
 11
-1815.615315
 21
-1545.983125
 31
0.0
  0
LINE
  5
A65
100
AcDbEntity
  8
0
 62
     0
100
AcDbLine
 10
-1818.244438
 20
-1548.387742
 30
0.0
 11
-1816.81848
 21
-1546.961784
 31
0.0
  0
LINE
  5
A66
100
AcDbEntity
  8
0
 62
     0
100
AcDbLine
 10
-1816.81848
 20
-1546.961784
 30
0.0
 11
-1815.856247
 21
-1545.999551
 31
0.0
  0
LINE
  5
A67
100
AcDbEntity
  8
0
 62
     0
100
AcDbLine
 10
-1818.35179
 20
-1548.270588
 30
0.0
 11
-1816.81848
 21
-1546.737277
 31
0.0
  0
LINE
  5
A68
100
AcDbEntity
  8
0
 62
     0
100
AcDbLine
 10
-1816.81848
 20
-1546.737277
 30
0.0
 11
-1816.093338
 21
-1546.012135
 31
0.0
  0
LINE
  5
A69
100
AcDbEntity
  8
0
 62
     0
100
AcDbLine
 10
-1818.459143
 20
-1548.153433
 30
0.0
 11
-1816.81848
 21
-1546.512771
 31
0.0
  0
LINE
  5
A6A
100
AcDbEntity
  8
0
 62
     0
100
AcDbLine
 10
-1816.81848
 20
-1546.512771
 30
0.0
 11
-1816.326773
 21
-1546.021064
 31
0.0
  0
LINE
  5
A6B
100
AcDbEntity
  8
0
 62
     0
100
AcDbLine
 10
-1818.566495
 20
-1548.036279
 30
0.0
 11
-1816.81848
 21
-1546.288264
 31
0.0
  0
LINE
  5
A6C
100
AcDbEntity
  8
0
 62
     0
100
AcDbLine
 10
-1816.81848
 20
-1546.288264
 30
0.0
 11
-1816.556723
 21
-1546.026508
 31
0.0
  0
LINE
  5
A6D
100
AcDbEntity
  8
0
 62
     0
100
AcDbLine
 10
-1818.673847
 20
-1547.919125
 30
0.0
 11
-1816.81848
 21
-1546.063758
 31
0.0
  0
LINE
  5
A6E
100
AcDbEntity
  8
0
 62
     0
100
AcDbLine
 10
-1816.81848
 20
-1546.063758
 30
0.0
 11
-1816.783343
 21
-1546.028621
 31
0.0
  0
LINE
  5
A6F
100
AcDbEntity
  8
0
 62
     0
100
AcDbLine
 10
-1818.781199
 20
-1547.80197
 30
0.0
 11
-1817.006775
 21
-1546.027546
 31
0.0
  0
LINE
  5
A70
100
AcDbEntity
  8
0
 62
     0
100
AcDbLine
 10
-1818.888551
 20
-1547.684816
 30
0.0
 11
-1817.227148
 21
-1546.023413
 31
0.0
  0
LINE
  5
A71
100
AcDbEntity
  8
0
 62
     0
100
AcDbLine
 10
-1818.995903
 20
-1547.567662
 30
0.0
 11
-1817.444584
 21
-1546.016342
 31
0.0
  0
LINE
  5
A72
100
AcDbEntity
  8
0
 62
     0
100
AcDbLine
 10
-1819.103255
 20
-1547.450508
 30
0.0
 11
-1817.659192
 21
-1546.006444
 31
0.0
  0
LINE
  5
A73
100
AcDbEntity
  8
0
 62
     0
100
AcDbLine
 10
-1819.210607
 20
-1547.333353
 30
0.0
 11
-1817.871075
 21
-1545.993821
 31
0.0
  0
LINE
  5
A74
100
AcDbEntity
  8
0
 62
     0
100
AcDbLine
 10
-1819.31796
 20
-1547.216199
 30
0.0
 11
-1818.080328
 21
-1545.978568
 31
0.0
  0
LINE
  5
A75
100
AcDbEntity
  8
0
 62
     0
100
AcDbLine
 10
-1819.425312
 20
-1547.099045
 30
0.0
 11
-1818.28704
 21
-1545.960774
 31
0.0
  0
LINE
  5
A76
100
AcDbEntity
  8
0
 62
     0
100
AcDbLine
 10
-1819.532664
 20
-1546.981891
 30
0.0
 11
-1818.491294
 21
-1545.94052
 31
0.0
  0
LINE
  5
A77
100
AcDbEntity
  8
0
 62
     0
100
AcDbLine
 10
-1819.640016
 20
-1546.864736
 30
0.0
 11
-1818.693165
 21
-1545.917885
 31
0.0
  0
LINE
  5
A78
100
AcDbEntity
  8
0
 62
     0
100
AcDbLine
 10
-1819.747368
 20
-1546.747582
 30
0.0
 11
-1818.892725
 21
-1545.892939
 31
0.0
  0
LINE
  5
A79
100
AcDbEntity
  8
0
 62
     0
100
AcDbLine
 10
-1819.85472
 20
-1546.630428
 30
0.0
 11
-1819.090042
 21
-1545.865749
 31
0.0
  0
LINE
  5
A7A
100
AcDbEntity
  8
0
 62
     0
100
AcDbLine
 10
-1819.962072
 20
-1546.513273
 30
0.0
 11
-1819.285178
 21
-1545.83638
 31
0.0
  0
LINE
  5
A7B
100
AcDbEntity
  8
0
 62
     0
100
AcDbLine
 10
-1820.069424
 20
-1546.396119
 30
0.0
 11
-1819.478194
 21
-1545.804888
 31
0.0
  0
LINE
  5
A7C
100
AcDbEntity
  8
0
 62
     0
100
AcDbLine
 10
-1820.176777
 20
-1546.278965
 30
0.0
 11
-1819.669143
 21
-1545.771331
 31
0.0
  0
LINE
  5
A7D
100
AcDbEntity
  8
0
 62
     0
100
AcDbLine
 10
-1820.284129
 20
-1546.161811
 30
0.0
 11
-1819.858079
 21
-1545.73576
 31
0.0
  0
LINE
  5
A7E
100
AcDbEntity
  8
0
 62
     0
100
AcDbLine
 10
-1820.391481
 20
-1546.044656
 30
0.0
 11
-1820.04505
 21
-1545.698225
 31
0.0
  0
LINE
  5
A7F
100
AcDbEntity
  8
0
 62
     0
100
AcDbLine
 10
-1820.498833
 20
-1545.927502
 30
0.0
 11
-1820.230103
 21
-1545.658772
 31
0.0
  0
LINE
  5
A80
100
AcDbEntity
  8
0
 62
     0
100
AcDbLine
 10
-1820.606185
 20
-1545.810348
 30
0.0
 11
-1820.413283
 21
-1545.617445
 31
0.0
  0
LINE
  5
A81
100
AcDbEntity
  8
0
 62
     0
100
AcDbLine
 10
-1820.713537
 20
-1545.693193
 30
0.0
 11
-1820.59463
 21
-1545.574286
 31
0.0
  0
LINE
  5
A82
100
AcDbEntity
  8
0
 62
     0
100
AcDbLine
 10
-1820.820889
 20
-1545.576039
 30
0.0
 11
-1820.774183
 21
-1545.529333
 31
0.0
  0
LINE
  5
A83
100
AcDbEntity
  8
0
 62
     0
100
AcDbLine
 10
-1817.81503
 20
-1548.856359
 30
0.0
 11
-1816.81848
 21
-1547.859809
 31
0.0
  0
LINE
  5
A84
100
AcDbEntity
  8
0
 62
     0
100
AcDbLine
 10
-1816.81848
 20
-1547.859809
 30
0.0
 11
-1814.867295
 21
-1545.908625
 31
0.0
  0
LINE
  5
A85
100
AcDbEntity
  8
0
 62
     0
100
AcDbLine
 10
-1817.707678
 20
-1548.973513
 30
0.0
 11
-1816.81848
 21
-1548.084316
 31
0.0
  0
LINE
  5
A86
100
AcDbEntity
  8
0
 62
     0
100
AcDbLine
 10
-1816.81848
 20
-1548.084316
 30
0.0
 11
-1814.608697
 21
-1545.874533
 31
0.0
  0
LINE
  5
A87
100
AcDbEntity
  8
0
 62
     0
100
AcDbLine
 10
-1817.600326
 20
-1549.090668
 30
0.0
 11
-1816.81848
 21
-1548.308822
 31
0.0
  0
LINE
  5
A88
100
AcDbEntity
  8
0
 62
     0
100
AcDbLine
 10
-1816.81848
 20
-1548.308822
 30
0.0
 11
-1814.344967
 21
-1545.835309
 31
0.0
  0
LINE
  5
A89
100
AcDbEntity
  8
0
 62
     0
100
AcDbLine
 10
-1817.492974
 20
-1549.207822
 30
0.0
 11
-1816.81848
 21
-1548.533328
 31
0.0
  0
LINE
  5
A8A
100
AcDbEntity
  8
0
 62
     0
100
AcDbLine
 10
-1816.81848
 20
-1548.533328
 30
0.0
 11
-1814.075744
 21
-1545.790593
 31
0.0
  0
LINE
  5
A8B
100
AcDbEntity
  8
0
 62
     0
100
AcDbLine
 10
-1817.385124
 20
-1549.324478
 30
0.0
 11
-1816.81848
 21
-1548.757835
 31
0.0
  0
LINE
  5
A8C
100
AcDbEntity
  8
0
 62
     0
100
AcDbLine
 10
-1816.81848
 20
-1548.757835
 30
0.0
 11
-1813.800618
 21
-1545.739973
 31
0.0
  0
LINE
  5
A8D
100
AcDbEntity
  8
0
 62
     0
100
AcDbLine
 10
-1817.261815
 20
-1549.425676
 30
0.0
 11
-1816.81848
 21
-1548.982341
 31
0.0
  0
LINE
  5
A8E
100
AcDbEntity
  8
0
 62
     0
100
AcDbLine
 10
-1816.81848
 20
-1548.982341
 30
0.0
 11
-1813.51912
 21
-1545.682981
 31
0.0
  0
LINE
  5
A8F
100
AcDbEntity
  8
0
 62
     0
100
AcDbLine
 10
-1817.114573
 20
-1549.502941
 30
0.0
 11
-1816.81848
 21
-1549.206848
 31
0.0
  0
LINE
  5
A90
100
AcDbEntity
  8
0
 62
     0
100
AcDbLine
 10
-1816.81848
 20
-1549.206848
 30
0.0
 11
-1813.230705
 21
-1545.619073
 31
0.0
  0
LINE
  5
A91
100
AcDbEntity
  8
0
 62
     0
100
AcDbLine
 10
-1816.937913
 20
-1549.550787
 30
0.0
 11
-1816.81848
 21
-1549.431354
 31
0.0
  0
LINE
  5
A92
100
AcDbEntity
  8
0
 62
     0
100
AcDbLine
 10
-1816.81848
 20
-1549.431354
 30
0.0
 11
-1812.934743
 21
-1545.547617
 31
0.0
  0
LINE
  5
A93
100
AcDbEntity
  8
0
 62
     0
100
AcDbLine
 10
-1816.715749
 20
-1549.553129
 30
0.0
 11
-1813.66388
 21
-1546.50126
 31
0.0
  0
LINE
  5
A94
100
AcDbEntity
  8
0
 62
     0
100
AcDbLine
 10
-1816.335992
 20
-1549.397879
 30
0.0
 11
-1816.122648
 21
-1549.184535
 31
0.0
  0
ENDBLK
  5
A95
100
AcDbEntity
  8
0
100
AcDbBlockEnd
  0
BLOCK
  5
B0C
100
AcDbEntity
  8
0
100
AcDbBlockBegin
  2
*D34
 70
    65
 10
0.0
 20
0.0
 30
0.0
  3
*D34
  1

  0
LINE
  5
B0D
100
AcDbEntity
  8
0
  6
BYBLOCK
 62
     0
100
AcDbLine
 10
-1837.44348
 20
-1431.559752
 30
0.0
 11
-1856.423108
 21
-1431.559752
 31
0.0
  0
LINE
  5
B0E
100
AcDbEntity
  8
0
  6
BYBLOCK
 62
     0
100
AcDbLine
 10
-1824.44348
 20
-1444.559752
 30
0.0
 11
-1856.423108
 21
-1444.559752
 31
0.0
  0
LINE
  5
B0F
100
AcDbEntity
  8
0
  6
BYBLOCK
 62
     0
100
AcDbLine
 10
-1855.173108
 20
-1442.059752
 30
0.0
 11
-1855.173108
 21
-1434.059752
 31
0.0
  0
LINE
  5
B10
100
AcDbEntity
  8
0
  6
BYBLOCK
 62
     0
100
AcDbLine
 10
-1855.173108
 20
-1431.559752
 30
0.0
 11
-1855.173108
 21
-1417.804752
 31
0.0
  0
SOLID
  5
B11
100
AcDbEntity
  8
0
  6
BYBLOCK
 62
     0
100
AcDbTrace
 10
-1855.589775
 20
-1442.059752
 30
0.0
 11
-1854.756441
 21
-1442.059752
 31
0.0
 12
-1855.173108
 22
-1444.559752
 32
0.0
 13
-1855.173108
 23
-1444.559752
 33
0.0
  0
SOLID
  5
B12
100
AcDbEntity
  8
0
  6
BYBLOCK
 62
     0
100
AcDbTrace
 10
-1855.589775
 20
-1434.059752
 30
0.0
 11
-1854.756441
 21
-1434.059752
 31
0.0
 12
-1855.173108
 22
-1431.559752
 32
0.0
 13
-1855.173108
 23
-1431.559752
 33
0.0
  0
MTEXT
  5
B13
100
AcDbEntity
  8
0
  6
BYBLOCK
 62
     0
100
AcDbMText
 10
-1859.223994
 20
-1424.369752
 30
0.0
 40
3.0
 41
0.0
 71
     5
 72
     1
  1
\A1;13\S+0.2^  0;
 11
0.0
 21
1.0
 31
0.0
  0
POINT
  5
B14
100
AcDbEntity
  8
DEFPOINTS
  6
BYBLOCK
 62
     0
100
AcDbPoint
 10
-1836.81848
 20
-1431.559752
 30
0.0
  0
POINT
  5
B15
100
AcDbEntity
  8
DEFPOINTS
  6
BYBLOCK
 62
     0
100
AcDbPoint
 10
-1823.81848
 20
-1444.559752
 30
0.0
  0
POINT
  5
B16
100
AcDbEntity
  8
DEFPOINTS
  6
BYBLOCK
 62
     0
100
AcDbPoint
 10
-1855.173108
 20
-1444.559752
 30
0.0
  0
ENDBLK
  5
B17
100
AcDbEntity
  8
0
100
AcDbBlockEnd
  0
BLOCK
  5
B29
100
AcDbEntity
  8
QUOTE
100
AcDbBlockBegin
  2
A$CC003
 70
     0
 10
0.0
 20
0.0
 30
0.0
  3
A$CC003
  1

  0
MTEXT
  5
B1E
100
AcDbEntity
  8
QUOTE
100
AcDbMText
 10
0.261289
 20
0.136242
 30
0.0
 40
4.0
 41
0.0
 71
     7
 72
     1
  1
{CORREDATO DI DISEGNO COSTRUTTIVO M80-45-40/FR}
  0
LINE
  5
B1F
100
AcDbEntity
  8
FOGLIO
100
AcDbLine
 10
86.37656
 20
11.407286
 30
0.0
 11
86.37656
 21
12.407286
 31
0.0
  0
LINE
  5
B20
100
AcDbEntity
  8
FOGLIO
100
AcDbLine
 10
54.77656
 20
11.407286
 30
0.0
 11
54.77656
 21
12.407286
 31
0.0
  0
LINE
  5
B21
100
AcDbEntity
  8
FOGLIO
100
AcDbLine
 10
23.17656
 20
11.407286
 30
0.0
 11
23.17656
 21
12.407286
 31
0.0
  0
LINE
  5
B22
100
AcDbEntity
  8
FOGLIO
100
AcDbLine
 10
23.17656
 20
11.407286
 30
0.0
 11
23.17656
 21
7.407286
 31
0.0
  0
LINE
  5
B23
100
AcDbEntity
  8
FOGLIO
100
AcDbLine
 10
54.77656
 20
11.407286
 30
0.0
 11
54.77656
 21
7.407286
 31
0.0
  0
LINE
  5
B24
100
AcDbEntity
  8
FOGLIO
100
AcDbLine
 10
86.37656
 20
11.407286
 30
0.0
 11
86.37656
 21
7.407286
 31
0.0
  0
LINE
  5
B25
100
AcDbEntity
  8
FOGLIO
100
AcDbLine
 10
149.57656
 20
11.407286
 30
0.0
 11
149.57656
 21
12.407286
 31
0.0
  0
LINE
  5
B26
100
AcDbEntity
  8
FOGLIO
100
AcDbLine
 10
117.97656
 20
11.407286
 30
0.0
 11
117.97656
 21
12.407286
 31
0.0
  0
LINE
  5
B27
100
AcDbEntity
  8
FOGLIO
100
AcDbLine
 10
117.97656
 20
11.407286
 30
0.0
 11
117.97656
 21
7.407286
 31
0.0
  0
LINE
  5
B28
100
AcDbEntity
  8
FOGLIO
100
AcDbLine
 10
149.57656
 20
11.407286
 30
0.0
 11
149.57656
 21
7.407286
 31
0.0
  0
ENDBLK
  5
B2A
100
AcDbEntity
  8
QUOTE
100
AcDbBlockEnd
  0
ENDSEC
  0
SECTION
  2
ENTITIES
  0
ARC
  5
554
100
AcDbEntity
  8
DISEGNO
100
AcDbCircle
 10
-1816.81848
 20
-1548.759752
 30
0.0
 40
0.8
100
AcDbArc
 50
222.5
 51
317.5
1001
ACAD
1000
ASC_BOUNDS
1002
{
1070
    19
1005
0
1002
}
  0
LINE
  5
555
100
AcDbEntity
  8
DISEGNO
100
AcDbLine
 10
-1816.228658
 20
-1549.300225
 30
0.0
 11
-1812.81848
 21
-1545.578668
 31
0.0
1001
ACAD
1000
ASC_BOUNDS
1002
{
1070
    19
1002
}
  0
LINE
  5
556
100
AcDbEntity
  8
DISEGNO
100
AcDbLine
 10
-1817.408302
 20
-1549.300225
 30
0.0
 11
-1825.417469
 21
-1540.559752
 31
0.0
1001
ACAD
1000
ASC_BOUNDS
1002
{
1070
    19
1002
}
  0
LINE
  5
557
100
AcDbEntity
  8
DISEGNO
100
AcDbLine
 10
-1811.81848
 20
-1444.559752
 30
0.0
 11
-1823.81848
 21
-1444.559752
 31
0.0
  0
LINE
  5
558
100
AcDbEntity
  8
DISEGNO
100
AcDbLine
 10
-1823.81848
 20
-1444.559752
 30
0.0
 11
-1823.81848
 21
-1415.559752
 31
0.0
  0
LINE
  5
559
100
AcDbEntity
  8
DISEGNO
100
AcDbLine
 10
-1824.81848
 20
-1414.559752
 30
0.0
 11
-1835.81848
 21
-1414.559752
 31
0.0
  0
LINE
  5
55A
100
AcDbEntity
  8
DISEGNO
100
AcDbLine
 10
-1836.81848
 20
-1415.559752
 30
0.0
 11
-1836.81848
 21
-1431.559752
 31
0.0
  0
LINE
  5
55B
100
AcDbEntity
  8
DISEGNO
100
AcDbLine
 10
-1836.81848
 20
-1431.559752
 30
0.0
 11
-1833.31848
 21
-1431.559752
 31
0.0
  0
LINE
  5
55C
100
AcDbEntity
  8
DISEGNO
100
AcDbLine
 10
-1833.31848
 20
-1431.559752
 30
0.0
 11
-1833.31848
 21
-1439.959752
 31
0.0
  0
LINE
  5
55D
100
AcDbEntity
  8
DISEGNO
100
AcDbLine
 10
-1833.31848
 20
-1439.959752
 30
0.0
 11
-1836.81848
 21
-1439.959752
 31
0.0
  0
LINE
  5
55E
100
AcDbEntity
  8
DISEGNO
100
AcDbLine
 10
-1836.81848
 20
-1439.959752
 30
0.0
 11
-1836.81848
 21
-1444.759752
 31
0.0
  0
LINE
  5
55F
100
AcDbEntity
  8
DISEGNO
100
AcDbLine
 10
-1836.81848
 20
-1444.759752
 30
0.0
 11
-1856.01848
 21
-1444.759752
 31
0.0
  0
LINE
  5
560
100
AcDbEntity
  8
DISEGNO
100
AcDbLine
 10
-1865.81848
 20
-1454.559752
 30
0.0
 11
-1865.81848
 21
-1494.989598
 31
0.0
  0
LINE
  5
561
100
AcDbEntity
  8
DISEGNO
100
AcDbLine
 10
-1810.81848
 20
-1445.559752
 30
0.0
 11
-1810.81848
 21
-1452.559752
 31
0.0
  0
LINE
  5
562
100
AcDbEntity
  8
DISEGNO
100
AcDbLine
 10
-1810.81848
 20
-1452.559752
 30
0.0
 11
-1836.475334
 21
-1478.216607
 31
0.0
  0
LINE
  5
563
100
AcDbEntity
  8
DISEGNO
100
AcDbLine
 10
-1838.81848
 20
-1494.401754
 30
0.0
 11
-1838.81848
 21
-1483.873461
 31
0.0
  0
LINE
  5
564
100
AcDbEntity
  8
DISEGNO
100
AcDbLine
 10
-1865.81848
 20
-1454.559752
 30
0.0
 11
-1856.01848
 21
-1444.759752
 31
0.0
  0
LINE
  5
565
100
AcDbEntity
  8
DISEGNO
100
AcDbLine
 10
-1812.81848
 20
-1541.578668
 30
0.0
 11
-1812.81848
 21
-1545.578668
 31
0.0
1001
ACAD
1000
ASC_BOUNDS
1002
{
1070
    19
1002
}
  0
LINE
  5
566
100
AcDbEntity
  8
DISEGNO
100
AcDbLine
 10
-1812.81848
 20
-1541.578668
 30
0.0
 11
-1837.746683
 21
-1498.401754
 31
0.0
  0
ARC
  5
567
100
AcDbEntity
  8
DISEGNO
100
AcDbCircle
 10
-1830.81848
 20
-1494.401754
 30
0.0
 40
8.0
100
AcDbArc
 50
180.0
 51
210.0
  0
ARC
  5
568
100
AcDbEntity
  8
DISEGNO
100
AcDbCircle
 10
-1830.81848
 20
-1483.873461
 30
0.0
 40
8.0
100
AcDbArc
 50
135.0
 51
180.0
  0
LINE
  5
56A
100
AcDbEntity
  8
DISEGNO
100
AcDbLine
 10
-1825.417469
 20
-1540.559752
 30
0.0
 11
-1825.417469
 21
-1539.079565
 31
0.0
  0
LINE
  5
56C
100
AcDbEntity
  8
DISEGNO
100
AcDbLine
 10
-1825.417469
 20
-1539.079565
 30
0.0
 11
-1865.81848
 21
-1494.989598
 31
0.0
  0
LINE
  5
7F0
100
AcDbEntity
  8
DISEGNO
100
AcDbLine
 10
-1836.81848
 20
-1415.559752
 30
0.0
 11
-1835.81848
 21
-1414.559752
 31
0.0
  0
LINE
  5
7F1
100
AcDbEntity
  8
DISEGNO
100
AcDbLine
 10
-1823.81848
 20
-1415.559752
 30
0.0
 11
-1824.81848
 21
-1414.559752
 31
0.0
  0
LINE
  5
7F2
100
AcDbEntity
  8
DISEGNO
100
AcDbLine
 10
-1810.81848
 20
-1445.559752
 30
0.0
 11
-1811.81848
 21
-1444.559752
 31
0.0
  0
ENDSEC
  0
SECTION
  2
OBJECTS
  0
DICTIONARY
  5
C
100
AcDbDictionary
  3
ACAD_GROUP
350
D
  3
ACAD_MLINESTYLE
350
E
  0
DICTIONARY
  5
D
102
{ACAD_REACTORS
330
C
102
}
100
AcDbDictionary
  0
DICTIONARY
  5
E
102
{ACAD_REACTORS
330
C
102
}
100
AcDbDictionary
  3
STANDARD
350
1C
  0
MLINESTYLE
  5
1C
102
{ACAD_REACTORS
330
E
102
}
100
AcDbMlineStyle
  2
STANDARD
 70
     0
  3

 62
     0
 51
90.0
 52
90.0
 71
     2
 49
0.5
 62
   256
  6
BYLAYER
 49
-0.5
 62
   256
  6
BYLAYER
  0
ENDSEC
  0
EOF
