  0
SECTION
  2
HEADER
  9
$ACADVER
  1
AC1009
  9
$DWGCODEPAGE
  3
ansi_1252
  9
$INSBASE
 10
0.0
 20
0.0
 30
0.0
  9
$EXTMIN
 10
1.000E+20
 20
1.000E+20
 30
1.000E+20
  9
$EXTMAX
 10
-1.000E+20
 20
-1.000E+20
 30
-1.000E+20
  9
$LIMMIN
 10
0.0
 20
0.0
  9
$LIMMAX
 10
420.0
 20
297.0
  9
$ORTHOMODE
 70
     0
  9
$REGENMODE
 70
     1
  9
$FILLMODE
 70
     1
  9
$QTEXTMODE
 70
     0
  9
$MIRRTEXT
 70
     1
  9
$DRAGMODE
 70
     2
  9
$LTSCALE
 40
1.0
  9
$OSMODE
 70
    37
  9
$ATTMODE
 70
     1
  9
$TEXTSIZE
 40
2.5
  9
$TRACEWID
 40
1.0
  9
$TEXTSTYLE
  7
STANDARD
  9
$CLAYER
  8
0
  9
$CELTYPE
  6
BYLAYER
  9
$CECOLOR
 62
   256
  9
$DIMSCALE
 40
1.0
  9
$DIMASZ
 40
2.5
  9
$DIMEXO
 40
0.625
  9
$DIMDLI
 40
3.75
  9
$DIMRND
 40
0.0
  9
$DIMDLE
 40
0.0
  9
$DIMEXE
 40
1.25
  9
$DIMTP
 40
0.0
  9
$DIMTM
 40
0.0
  9
$DIMTXT
 40
2.5
  9
$DIMCEN
 40
2.5
  9
$DIMTSZ
 40
0.0
  9
$DIMTOL
 70
     0
  9
$DIMLIM
 70
     0
  9
$DIMTIH
 70
     0
  9
$DIMTOH
 70
     0
  9
$DIMSE1
 70
     0
  9
$DIMSE2
 70
     0
  9
$DIMTAD
 70
     1
  9
$DIMZIN
 70
     8
  9
$DIMBLK
  1

  9
$DIMASO
 70
     1
  9
$DIMSHO
 70
     1
  9
$DIMPOST
  1

  9
$DIMAPOST
  1

  9
$DIMALT
 70
     0
  9
$DIMALTD
 70
     3
  9
$DIMALTF
 40
0.039
  9
$DIMLFAC
 40
1.0
  9
$DIMTOFL
 70
     1
  9
$DIMTVP
 40
0.0
  9
$DIMTIX
 70
     0
  9
$DIMSOXD
 70
     0
  9
$DIMSAH
 70
     0
  9
$DIMBLK1
  1

  9
$DIMBLK2
  1

  9
$DIMSTYLE
  2
ISO-25
  9
$DIMCLRD
 70
     0
  9
$DIMCLRE
 70
     0
  9
$DIMCLRT
 70
     0
  9
$DIMTFAC
 40
1.0
  9
$DIMGAP
 40
0.625
  9
$LUNITS
 70
     2
  9
$LUPREC
 70
     4
  9
$SKETCHINC
 40
1.0
  9
$FILLETRAD
 40
10.0
  9
$AUNITS
 70
     0
  9
$AUPREC
 70
     0
  9
$MENU
  1
.
  9
$ELEVATION
 40
0.0
  9
$PELEVATION
 40
0.0
  9
$THICKNESS
 40
0.0
  9
$LIMCHECK
 70
     0
  9
$CHAMFERA
 40
0.0
  9
$CHAMFERB
 40
0.0
  9
$SKPOLY
 70
     0
  9
$TDCREATE
 40
2457619.628858739
  9
$TDUPDATE
 40
2457619.628859085
  9
$TDINDWG
 40
0.0000000116
  9
$TDUSRTIMER
 40
0.0000000116
  9
$USRTIMER
 70
     1
  9
$ANGBASE
 50
0.0
  9
$ANGDIR
 70
     0
  9
$PDMODE
 70
     0
  9
$PDSIZE
 40
0.0
  9
$PLINEWID
 40
0.0
  9
$COORDS
 70
     1
  9
$SPLFRAME
 70
     0
  9
$SPLINETYPE
 70
     6
  9
$SPLINESEGS
 70
     8
  9
$ATTDIA
 70
     0
  9
$ATTREQ
 70
     1
  9
$HANDLING
 70
     1
  9
$HANDSEED
  5
165
  9
$SURFTAB1
 70
     6
  9
$SURFTAB2
 70
     6
  9
$SURFTYPE
 70
     6
  9
$SURFU
 70
     6
  9
$SURFV
 70
     6
  9
$UCSNAME
  2

  9
$UCSORG
 10
0.0
 20
0.0
 30
0.0
  9
$UCSXDIR
 10
1.0
 20
0.0
 30
0.0
  9
$UCSYDIR
 10
0.0
 20
1.0
 30
0.0
  9
$PUCSNAME
  2

  9
$PUCSORG
 10
0.0
 20
0.0
 30
0.0
  9
$PUCSXDIR
 10
1.0
 20
0.0
 30
0.0
  9
$PUCSYDIR
 10
0.0
 20
1.0
 30
0.0
  9
$USERI1
 70
     0
  9
$USERI2
 70
     0
  9
$USERI3
 70
     0
  9
$USERI4
 70
     0
  9
$USERI5
 70
     0
  9
$USERR1
 40
0.0
  9
$USERR2
 40
0.0
  9
$USERR3
 40
0.0
  9
$USERR4
 40
0.0
  9
$USERR5
 40
0.0
  9
$WORLDVIEW
 70
     1
  9
$SHADEDGE
 70
     3
  9
$SHADEDIF
 70
    70
  9
$TILEMODE
 70
     1
  9
$MAXACTVP
 70
    64
  9
$PLIMCHECK
 70
     0
  9
$PEXTMIN
 10
1.000E+20
 20
1.000E+20
 30
1.000E+20
  9
$PEXTMAX
 10
-1.000E+20
 20
-1.000E+20
 30
-1.000E+20
  9
$PLIMMIN
 10
0.0
 20
0.0
  9
$PLIMMAX
 10
420.0
 20
297.0
  9
$UNITMODE
 70
     0
  9
$VISRETAIN
 70
     1
  9
$PLINEGEN
 70
     0
  9
$PSLTSCALE
 70
     1
  0
ENDSEC
  0
SECTION
  2
TABLES
  0
TABLE
  2
VPORT
 70
     1
  0
VPORT
  2
*ACTIVE
 70
     0
 10
0.0
 20
0.0
 11
1.0
 21
1.0
 12
344.187
 22
148.5
 13
0.0
 23
0.0
 14
10.0
 24
10.0
 15
10.0
 25
10.0
 16
0.0
 26
0.0
 36
1.0
 17
0.0
 27
0.0
 37
0.0
 40
297.0
 41
1.973
 42
50.0
 43
0.0
 44
0.0
 50
0.0
 51
0.0
 71
     0
 72
   100
 73
     1
 74
     3
 75
     0
 76
     0
 77
     0
 78
     0
  0
ENDTAB
  0
TABLE
  2
LTYPE
 70
     4
  0
LTYPE
  2
CONTINUOUS
 70
     0
  3
Solid line
 72
    65
 73
     0
 40
0.0
  0
LTYPE
  2
DASHDOT
 70
     0
  3
Dash dot __ . __ . __ . __ . __ . __ . __ . __
 72
    65
 73
     4
 40
25.4
 49
12.7
 49
-6.35
 49
0.0
 49
-6.35
  0
LTYPE
  2
HIDDEN2
 70
     0
  3
Hidden (.5x) _ _ _ _ _ _ _ _ _ _ _ _ _ _ _ _ _ 
 72
    65
 73
     2
 40
4.762
 49
3.175
 49
-1.587
  0
LTYPE
  2
CENTER2
 70
     0
  3
Center (.5x) ___ _ ___ _ ___ _ ___ _ ___ _ ___
 72
    65
 73
     4
 40
28.575
 49
19.05
 49
-3.175
 49
3.175
 49
-3.175
  0
ENDTAB
  0
TABLE
  2
LAYER
 70
    11
  0
LAYER
  2
0
 70
     0
 62
     7
  6
CONTINUOUS
  0
LAYER
  2
DISEGNO
 70
     0
 62
     7
  6
CONTINUOUS
  0
LAYER
  2
ASSI
 70
     0
 62
     1
  6
DASHDOT
  0
LAYER
  2
SEZIONE
 70
     0
 62
     3
  6
CONTINUOUS
  0
LAYER
  2
TEMPRA
 70
     0
 62
     2
  6
CONTINUOUS
  0
LAYER
  2
QUOTE
 70
     0
 62
     5
  6
CONTINUOUS
  0
LAYER
  2
FOGLIO
 70
     0
 62
     8
  6
CONTINUOUS
  0
LAYER
  2
TRATTO
 70
     0
 62
     6
  6
HIDDEN2
  0
LAYER
  2
DEFPOINTS
 70
     0
 62
     7
  6
CONTINUOUS
  0
LAYER
  2
OGGETTO
 70
     0
 62
   250
  6
CONTINUOUS
  0
LAYER
  2
CENTRO
 70
     0
 62
     3
  6
CENTER2
  0
ENDTAB
  0
TABLE
  2
STYLE
 70
     3
  0
STYLE
  2
STANDARD
 70
     0
 40
0.0
 41
1.0
 50
0.0
 71
     0
 42
2.5
  3
txt
  4

  0
STYLE
  2
DEFAULT
 70
     0
 40
0.0
 41
1.0
 50
0.0
 71
     0
 42
2.5
  3

  4

  0
STYLE
  2
STYLE3
 70
     0
 40
0.0
 41
1.0
 50
0.0
 71
     0
 42
2.5
  3

  4

  0
ENDTAB
  0
TABLE
  2
VIEW
 70
     0
  0
ENDTAB
  0
TABLE
  2
UCS
 70
     0
  0
ENDTAB
  0
TABLE
  2
APPID
 70
     1
  0
APPID
  2
ACAD
 70
     0
  0
ENDTAB
  0
TABLE
  2
DIMSTYLE
 70
     9
  0
DIMSTYLE
  2
ISO-25
 70
     0
  3
<>
  4

  5

  6

  7

 40
1.0
 41
2.5
 42
0.729
 43
3.75
 44
1.458
 45
0.0
 46
0.0
 47
0.0
 48
0.0
140
3.5
141
2.5
142
0.0
143
0.039
144
1.0
145
0.0
146
1.0
147
1.458
 71
     0
 72
     0
 73
     0
 74
     0
 75
     0
 76
     0
 77
     1
 78
     8
170
     0
171
     3
172
     1
173
     0
174
     0
175
     0
176
     0
177
     0
178
     2
  0
DIMSTYLE
  2
DEFAULT
 70
     0
  3
<>
  4

  5
CLOSED
  6

  7

 40
1.0
 41
4.375
 42
1.05
 43
0.38
 44
2.1
 45
0.0
 46
0.0
 47
0.0
 48
0.0
140
3.5
141
0.09
142
0.0
143
25.4
144
1.0
145
0.0
146
0.4
147
1.75
 71
     0
 72
     0
 73
     0
 74
     0
 75
     0
 76
     0
 77
     1
 78
     8
170
     0
171
     2
172
     1
173
     0
174
     0
175
     0
176
     0
177
     0
178
     2
  0
DIMSTYLE
  2
DEFAULTDIMENSIONSTYLE
 70
     0
  3
<>
  4

  5

  6

  7

 40
1.0
 41
2.5
 42
0.729
 43
0.38
 44
1.458
 45
0.0
 46
0.0
 47
0.0
 48
0.0
140
3.5
141
0.09
142
0.0
143
25.4
144
1.0
145
0.0
146
1.0
147
1.458
 71
     0
 72
     0
 73
     0
 74
     0
 75
     0
 76
     0
 77
     1
 78
     8
170
     0
171
     2
172
     1
173
     0
174
     0
175
     0
176
     0
177
     0
178
     2
  0
DIMSTYLE
  2
TOLL-06
 70
     0
  3
<>
  4

  5

  6

  7

 40
1.0
 41
2.5
 42
0.729
 43
0.38
 44
1.458
 45
0.0
 46
0.0
 47
0.1
 48
0.1
140
3.5
141
0.09
142
0.0
143
25.4
144
1.0
145
0.0
146
0.8
147
1.458
 71
     1
 72
     0
 73
     0
 74
     0
 75
     0
 76
     0
 77
     1
 78
     8
170
     0
171
     2
172
     1
173
     0
174
     0
175
     0
176
     0
177
     0
178
     2
  0
DIMSTYLE
  2
TOLL-01
 70
     0
  3
<>
  4

  5

  6

  7

 40
1.0
 41
2.5
 42
0.729
 43
0.38
 44
1.458
 45
0.0
 46
0.0
 47
0.02
 48
0.0
140
3.5
141
0.09
142
0.0
143
25.4
144
1.0
145
0.0
146
0.8
147
1.458
 71
     1
 72
     0
 73
     0
 74
     0
 75
     0
 76
     0
 77
     1
 78
     8
170
     0
171
     2
172
     1
173
     0
174
     0
175
     0
176
     0
177
     0
178
     2
  0
DIMSTYLE
  2
TOLL-02
 70
     0
  3
<>
  4

  5

  6

  7

 40
1.0
 41
2.5
 42
0.729
 43
0.38
 44
1.458
 45
0.0
 46
0.0
 47
0.0
 48
-0.02
140
3.5
141
0.09
142
0.0
143
25.4
144
1.0
145
0.0
146
0.8
147
1.458
 71
     1
 72
     0
 73
     0
 74
     0
 75
     0
 76
     0
 77
     1
 78
     8
170
     0
171
     2
172
     1
173
     0
174
     0
175
     0
176
     0
177
     0
178
     2
  0
DIMSTYLE
  2
TOLL-03
 70
     0
  3
<>
  4

  5

  6

  7

 40
1.0
 41
2.5
 42
0.729
 43
0.38
 44
1.458
 45
0.0
 46
0.0
 47
0.01
 48
0.01
140
3.5
141
0.09
142
0.0
143
25.4
144
1.0
145
0.0
146
0.8
147
1.458
 71
     1
 72
     0
 73
     0
 74
     0
 75
     0
 76
     0
 77
     1
 78
     8
170
     0
171
     2
172
     1
173
     0
174
     0
175
     0
176
     0
177
     0
178
     2
  0
DIMSTYLE
  2
TOLL-04
 70
     0
  3
<>
  4

  5

  6

  7

 40
1.0
 41
2.5
 42
0.729
 43
0.38
 44
1.458
 45
0.0
 46
0.0
 47
0.05
 48
0.05
140
3.5
141
0.09
142
0.0
143
25.4
144
1.0
145
0.0
146
0.8
147
1.458
 71
     1
 72
     0
 73
     0
 74
     0
 75
     0
 76
     0
 77
     1
 78
     8
170
     0
171
     2
172
     1
173
     0
174
     0
175
     0
176
     0
177
     0
178
     2
  0
DIMSTYLE
  2
TOLL-05
 70
     0
  3
<>
  4

  5

  6

  7

 40
1.0
 41
2.5
 42
0.729
 43
0.38
 44
1.458
 45
0.0
 46
0.0
 47
0.1
 48
0.0
140
3.5
141
0.09
142
0.0
143
25.4
144
1.0
145
0.0
146
0.8
147
1.458
 71
     1
 72
     0
 73
     0
 74
     0
 75
     0
 76
     0
 77
     1
 78
     8
170
     0
171
     2
172
     1
173
     0
174
     0
175
     0
176
     0
177
     0
178
     2
  0
ENDTAB
  0
ENDSEC
  0
SECTION
  2
BLOCKS
  0
BLOCK
  8
0
  2
$MODEL_SPACE
 70
     0
 10
0.0
 20
0.0
 30
0.0
  3
$MODEL_SPACE
  1

  0
ENDBLK
  5
21
  8
0
  0
BLOCK
 67
     1
  8
0
  2
$PAPER_SPACE
 70
     0
 10
0.0
 20
0.0
 30
0.0
  3
$PAPER_SPACE
  1

  0
ENDBLK
  5
1D
 67
     1
  8
0
  0
BLOCK
  8
0
  2
_CLOSED
 70
     0
 10
0.0
 20
0.0
 30
0.0
  3
_CLOSED
  1

  0
LINE
  5
81
  8
0
  6
BYBLOCK
 62
     0
 10
-1.0
 20
0.167
 30
0.0
 11
0.0
 21
0.0
 31
0.0
  0
LINE
  5
82
  8
0
  6
BYBLOCK
 62
     0
 10
0.0
 20
0.0
 30
0.0
 11
-1.0
 21
-0.167
 31
0.0
  0
LINE
  5
83
  8
0
  6
BYBLOCK
 62
     0
 10
-1.0
 20
0.167
 30
0.0
 11
-1.0
 21
-0.167
 31
0.0
  0
LINE
  5
84
  8
0
  6
BYBLOCK
 62
     0
 10
0.0
 20
0.0
 30
0.0
 11
-1.0
 21
0.0
 31
0.0
  0
ENDBLK
  5
80
  8
0
  0
BLOCK
  8
0
  2
_X16
 70
     0
 10
447.604
 20
-82.371
 30
0.0
  3
_X16
  1

  0
LINE
  5
A3
  8
0
  6
CONTINUOUS
 62
     0
 10
531.36
 20
118.129
 30
0.0
 11
532.104
 21
118.872
 31
0.0
  0
LINE
  5
A4
  8
0
  6
CONTINUOUS
 62
     0
 10
534.36
 20
121.129
 30
0.0
 11
540.502
 21
127.27
 31
0.0
  0
LINE
  5
A5
  8
0
  6
CONTINUOUS
 62
     0
 10
526.87
 20
118.129
 30
0.0
 11
536.357
 21
127.616
 31
0.0
  0
LINE
  5
A6
  8
0
  6
CONTINUOUS
 62
     0
 10
526.604
 20
122.353
 30
0.0
 11
532.339
 21
128.087
 31
0.0
  0
LINE
  5
A7
  8
0
  6
CONTINUOUS
 62
     0
 10
538.851
 20
121.129
 30
0.0
 11
542.145
 21
124.424
 31
0.0
  0
ENDBLK
  5
A9
  8
0
  0
BLOCK
  8
0
  2
_X17
 70
     0
 10
447.604
 20
-82.371
 30
0.0
  3
_X17
  1

  0
LINE
  5
B7
  8
0
  6
CONTINUOUS
 62
     0
 10
532.486
 20
96.804
 30
0.0
 11
539.811
 21
104.129
 31
0.0
  0
LINE
  5
B8
  8
0
  6
CONTINUOUS
 62
     0
 10
529.223
 20
98.031
 30
0.0
 11
535.321
 21
104.129
 31
0.0
  0
LINE
  5
B9
  8
0
  6
CONTINUOUS
 62
     0
 10
526.604
 20
99.902
 30
0.0
 11
532.104
 21
105.402
 31
0.0
  0
LINE
  5
BA
  8
0
  6
CONTINUOUS
 62
     0
 10
526.604
 20
104.392
 30
0.0
 11
529.341
 21
107.129
 31
0.0
  0
LINE
  5
BB
  8
0
  6
CONTINUOUS
 62
     0
 10
537.497
 20
97.325
 30
0.0
 11
542.604
 21
102.432
 31
0.0
  0
ENDBLK
  5
BD
  8
0
  0
BLOCK
  8
0
  2
LW_POLYLINE_1
 70
     0
 10
526.604
 20
99.015
 30
0.0
  3
LW_POLYLINE_1
  1

  0
LINE
  5
C2
  8
OGGETTO
  6
CONTINUOUS
 10
526.604
 20
99.015
 30
0.0
 11
533.651
 21
96.366
 31
0.0
  0
LINE
  5
C3
  8
OGGETTO
  6
CONTINUOUS
 10
533.651
 20
96.366
 30
0.0
 11
538.205
 21
97.501
 31
0.0
  0
LINE
  5
C4
  8
OGGETTO
  6
CONTINUOUS
 10
538.205
 20
97.501
 30
0.0
 11
540.112
 21
96.739
 31
0.0
  0
ENDBLK
  5
C6
  8
0
  0
BLOCK
  8
0
  2
LW_POLYLINE_2
 70
     0
 10
526.604
 20
126.264
 30
0.0
  3
LW_POLYLINE_2
  1

  0
LINE
  5
D9
  8
OGGETTO
  6
CONTINUOUS
 10
526.604
 20
126.264
 30
0.0
 11
531.754
 21
128.156
 31
0.0
  0
LINE
  5
DA
  8
OGGETTO
  6
CONTINUOUS
 10
531.754
 20
128.156
 30
0.0
 11
538.205
 21
127.399
 31
0.0
  0
LINE
  5
DB
  8
OGGETTO
  6
CONTINUOUS
 10
538.205
 20
127.399
 30
0.0
 11
540.113
 21
127.943
 31
0.0
  0
ENDBLK
  5
DD
  8
0
  0
BLOCK
  8
0
  2
_TD_DIMENSION_1
 70
     0
 10
478.638
 20
55.251
 30
0.0
  3
_TD_DIMENSION_1
  1

  0
LINE
  5
119
  8
QUOTE
 62
    18
 10
489.47
 20
100.492
 30
0.0
 11
482.138
 21
55.251
 31
0.0
  0
LINE
  5
11A
  8
QUOTE
 62
    18
 10
482.138
 20
55.251
 30
0.0
 11
479.638
 21
55.251
 31
0.0
  0
POLYLINE
  5
11B
  8
QUOTE
 62
     2
 66
     1
 10
0.0
 20
0.0
 30
0.0
  0
VERTEX
  5
14B
  8
QUOTE
 62
     2
 10
489.949
 20
100.414
 30
0.0
  0
VERTEX
  5
14C
  8
QUOTE
 62
     2
 10
489.87
 20
102.959
 30
0.0
  0
VERTEX
  5
14D
  8
QUOTE
 62
     2
 10
488.992
 20
100.569
 30
0.0
  0
VERTEX
  5
14E
  8
QUOTE
 62
     2
 10
489.949
 20
100.414
 30
0.0
  0
SEQEND
  5
15F
  8
QUOTE
 62
     2
  0
POLYLINE
  5
11C
  8
QUOTE
 62
     3
 66
     1
 10
0.0
 20
0.0
 30
0.0
  0
VERTEX
  5
14F
  8
QUOTE
 62
     3
 10
478.638
 20
55.251
 30
0.0
  0
VERTEX
  5
150
  8
QUOTE
 62
     3
 10
479.638
 20
55.251
 30
0.0
  0
SEQEND
  5
160
  8
QUOTE
 62
     3
  0
ENDBLK
  5
11F
  8
0
  0
BLOCK
  8
0
  2
_TD_DIMENSION_2
 70
     0
 10
511.652
 20
61.612
 30
0.0
  3
_TD_DIMENSION_2
  1

  0
LINE
  5
121
  8
QUOTE
 62
    18
 10
517.012
 20
102.685
 30
0.0
 11
519.019
 21
61.612
 31
0.0
  0
LINE
  5
122
  8
QUOTE
 62
    18
 10
519.019
 20
61.612
 30
0.0
 11
521.519
 21
61.612
 31
0.0
  0
POLYLINE
  5
123
  8
QUOTE
 62
     2
 66
     1
 10
0.0
 20
0.0
 30
0.0
  0
VERTEX
  5
151
  8
QUOTE
 62
     2
 10
517.496
 20
102.709
 30
0.0
  0
VERTEX
  5
152
  8
QUOTE
 62
     2
 10
516.89
 20
105.182
 30
0.0
  0
VERTEX
  5
153
  8
QUOTE
 62
     2
 10
516.528
 20
102.662
 30
0.0
  0
VERTEX
  5
154
  8
QUOTE
 62
     2
 10
517.496
 20
102.709
 30
0.0
  0
SEQEND
  5
161
  8
QUOTE
 62
     2
  0
POLYLINE
  5
124
  8
QUOTE
 62
     3
 66
     1
 10
0.0
 20
0.0
 30
0.0
  0
VERTEX
  5
155
  8
QUOTE
 62
     3
 10
521.519
 20
61.612
 30
0.0
  0
VERTEX
  5
156
  8
QUOTE
 62
     3
 10
522.519
 20
61.612
 30
0.0
  0
SEQEND
  5
162
  8
QUOTE
 62
     3
  0
ENDBLK
  5
127
  8
0
  0
BLOCK
  8
0
  2
_TD_DIMENSION_3
 70
     0
 10
534.643
 20
109.852
 30
0.0
  3
_TD_DIMENSION_3
  1

  0
LINE
  5
129
  8
QUOTE
 62
    18
 10
544.919
 20
117.978
 30
0.0
 11
558.785
 21
126.196
 31
0.0
  0
LINE
  5
12A
  8
QUOTE
 62
    18
 10
558.785
 20
126.196
 30
0.0
 11
561.285
 21
126.196
 31
0.0
  0
POLYLINE
  5
12B
  8
QUOTE
 62
     2
 66
     1
 10
0.0
 20
0.0
 30
0.0
  0
VERTEX
  5
157
  8
QUOTE
 62
     2
 10
544.672
 20
118.395
 30
0.0
  0
VERTEX
  5
158
  8
QUOTE
 62
     2
 10
542.769
 20
116.703
 30
0.0
  0
VERTEX
  5
159
  8
QUOTE
 62
     2
 10
545.167
 20
117.56
 30
0.0
  0
VERTEX
  5
15A
  8
QUOTE
 62
     2
 10
544.672
 20
118.395
 30
0.0
  0
SEQEND
  5
163
  8
QUOTE
 62
     2
  0
POLYLINE
  5
12C
  8
QUOTE
 62
     3
 66
     1
 10
0.0
 20
0.0
 30
0.0
  0
VERTEX
  5
15B
  8
QUOTE
 62
     3
 10
561.285
 20
126.196
 30
0.0
  0
VERTEX
  5
15C
  8
QUOTE
 62
     3
 10
562.285
 20
126.196
 30
0.0
  0
SEQEND
  5
164
  8
QUOTE
 62
     3
  0
ENDBLK
  5
12F
  8
0
  0
BLOCK
  8
0
  2
GRUPPO
 70
     0
 10
97.836
 20
128.532
 30
0.0
  3
GRUPPO
  1

  0
LINE
  5
131
  8
DISEGNO
 10
101.336
 20
96.032
 30
0.0
 11
94.336
 21
96.032
 31
0.0
  0
LINE
  5
132
  8
DISEGNO
 10
94.336
 20
96.032
 30
0.0
 11
94.336
 21
121.032
 31
0.0
  0
LINE
  5
133
  8
DISEGNO
 10
94.336
 20
121.032
 30
0.0
 11
87.836
 21
121.032
 31
0.0
  0
LINE
  5
134
  8
DISEGNO
 10
101.336
 20
146.032
 30
0.0
 11
101.336
 21
161.032
 31
0.0
  0
LINE
  5
135
  8
DISEGNO
 10
101.336
 20
161.032
 30
0.0
 11
107.836
 21
161.032
 31
0.0
  0
LINE
  5
136
  8
DISEGNO
 10
107.836
 20
161.032
 30
0.0
 11
107.836
 21
152.532
 31
0.0
  0
LINE
  5
137
  8
DISEGNO
 10
107.836
 20
148.332
 30
0.0
 11
107.836
 21
121.032
 31
0.0
  0
LINE
  5
138
  8
DISEGNO
 10
107.836
 20
121.032
 30
0.0
 11
101.336
 21
121.032
 31
0.0
  0
LINE
  5
139
  8
DISEGNO
 10
101.336
 20
121.032
 30
0.0
 11
101.336
 21
96.032
 31
0.0
  0
LINE
  5
13A
  8
DISEGNO
 10
107.836
 20
152.532
 30
0.0
 11
106.086
 21
152.532
 31
0.0
  0
LINE
  5
13B
  8
DISEGNO
 10
106.086
 20
152.532
 30
0.0
 11
106.086
 21
148.332
 31
0.0
  0
LINE
  5
13C
  8
DISEGNO
 10
106.086
 20
148.332
 30
0.0
 11
107.836
 21
148.332
 31
0.0
  0
LINE
  5
13D
  8
DISEGNO
 10
87.836
 20
146.032
 30
0.0
 11
101.336
 21
146.032
 31
0.0
  0
LINE
  5
13E
  8
DISEGNO
 10
87.836
 20
146.032
 30
0.0
 11
87.836
 21
121.032
 31
0.0
  0
ENDBLK
  5
140
  8
0
  0
ENDSEC
  0
SECTION
  2
ENTITIES
  0
LINE
  5
8C
  8
DISEGNO
 10
485.463
 20
172.571
 30
0.0
 11
512.463
 21
172.571
 31
0.0
  0
LINE
  5
8D
  8
DISEGNO
 10
512.463
 20
154.62
 30
0.0
 11
485.463
 21
154.62
 31
0.0
  0
LINE
  5
8E
  8
DISEGNO
 10
512.463
 20
72.571
 30
0.0
 11
498.463
 21
72.571
 31
0.0
  0
LINE
  5
8F
  8
DISEGNO
 10
521.963
 20
185.571
 30
0.0
 11
521.963
 21
177.171
 31
0.0
  0
LINE
  5
90
  8
DISEGNO
 10
512.463
 20
172.571
 30
0.0
 11
512.463
 21
202.571
 31
0.0
  0
LINE
  5
91
  8
ASSI
 10
505.463
 20
22.571
 30
0.0
 11
505.463
 21
174.165
 31
0.0
  0
LINE
  5
92
  8
DISEGNO
 10
512.463
 20
122.571
 30
0.0
 11
512.463
 21
116.629
 31
0.0
  0
LINE
  5
93
  8
DISEGNO
 10
525.463
 20
177.171
 30
0.0
 11
525.463
 21
122.571
 31
0.0
  0
LINE
  5
94
  8
DISEGNO
 10
525.463
 20
122.571
 30
0.0
 11
512.463
 21
122.571
 31
0.0
  0
LINE
  5
95
  8
DISEGNO
 10
521.963
 20
177.171
 30
0.0
 11
525.463
 21
177.171
 31
0.0
  0
LINE
  5
96
  8
DISEGNO
 10
512.463
 20
172.571
 30
0.0
 11
512.463
 21
154.62
 31
0.0
  0
LINE
  5
97
  8
DISEGNO
 10
525.463
 20
185.571
 30
0.0
 11
521.963
 21
185.571
 31
0.0
  0
LINE
  5
98
  8
DISEGNO
 10
512.463
 20
202.571
 30
0.0
 11
525.463
 21
202.571
 31
0.0
  0
LINE
  5
99
  8
DISEGNO
 10
525.463
 20
202.571
 30
0.0
 11
525.463
 21
185.571
 31
0.0
  0
LINE
  5
9A
  8
ASSI
 10
505.463
 20
186.205
 30
0.0
 11
505.463
 21
190.8
 31
0.0
  0
LINE
  5
9B
  8
ASSI
 10
505.463
 20
201.451
 30
0.0
 11
505.463
 21
213.052
 31
0.0
  0
LINE
  5
9C
  8
DISEGNO
 10
498.463
 20
72.571
 30
0.0
 11
498.463
 21
122.571
 31
0.0
  0
LINE
  5
9D
  8
DISEGNO
 10
485.463
 20
172.571
 30
0.0
 11
485.463
 21
122.571
 31
0.0
  0
LINE
  5
9E
  8
DISEGNO
 10
498.463
 20
122.571
 30
0.0
 11
485.463
 21
122.571
 31
0.0
  0
LINE
  5
9F
  8
ASSI
 10
512.463
 20
112.571
 30
0.0
 11
540.752
 21
112.571
 31
0.0
  0
LINE
  5
A0
  8
DISEGNO
 10
532.104
 20
117.629
 30
0.0
 11
523.434
 21
117.629
 31
0.0
  0
LINE
  5
A1
  8
CENTRO
  6
CENTER2
 10
549.589
 20
112.571
 30
0.0
 11
512.022
 21
112.571
 31
0.0
  0
INSERT
  5
AA
  8
OGGETTO
  6
CONTINUOUS
  2
_X16
 10
447.604
 20
-82.371
 30
0.0
  0
LINE
  5
AB
  8
OGGETTO
  6
CONTINUOUS
 10
532.104
 20
118.129
 30
0.0
 11
532.104
 21
121.129
 31
0.0
  0
LINE
  5
AC
  8
OGGETTO
  6
CONTINUOUS
 10
526.604
 20
126.264
 30
0.0
 11
526.604
 21
118.129
 31
0.0
  0
LINE
  5
AD
  8
OGGETTO
  6
CONTINUOUS
 10
532.104
 20
121.129
 30
0.0
 11
532.104
 21
118.129
 31
0.0
  0
LINE
  5
AE
  8
OGGETTO
  6
CONTINUOUS
 10
532.104
 20
121.129
 30
0.0
 11
532.104
 21
104.129
 31
0.0
  0
LINE
  5
AF
  8
OGGETTO
  6
CONTINUOUS
 10
542.604
 20
112.629
 30
0.0
 11
542.604
 21
121.129
 31
0.0
  0
LINE
  5
B0
  8
OGGETTO
  6
CONTINUOUS
 10
542.604
 20
112.629
 30
0.0
 11
542.604
 21
123.629
 31
0.0
  0
LINE
  5
B1
  8
OGGETTO
  6
CONTINUOUS
 10
526.604
 20
96.629
 30
0.0
 11
526.604
 21
128.629
 31
0.0
  0
LINE
  5
B2
  8
OGGETTO
  6
CONTINUOUS
 10
542.604
 20
101.629
 30
0.0
 11
530.375
 21
77.629
 31
0.0
  0
LINE
  5
B3
  8
OGGETTO
  6
CONTINUOUS
 10
522.604
 20
77.629
 30
0.0
 11
522.604
 21
83.629
 31
0.0
  0
LINE
  5
B4
  8
OGGETTO
  6
CONTINUOUS
 10
522.604
 20
83.629
 30
0.0
 11
522.604
 21
77.629
 31
0.0
  0
LINE
  5
B5
  8
OGGETTO
  6
CONTINUOUS
 10
522.604
 20
77.629
 30
0.0
 11
530.375
 21
77.629
 31
0.0
  0
INSERT
  5
BE
  8
OGGETTO
  6
CONTINUOUS
  2
_X17
 10
447.604
 20
-82.371
 30
0.0
  0
LINE
  5
BF
  8
OGGETTO
  6
CONTINUOUS
 10
526.604
 20
107.129
 30
0.0
 11
532.104
 21
107.129
 31
0.0
  0
LINE
  5
C0
  8
OGGETTO
  6
CONTINUOUS
 10
526.604
 20
118.129
 30
0.0
 11
532.104
 21
118.129
 31
0.0
  0
INSERT
  5
C7
  8
OGGETTO
  6
CONTINUOUS
  2
LW_POLYLINE_1
 10
526.604
 20
99.015
 30
0.0
  0
LINE
  5
C8
  8
OGGETTO
  6
CONTINUOUS
 10
532.104
 20
107.129
 30
0.0
 11
526.604
 21
107.129
 31
0.0
  0
LINE
  5
C9
  8
OGGETTO
  6
CONTINUOUS
 10
532.104
 20
118.129
 30
0.0
 11
526.604
 21
118.129
 31
0.0
  0
LINE
  5
CA
  8
OGGETTO
  6
CONTINUOUS
 10
526.604
 20
99.015
 30
0.0
 11
526.604
 21
107.129
 31
0.0
  0
LINE
  5
CB
  8
OGGETTO
  6
CONTINUOUS
 10
526.604
 20
107.129
 30
0.0
 11
526.604
 21
99.015
 31
0.0
  0
LINE
  5
CC
  8
OGGETTO
  6
CONTINUOUS
 10
522.604
 20
83.629
 30
0.0
 11
527.604
 21
83.629
 31
0.0
  0
LINE
  5
CD
  8
OGGETTO
  6
CONTINUOUS
 10
525.604
 20
87.629
 30
0.0
 11
525.604
 21
95.629
 31
0.0
  0
LINE
  5
CE
  8
OGGETTO
  6
CONTINUOUS
 10
525.604
 20
87.629
 30
0.0
 11
525.604
 21
95.629
 31
0.0
  0
LINE
  5
CF
  8
OGGETTO
  6
CONTINUOUS
 10
527.604
 20
83.629
 30
0.0
 11
527.604
 21
87.629
 31
0.0
  0
LINE
  5
D0
  8
OGGETTO
  6
CONTINUOUS
 10
527.604
 20
87.629
 30
0.0
 11
525.604
 21
87.629
 31
0.0
  0
LINE
  5
D1
  8
OGGETTO
  6
CONTINUOUS
 10
526.604
 20
96.629
 30
0.0
 11
525.604
 21
95.629
 31
0.0
  0
LINE
  5
D2
  8
OGGETTO
  6
CONTINUOUS
 10
542.604
 20
101.629
 30
0.0
 11
540.112
 21
96.739
 31
0.0
  0
LINE
  5
D3
  8
OGGETTO
  6
CONTINUOUS
 10
532.104
 20
104.129
 30
0.0
 11
542.604
 21
104.129
 31
0.0
  0
LINE
  5
D4
  8
OGGETTO
  6
CONTINUOUS
 10
532.104
 20
104.129
 30
0.0
 11
542.604
 21
104.129
 31
0.0
  0
LINE
  5
D5
  8
OGGETTO
  6
CONTINUOUS
 10
532.104
 20
107.129
 30
0.0
 11
532.104
 21
104.129
 31
0.0
  0
LINE
  5
D6
  8
OGGETTO
  6
CONTINUOUS
 10
542.604
 20
112.629
 30
0.0
 11
542.604
 21
101.629
 31
0.0
  0
LINE
  5
D7
  8
OGGETTO
  6
CONTINUOUS
 10
542.604
 20
104.129
 30
0.0
 11
542.604
 21
101.629
 31
0.0
  0
INSERT
  5
DE
  8
OGGETTO
  6
CONTINUOUS
  2
LW_POLYLINE_2
 10
526.604
 20
126.264
 30
0.0
  0
LINE
  5
DF
  8
OGGETTO
  6
CONTINUOUS
 10
525.604
 20
137.629
 30
0.0
 11
534.521
 21
137.629
 31
0.0
  0
LINE
  5
E0
  8
OGGETTO
  6
CONTINUOUS
 10
525.604
 20
129.629
 30
0.0
 11
525.604
 21
137.629
 31
0.0
  0
LINE
  5
E1
  8
OGGETTO
  6
CONTINUOUS
 10
526.604
 20
128.629
 30
0.0
 11
525.604
 21
129.629
 31
0.0
  0
LINE
  5
E2
  8
OGGETTO
  6
CONTINUOUS
 10
532.104
 20
121.129
 30
0.0
 11
542.604
 21
121.129
 31
0.0
  0
LINE
  5
E3
  8
OGGETTO
  6
CONTINUOUS
 10
542.604
 20
121.129
 30
0.0
 11
532.104
 21
121.129
 31
0.0
  0
LINE
  5
E4
  8
OGGETTO
  6
CONTINUOUS
 10
542.604
 20
123.629
 30
0.0
 11
534.521
 21
137.629
 31
0.0
  0
LINE
  5
E5
  8
OGGETTO
  6
CONTINUOUS
 10
542.604
 20
123.629
 30
0.0
 11
540.113
 21
127.943
 31
0.0
  0
LINE
  5
E6
  8
OGGETTO
  6
CONTINUOUS
 10
542.604
 20
121.129
 30
0.0
 11
542.604
 21
123.629
 31
0.0
  0
LINE
  5
E7
  8
DISEGNO
 10
532.104
 20
107.629
 30
0.0
 11
525.658
 21
107.629
 31
0.0
  0
LINE
  5
E8
  8
DISEGNO
 10
498.463
 20
117.629
 30
0.0
 11
495.463
 21
117.629
 31
0.0
  0
LINE
  5
E9
  8
DISEGNO
 10
498.463
 20
107.629
 30
0.0
 11
495.463
 21
107.629
 31
0.0
  0
LINE
  5
EA
  8
DISEGNO
 10
482.104
 20
117.629
 30
0.0
 11
482.104
 21
107.629
 31
0.0
  0
LINE
  5
EB
  8
DISEGNO
 10
485.463
 20
122.071
 30
0.0
 11
485.463
 21
103.071
 31
0.0
  0
LINE
  5
EC
  8
DISEGNO
 10
495.463
 20
103.071
 30
0.0
 11
495.463
 21
122.071
 31
0.0
  0
LINE
  5
ED
  8
DISEGNO
 10
485.463
 20
117.629
 30
0.0
 11
482.104
 21
117.629
 31
0.0
  0
LINE
  5
EE
  8
DISEGNO
 10
485.463
 20
107.629
 30
0.0
 11
482.104
 21
107.629
 31
0.0
  0
LINE
  5
EF
  8
DISEGNO
 10
495.463
 20
122.071
 30
0.0
 11
485.463
 21
122.071
 31
0.0
  0
LINE
  5
F0
  8
DISEGNO
 10
485.463
 20
103.071
 30
0.0
 11
495.463
 21
103.071
 31
0.0
  0
LINE
  5
F1
  8
DISEGNO
 10
485.463
 20
109.071
 30
0.0
 11
495.463
 21
109.071
 31
0.0
  0
LINE
  5
F2
  8
DISEGNO
 10
495.463
 20
116.071
 30
0.0
 11
485.463
 21
116.071
 31
0.0
  0
TEXT
  5
F3
  8
QUOTE
  6
CONTINUOUS
 10
409.87
 20
56.876
 30
0.0
 40
3.0
  1
DADO AUTOBLOCCANTE M10
 41
1.1
  0
LINE
  5
F4
  8
DISEGNO
 10
532.104
 20
116.629
 30
0.0
 11
523.657
 21
116.629
 31
0.0
  0
LINE
  5
F5
  8
DISEGNO
 10
532.104
 20
108.629
 30
0.0
 11
525.436
 21
108.629
 31
0.0
  0
LINE
  5
F6
  8
DISEGNO
 10
485.463
 20
116.629
 30
0.0
 11
482.104
 21
116.629
 31
0.0
  0
LINE
  5
F7
  8
DISEGNO
 10
485.463
 20
108.629
 30
0.0
 11
482.104
 21
108.629
 31
0.0
  0
LINE
  5
F8
  8
DISEGNO
 10
498.463
 20
116.629
 30
0.0
 11
495.463
 21
116.629
 31
0.0
  0
LINE
  5
F9
  8
DISEGNO
 10
498.463
 20
108.629
 30
0.0
 11
495.463
 21
108.629
 31
0.0
  0
ARC
  5
FA
  8
DISEGNO
 10
514.089
 20
119.071
 30
0.0
 40
1.0
 50
12.538
 51
192.538
  0
ARC
  5
FB
  8
DISEGNO
 10
518.089
 20
119.071
 30
0.0
 40
1.0
 50
12.538
 51
192.538
  0
ARC
  5
FC
  8
DISEGNO
 10
522.089
 20
119.071
 30
0.0
 40
1.0
 50
12.538
 51
192.538
  0
ARC
  5
FD
  8
DISEGNO
 10
524.955
 20
106.185
 30
0.0
 40
1.0
 50
192.538
 51
12.538
  0
ARC
  5
FE
  8
DISEGNO
 10
520.955
 20
106.185
 30
0.0
 40
1.0
 50
192.538
 51
12.538
  0
ARC
  5
FF
  8
DISEGNO
 10
516.955
 20
106.185
 30
0.0
 40
1.0
 50
192.538
 51
12.538
  0
LINE
  5
100
  8
DISEGNO
 10
512.463
 20
108.629
 30
0.0
 11
512.463
 21
72.571
 31
0.0
  0
LINE
  5
101
  8
DISEGNO
 10
523.065
 20
119.288
 30
0.0
 11
525.931
 21
106.402
 31
0.0
  0
LINE
  5
102
  8
DISEGNO
 10
521.113
 20
118.853
 30
0.0
 11
523.979
 21
105.968
 31
0.0
  0
LINE
  5
103
  8
DISEGNO
 10
519.065
 20
119.288
 30
0.0
 11
521.931
 21
106.402
 31
0.0
  0
LINE
  5
104
  8
DISEGNO
 10
517.113
 20
118.853
 30
0.0
 11
519.979
 21
105.968
 31
0.0
  0
LINE
  5
105
  8
DISEGNO
 10
515.065
 20
119.288
 30
0.0
 11
517.931
 21
106.402
 31
0.0
  0
LINE
  5
106
  8
DISEGNO
 10
513.113
 20
118.853
 30
0.0
 11
515.979
 21
105.968
 31
0.0
  0
LINE
  5
107
  8
DISEGNO
 10
521.385
 20
117.629
 30
0.0
 11
519.434
 21
117.629
 31
0.0
  0
LINE
  5
108
  8
DISEGNO
 10
521.608
 20
116.629
 30
0.0
 11
519.657
 21
116.629
 31
0.0
  0
LINE
  5
109
  8
DISEGNO
 10
517.385
 20
117.629
 30
0.0
 11
515.434
 21
117.629
 31
0.0
  0
LINE
  5
10A
  8
DISEGNO
 10
517.608
 20
116.629
 30
0.0
 11
515.657
 21
116.629
 31
0.0
  0
LINE
  5
10B
  8
DISEGNO
 10
513.385
 20
117.629
 30
0.0
 11
512.463
 21
117.629
 31
0.0
  0
LINE
  5
10C
  8
DISEGNO
 10
513.608
 20
116.629
 30
0.0
 11
512.463
 21
116.629
 31
0.0
  0
LINE
  5
10D
  8
DISEGNO
 10
515.387
 20
108.629
 30
0.0
 11
512.463
 21
108.629
 31
0.0
  0
LINE
  5
10E
  8
DISEGNO
 10
515.609
 20
107.629
 30
0.0
 11
513.56
 21
107.629
 31
0.0
  0
LINE
  5
10F
  8
DISEGNO
 10
519.387
 20
108.629
 30
0.0
 11
517.436
 21
108.629
 31
0.0
  0
LINE
  5
110
  8
DISEGNO
 10
519.609
 20
107.629
 30
0.0
 11
517.658
 21
107.629
 31
0.0
  0
LINE
  5
111
  8
DISEGNO
 10
523.387
 20
108.629
 30
0.0
 11
521.436
 21
108.629
 31
0.0
  0
LINE
  5
112
  8
DISEGNO
 10
523.609
 20
107.629
 30
0.0
 11
521.658
 21
107.629
 31
0.0
  0
ARC
  5
113
  8
DISEGNO
 10
526.089
 20
119.071
 30
0.0
 40
1.0
 50
59.036
 51
300.964
  0
ARC
  5
114
  8
DISEGNO
 10
512.955
 20
106.185
 30
0.0
 40
1.0
 50
240.552
 51
347.309
  0
LINE
  5
115
  8
DISEGNO
 10
513.338
 20
108.629
 30
0.0
 11
513.93
 21
105.966
 31
0.0
  0
TEXT
  5
116
  8
QUOTE
  6
CONTINUOUS
 10
521.475
 20
63.237
 30
0.0
 40
3.0
  1
MOLLA
 41
1.17
  0
TEXT
  5
117
  8
QUOTE
  6
CONTINUOUS
 10
561.736
 20
127.821
 30
0.0
 40
3.0
  1
VITE TCEI M10X50
 41
1.22
  0
INSERT
  5
11D
  8
QUOTE
  2
_TD_DIMENSION_1
 10
478.638
 20
55.251
 30
0.0
  0
INSERT
  5
125
  8
QUOTE
  2
_TD_DIMENSION_2
 10
511.652
 20
61.612
 30
0.0
  0
INSERT
  5
12D
  8
QUOTE
  2
_TD_DIMENSION_3
 10
534.643
 20
109.852
 30
0.0
  0
INSERT
  5
141
  8
0
  2
GRUPPO
 10
97.836
 20
128.532
 30
0.0
  0
ENDSEC
  0
EOF
