  0
SECTION
  2
HEADER
  9
$ACADVER
  1
AC1012
  9
$DWGCODEPAGE
  3
iso8859-1
  9
$INSBASE
 10
0.0
 20
0.0
 30
0.0
  9
$EXTMIN
 10
20.056072
 20
42.98577
 30
0.0
  9
$EXTMAX
 10
199.00546
 20
258.505075
 30
0.0
  9
$LIMMIN
 10
0.0
 20
0.0
  9
$LIMMAX
 10
200.0
 20
250.0
  9
$ORTHOMODE
 70
     0
  9
$REGENMODE
 70
     1
  9
$FILLMODE
 70
     1
  9
$QTEXTMODE
 70
     0
  9
$MIRRTEXT
 70
     1
  9
$DRAGMODE
 70
     2
  9
$LTSCALE
 40
0.841751
  9
$OSMODE
 70
     0
  9
$ATTMODE
 70
     1
  9
$TEXTSIZE
 40
3.0
  9
$TRACEWID
 40
1.0
  9
$TEXTSTYLE
  7
STANDARD
  9
$CLAYER
  8
QUOTE
  9
$CELTYPE
  6
CONTINUOUS
  9
$CECOLOR
 62
   256
  9
$CELTSCALE
 40
1.0
  9
$DELOBJ
 70
     1
  9
$DISPSILH
 70
     0
  9
$DIMSCALE
 40
1.0
  9
$DIMASZ
 40
2.6
  9
$DIMEXO
 40
0.5261
  9
$DIMDLI
 40
3.1566
  9
$DIMRND
 40
0.0
  9
$DIMDLE
 40
0.0
  9
$DIMEXE
 40
1.0522
  9
$DIMTP
 40
0.02
  9
$DIMTM
 40
0.02
  9
$DIMTXT
 40
2.6
  9
$DIMCEN
 40
2.1044
  9
$DIMTSZ
 40
0.0
  9
$DIMTOL
 70
     1
  9
$DIMLIM
 70
     0
  9
$DIMTIH
 70
     0
  9
$DIMTOH
 70
     0
  9
$DIMSE1
 70
     0
  9
$DIMSE2
 70
     0
  9
$DIMTAD
 70
     1
  9
$DIMZIN
 70
     8
  9
$DIMBLK
  1

  9
$DIMASO
 70
     1
  9
$DIMSHO
 70
     1
  9
$DIMPOST
  1

  9
$DIMAPOST
  1

  9
$DIMALT
 70
     0
  9
$DIMALTD
 70
     2
  9
$DIMALTF
 40
0.0394
  9
$DIMLFAC
 40
1.0
  9
$DIMTOFL
 70
     1
  9
$DIMTVP
 40
1.0
  9
$DIMTIX
 70
     0
  9
$DIMSOXD
 70
     0
  9
$DIMSAH
 70
     0
  9
$DIMBLK1
  1

  9
$DIMBLK2
  1

  9
$DIMSTYLE
  2
ISO-25
  9
$DIMCLRD
 70
     0
  9
$DIMCLRE
 70
     0
  9
$DIMCLRT
 70
     0
  9
$DIMTFAC
 40
1.0
  9
$DIMGAP
 40
0.53
  9
$DIMJUST
 70
     0
  9
$DIMSD1
 70
     0
  9
$DIMSD2
 70
     0
  9
$DIMTOLJ
 70
     1
  9
$DIMTZIN
 70
     0
  9
$DIMALTZ
 70
     0
  9
$DIMALTTZ
 70
     0
  9
$DIMFIT
 70
     3
  9
$DIMUPT
 70
     0
  9
$DIMUNIT
 70
     2
  9
$DIMDEC
 70
     2
  9
$DIMTDEC
 70
     2
  9
$DIMALTU
 70
     2
  9
$DIMALTTD
 70
     2
  9
$DIMTXSTY
  7
STANDARD
  9
$DIMAUNIT
 70
     0
  9
$LUNITS
 70
     2
  9
$LUPREC
 70
     2
  9
$SKETCHINC
 40
1.0
  9
$FILLETRAD
 40
0.5
  9
$AUNITS
 70
     0
  9
$AUPREC
 70
     2
  9
$MENU
  1
.
  9
$ELEVATION
 40
0.0
  9
$PELEVATION
 40
0.0
  9
$THICKNESS
 40
0.0
  9
$LIMCHECK
 70
     0
  9
$BLIPMODE
 70
     1
  9
$CHAMFERA
 40
1.0
  9
$CHAMFERB
 40
1.0
  9
$CHAMFERC
 40
16.835017
  9
$CHAMFERD
 40
0.0
  9
$SKPOLY
 70
     0
  9
$TDCREATE
 40
2450962.329882870
  9
$TDUPDATE
 40
2450987.715806249
  9
$TDINDWG
 40
0.4721622685
  9
$TDUSRTIMER
 40
0.4721622685
  9
$USRTIMER
 70
     1
  9
$ANGBASE
 50
0.0
  9
$ANGDIR
 70
     0
  9
$PDMODE
 70
     0
  9
$PDSIZE
 40
0.0
  9
$PLINEWID
 40
0.0
  9
$COORDS
 70
     1
  9
$SPLFRAME
 70
     0
  9
$SPLINETYPE
 70
     6
  9
$SPLINESEGS
 70
     8
  9
$ATTDIA
 70
     0
  9
$ATTREQ
 70
     1
  9
$HANDLING
 70
     1
  9
$HANDSEED
  5
74F
  9
$SURFTAB1
 70
     6
  9
$SURFTAB2
 70
     6
  9
$SURFTYPE
 70
     6
  9
$SURFU
 70
     6
  9
$SURFV
 70
     6
  9
$UCSNAME
  2

  9
$UCSORG
 10
0.0
 20
0.0
 30
0.0
  9
$UCSXDIR
 10
1.0
 20
0.0
 30
0.0
  9
$UCSYDIR
 10
0.0
 20
1.0
 30
0.0
  9
$PUCSNAME
  2

  9
$PUCSORG
 10
0.0
 20
0.0
 30
0.0
  9
$PUCSXDIR
 10
1.0
 20
0.0
 30
0.0
  9
$PUCSYDIR
 10
0.0
 20
1.0
 30
0.0
  9
$USERI1
 70
     0
  9
$USERI2
 70
     0
  9
$USERI3
 70
     0
  9
$USERI4
 70
     0
  9
$USERI5
 70
     0
  9
$USERR1
 40
0.0
  9
$USERR2
 40
0.0
  9
$USERR3
 40
0.0
  9
$USERR4
 40
0.0
  9
$USERR5
 40
0.0
  9
$WORLDVIEW
 70
     1
  9
$SHADEDGE
 70
     3
  9
$SHADEDIF
 70
    70
  9
$TILEMODE
 70
     1
  9
$MAXACTVP
 70
    16
  9
$PINSBASE
 10
0.0
 20
0.0
 30
0.0
  9
$PLIMCHECK
 70
     0
  9
$PEXTMIN
 10
1.000000E+20
 20
1.000000E+20
 30
1.000000E+20
  9
$PEXTMAX
 10
-1.000000E+20
 20
-1.000000E+20
 30
-1.000000E+20
  9
$PLIMMIN
 10
0.0
 20
0.0
  9
$PLIMMAX
 10
420.0
 20
297.0
  9
$UNITMODE
 70
     0
  9
$VISRETAIN
 70
     0
  9
$PLINEGEN
 70
     0
  9
$PSLTSCALE
 70
     1
  9
$TREEDEPTH
 70
  3020
  9
$PICKSTYLE
 70
     1
  9
$CMLSTYLE
  2
STANDARD
  9
$CMLJUST
 70
     0
  9
$CMLSCALE
 40
1.0
  9
$SAVEIMAGES
 70
     0
  0
ENDSEC
  0
SECTION
  2
CLASSES
  0
ENDSEC
  0
SECTION
  2
TABLES
  0
TABLE
  2
VPORT
  5
8
100
AcDbSymbolTable
 70
     2
  0
VPORT
  5
74E
100
AcDbSymbolTableRecord
100
AcDbViewportTableRecord
  2
*ACTIVE
 70
     0
 10
0.0
 20
0.0
 11
1.0
 21
1.0
 12
81.55137
 22
173.26005
 13
0.0
 23
0.0
 14
5.0
 24
5.0
 15
5.0
 25
5.0
 16
0.0
 26
0.0
 36
1.0
 17
0.0
 27
0.0
 37
0.0
 40
125.962132
 41
1.650113
 42
50.0
 43
0.0
 44
0.0
 50
0.0
 51
0.0
 71
     0
 72
   100
 73
     1
 74
     0
 75
     0
 76
     0
 77
     0
 78
     0
  0
ENDTAB
  0
TABLE
  2
LTYPE
  5
5
100
AcDbSymbolTable
 70
     3
  0
LTYPE
  5
14
100
AcDbSymbolTableRecord
100
AcDbLinetypeTableRecord
  2
BYBLOCK
 70
     0
  3

 72
    65
 73
     0
 40
0.0
  0
LTYPE
  5
15
100
AcDbSymbolTableRecord
100
AcDbLinetypeTableRecord
  2
BYLAYER
 70
     0
  3

 72
    65
 73
     0
 40
0.0
  0
LTYPE
  5
16
100
AcDbSymbolTableRecord
100
AcDbLinetypeTableRecord
  2
CONTINUOUS
 70
    64
  3
Solid line
 72
    65
 73
     0
 40
0.0
  0
LTYPE
  5
62
100
AcDbSymbolTableRecord
100
AcDbLinetypeTableRecord
  2
LINEA-LINEETTEX2
 70
    64
  3
____________    ____    ____    ____________   
 72
    65
 73
     6
 40
5.0
 49
2.5
 74
     0
 49
-0.5
 74
     0
 49
0.5
 74
     0
 49
-0.5
 74
     0
 49
0.5
 74
     0
 49
-0.5
 74
     0
  0
LTYPE
  5
63
100
AcDbSymbolTableRecord
100
AcDbLinetypeTableRecord
  2
TRATTEGGIATA
 70
    64
  3
__ __ __ __ __ __ __ __ __ __ __ __ __ __ __ __
 72
    65
 73
     2
 40
0.75
 49
0.5
 74
     0
 49
-0.25
 74
     0
  0
ENDTAB
  0
TABLE
  2
LAYER
  5
2
100
AcDbSymbolTable
 70
     8
  0
LAYER
  5
F
100
AcDbSymbolTableRecord
100
AcDbLayerTableRecord
  2
0
 70
     0
 62
     7
  6
CONTINUOUS
  0
LAYER
  5
64
100
AcDbSymbolTableRecord
100
AcDbLayerTableRecord
  2
OGGETTO
 70
    64
 62
   250
  6
CONTINUOUS
  0
LAYER
  5
65
100
AcDbSymbolTableRecord
100
AcDbLayerTableRecord
  2
QUOTE
 70
    64
 62
     1
  6
CONTINUOUS
  0
LAYER
  5
66
100
AcDbSymbolTableRecord
100
AcDbLayerTableRecord
  2
CENTRO
 70
    64
 62
     3
  6
LINEA-LINEETTEX2
  0
LAYER
  5
67
100
AcDbSymbolTableRecord
100
AcDbLayerTableRecord
  2
NASCOSTA
 70
    64
 62
     5
  6
TRATTEGGIATA
  0
LAYER
  5
68
100
AcDbSymbolTableRecord
100
AcDbLayerTableRecord
  2
SEZIONE
 70
    64
 62
     8
  6
CONTINUOUS
  0
LAYER
  5
78
100
AcDbSymbolTableRecord
100
AcDbLayerTableRecord
  2
TESTO
 70
    64
 62
     6
  6
CONTINUOUS
  0
LAYER
  5
A4
100
AcDbSymbolTableRecord
100
AcDbLayerTableRecord
  2
DEFPOINTS
 70
    64
 62
     7
  6
CONTINUOUS
  0
ENDTAB
  0
TABLE
  2
STYLE
  5
3
100
AcDbSymbolTable
 70
     2
  0
STYLE
  5
10
100
AcDbSymbolTableRecord
100
AcDbTextStyleTableRecord
  2
STANDARD
 70
    64
 40
3.0
 41
1.0
 50
0.0
 71
     0
 42
3.0
  3
ISOCP
  4

  0
STYLE
  5
6A
100
AcDbSymbolTableRecord
100
AcDbTextStyleTableRecord
  2

 70
    65
 40
0.0
 41
1.0
 50
0.0
 71
     0
 42
2.104377
  3
ltypeshp.shx
  4

  0
ENDTAB
  0
TABLE
  2
VIEW
  5
6
100
AcDbSymbolTable
 70
     0
  0
ENDTAB
  0
TABLE
  2
UCS
  5
7
100
AcDbSymbolTable
 70
     0
  0
ENDTAB
  0
TABLE
  2
APPID
  5
9
100
AcDbSymbolTable
 70
     1
  0
APPID
  5
11
100
AcDbSymbolTableRecord
100
AcDbRegAppTableRecord
  2
ACAD
 70
     0
  0
ENDTAB
  0
TABLE
  2
DIMSTYLE
  5
A
100
AcDbSymbolTable
 70
     8
  0
DIMSTYLE
105
1D
100
AcDbSymbolTableRecord
100
AcDbDimStyleTableRecord
  2
STANDARD
 70
     0
  3

  4

  5

  6

  7

 40
1.0
 41
0.18
 42
0.0625
 43
0.38
 44
0.18
 45
0.0
 46
0.0
 47
0.0
 48
0.0
140
0.18
141
0.09
142
0.0
143
25.4
144
1.0
145
0.0
146
1.0
147
0.09
 71
     0
 72
     0
 73
     1
 74
     1
 75
     0
 76
     0
 77
     0
 78
     0
170
     0
171
     2
172
     0
173
     0
174
     0
175
     0
176
     0
177
     0
178
     0
270
     2
271
     4
272
     4
273
     2
274
     2
340
10
275
     0
280
     0
281
     0
282
     0
283
     1
284
     0
285
     0
286
     0
287
     3
288
     0
  0
DIMSTYLE
105
24
100
AcDbSymbolTableRecord
100
AcDbDimStyleTableRecord
  2
ISO-25
 70
     0
  3

  4

  5

  6

  7

 40
1.0
 41
2.5
 42
0.625
 43
3.75
 44
1.25
 45
0.0
 46
0.0
 47
0.0
 48
0.0
140
2.5
141
2.5
142
0.0
143
0.0394
144
1.0
145
1.0
146
1.0
147
0.625
 71
     0
 72
     0
 73
     1
 74
     0
 75
     0
 76
     0
 77
     1
 78
     8
170
     0
171
     2
172
     1
173
     0
174
     0
175
     0
176
     0
177
     0
178
     0
270
     2
271
     4
272
     4
273
     2
274
     2
340
10
275
     0
280
     0
281
     0
282
     0
283
     1
284
     0
285
     0
286
     0
287
     3
288
     0
  0
DIMSTYLE
105
25
100
AcDbSymbolTableRecord
100
AcDbDimStyleTableRecord
  2
ISO-35
 70
     0
  3

  4

  5

  6

  7

 40
1.0
 41
3.5
 42
0.875
 43
5.25
 44
1.75
 45
0.0
 46
0.0
 47
0.0
 48
0.0
140
3.5
141
3.5
142
0.0
143
0.0394
144
1.0
145
1.4
146
1.0
147
0.875
 71
     0
 72
     0
 73
     1
 74
     0
 75
     0
 76
     0
 77
     1
 78
     8
170
     0
171
     2
172
     1
173
     0
174
     0
175
     0
176
     0
177
     0
178
     0
270
     2
271
     4
272
     4
273
     2
274
     2
340
10
275
     0
280
     0
281
     0
282
     0
283
     1
284
     0
285
     0
286
     0
287
     3
288
     0
  0
DIMSTYLE
105
26
100
AcDbSymbolTableRecord
100
AcDbDimStyleTableRecord
  2
ISO-5
 70
     0
  3

  4

  5

  6

  7

 40
1.0
 41
5.0
 42
1.25
 43
7.5
 44
2.5
 45
0.0
 46
0.0
 47
0.0
 48
0.0
140
5.0
141
5.0
142
0.0
143
0.0394
144
1.0
145
2.0
146
1.0
147
1.25
 71
     0
 72
     0
 73
     1
 74
     0
 75
     0
 76
     0
 77
     1
 78
     8
170
     0
171
     2
172
     1
173
     0
174
     0
175
     0
176
     0
177
     0
178
     0
270
     2
271
     4
272
     4
273
     2
274
     2
340
10
275
     0
280
     0
281
     0
282
     0
283
     1
284
     0
285
     0
286
     0
287
     3
288
     0
  0
DIMSTYLE
105
27
100
AcDbSymbolTableRecord
100
AcDbDimStyleTableRecord
  2
ISO-7
 70
     0
  3

  4

  5

  6

  7

 40
1.0
 41
7.0
 42
1.75
 43
10.5
 44
3.5
 45
0.0
 46
0.0
 47
0.0
 48
0.0
140
7.0
141
7.0
142
0.0
143
0.0394
144
1.0
145
2.8
146
1.0
147
1.75
 71
     0
 72
     0
 73
     1
 74
     0
 75
     0
 76
     0
 77
     1
 78
     8
170
     0
171
     2
172
     1
173
     0
174
     0
175
     0
176
     0
177
     0
178
     0
270
     2
271
     4
272
     4
273
     2
274
     2
340
10
275
     0
280
     0
281
     0
282
     0
283
     1
284
     0
285
     0
286
     0
287
     3
288
     0
  0
DIMSTYLE
105
28
100
AcDbSymbolTableRecord
100
AcDbDimStyleTableRecord
  2
ISO1
 70
     0
  3

  4

  5

  6

  7

 40
1.0
 41
10.0
 42
2.5
 43
15.0
 44
5.0
 45
0.0
 46
0.0
 47
0.0
 48
0.0
140
10.0
141
10.0
142
0.0
143
0.0394
144
1.0
145
4.0
146
1.0
147
2.5
 71
     0
 72
     0
 73
     1
 74
     0
 75
     0
 76
     0
 77
     1
 78
     8
170
     0
171
     2
172
     1
173
     0
174
     0
175
     0
176
     0
177
     0
178
     0
270
     2
271
     4
272
     4
273
     2
274
     2
340
10
275
     0
280
     0
281
     0
282
     0
283
     1
284
     0
285
     0
286
     0
287
     3
288
     0
  0
DIMSTYLE
105
29
100
AcDbSymbolTableRecord
100
AcDbDimStyleTableRecord
  2
ISO1-4
 70
     0
  3

  4

  5

  6

  7

 40
1.0
 41
14.0
 42
3.5
 43
21.0
 44
7.0
 45
0.0
 46
0.0
 47
0.0
 48
0.0
140
14.0
141
14.0
142
0.0
143
0.0394
144
1.0
145
5.6
146
1.0
147
3.5
 71
     0
 72
     0
 73
     1
 74
     0
 75
     0
 76
     0
 77
     1
 78
     8
170
     0
171
     2
172
     1
173
     0
174
     0
175
     0
176
     0
177
     0
178
     0
270
     2
271
     4
272
     4
273
     2
274
     2
340
10
275
     0
280
     0
281
     0
282
     0
283
     1
284
     0
285
     0
286
     0
287
     3
288
     0
  0
DIMSTYLE
105
2A
100
AcDbSymbolTableRecord
100
AcDbDimStyleTableRecord
  2
ISO2
 70
     0
  3

  4

  5

  6

  7

 40
1.0
 41
20.0
 42
5.0
 43
30.0
 44
10.0
 45
0.0
 46
0.0
 47
0.0
 48
0.0
140
20.0
141
20.0
142
0.0
143
0.0394
144
1.0
145
8.0
146
1.0
147
5.0
 71
     0
 72
     0
 73
     1
 74
     0
 75
     0
 76
     0
 77
     1
 78
     8
170
     0
171
     2
172
     1
173
     0
174
     0
175
     0
176
     0
177
     0
178
     0
270
     2
271
     4
272
     4
273
     2
274
     2
340
10
275
     0
280
     0
281
     0
282
     0
283
     1
284
     0
285
     0
286
     0
287
     3
288
     0
  0
ENDTAB
  0
TABLE
  2
BLOCK_RECORD
  5
1
100
AcDbSymbolTable
 70
    26
  0
BLOCK_RECORD
  5
1A
100
AcDbSymbolTableRecord
100
AcDbBlockTableRecord
  2
*MODEL_SPACE
  0
BLOCK_RECORD
  5
17
100
AcDbSymbolTableRecord
100
AcDbBlockTableRecord
  2
*PAPER_SPACE
  0
BLOCK_RECORD
  5
9B
100
AcDbSymbolTableRecord
100
AcDbBlockTableRecord
  2
*D0
  0
BLOCK_RECORD
  5
AA
100
AcDbSymbolTableRecord
100
AcDbBlockTableRecord
  2
*D1
  0
BLOCK_RECORD
  5
127
100
AcDbSymbolTableRecord
100
AcDbBlockTableRecord
  2
*D2
  0
BLOCK_RECORD
  5
136
100
AcDbSymbolTableRecord
100
AcDbBlockTableRecord
  2
*D3
  0
BLOCK_RECORD
  5
143
100
AcDbSymbolTableRecord
100
AcDbBlockTableRecord
  2
*D4
  0
BLOCK_RECORD
  5
152
100
AcDbSymbolTableRecord
100
AcDbBlockTableRecord
  2
*D5
  0
BLOCK_RECORD
  5
15F
100
AcDbSymbolTableRecord
100
AcDbBlockTableRecord
  2
*D6
  0
BLOCK_RECORD
  5
2F1
100
AcDbSymbolTableRecord
100
AcDbBlockTableRecord
  2
*D7
  0
BLOCK_RECORD
  5
2FE
100
AcDbSymbolTableRecord
100
AcDbBlockTableRecord
  2
*D8
  0
BLOCK_RECORD
  5
30B
100
AcDbSymbolTableRecord
100
AcDbBlockTableRecord
  2
*D9
  0
BLOCK_RECORD
  5
318
100
AcDbSymbolTableRecord
100
AcDbBlockTableRecord
  2
*D10
  0
BLOCK_RECORD
  5
325
100
AcDbSymbolTableRecord
100
AcDbBlockTableRecord
  2
*D11
  0
BLOCK_RECORD
  5
340
100
AcDbSymbolTableRecord
100
AcDbBlockTableRecord
  2
*D12
  0
BLOCK_RECORD
  5
3DB
100
AcDbSymbolTableRecord
100
AcDbBlockTableRecord
  2
*D13
  0
BLOCK_RECORD
  5
3E9
100
AcDbSymbolTableRecord
100
AcDbBlockTableRecord
  2
*D14
  0
BLOCK_RECORD
  5
536
100
AcDbSymbolTableRecord
100
AcDbBlockTableRecord
  2
*D15
  0
BLOCK_RECORD
  5
551
100
AcDbSymbolTableRecord
100
AcDbBlockTableRecord
  2
*D16
  0
BLOCK_RECORD
  5
576
100
AcDbSymbolTableRecord
100
AcDbBlockTableRecord
  2
*D17
  0
BLOCK_RECORD
  5
643
100
AcDbSymbolTableRecord
100
AcDbBlockTableRecord
  2
*D18
  0
BLOCK_RECORD
  5
655
100
AcDbSymbolTableRecord
100
AcDbBlockTableRecord
  2
*D19
  0
BLOCK_RECORD
  5
662
100
AcDbSymbolTableRecord
100
AcDbBlockTableRecord
  2
*D20
  0
BLOCK_RECORD
  5
671
100
AcDbSymbolTableRecord
100
AcDbBlockTableRecord
  2
*D21
  0
BLOCK_RECORD
  5
6F2
100
AcDbSymbolTableRecord
100
AcDbBlockTableRecord
  2
*D22
  0
BLOCK_RECORD
  5
70B
100
AcDbSymbolTableRecord
100
AcDbBlockTableRecord
  2
*D23
  0
BLOCK_RECORD
  5
71D
100
AcDbSymbolTableRecord
100
AcDbBlockTableRecord
  2
*D24
  0
BLOCK_RECORD
  5
72E
100
AcDbSymbolTableRecord
100
AcDbBlockTableRecord
  2
*D25
  0
ENDTAB
  0
ENDSEC
  0
SECTION
  2
BLOCKS
  0
BLOCK
  5
1B
100
AcDbEntity
  8
0
100
AcDbBlockBegin
  2
*MODEL_SPACE
 70
     0
 10
0.0
 20
0.0
 30
0.0
  3
*MODEL_SPACE
  1

  0
ENDBLK
  5
1C
100
AcDbEntity
  8
0
100
AcDbBlockEnd
  0
BLOCK
  5
18
100
AcDbEntity
 67
     1
  8
0
100
AcDbBlockBegin
  2
*PAPER_SPACE
 70
     0
 10
0.0
 20
0.0
 30
0.0
  3
*PAPER_SPACE
  1

  0
ENDBLK
  5
19
100
AcDbEntity
 67
     1
  8
0
100
AcDbBlockEnd
  0
BLOCK
  5
680
100
AcDbEntity
  8
0
100
AcDbBlockBegin
  2
*D0
 70
    65
 10
0.0
 20
0.0
 30
0.0
  3
*D0
  1

  0
LINE
  5
681
100
AcDbEntity
  8
0
  6
BYBLOCK
 62
     0
100
AcDbLine
 10
46.0
 20
170.743491
 30
0.0
 11
46.0
 21
187.467977
 31
0.0
  0
LINE
  5
682
100
AcDbEntity
  8
0
  6
BYBLOCK
 62
     0
100
AcDbLine
 10
54.0
 20
170.743491
 30
0.0
 11
54.0
 21
187.467977
 31
0.0
  0
LINE
  5
683
100
AcDbEntity
  8
0
  6
BYBLOCK
 62
     0
100
AcDbLine
 10
48.6
 20
186.415777
 30
0.0
 11
51.4
 21
186.415777
 31
0.0
  0
SOLID
  5
684
100
AcDbEntity
  8
0
  6
BYBLOCK
 62
     0
100
AcDbTrace
 10
48.6
 20
186.849111
 30
0.0
 11
48.6
 21
185.982444
 31
0.0
 12
46.0
 22
186.415777
 32
0.0
 13
46.0
 23
186.415777
 33
0.0
  0
SOLID
  5
685
100
AcDbEntity
  8
0
  6
BYBLOCK
 62
     0
100
AcDbTrace
 10
51.4
 20
186.849111
 30
0.0
 11
51.4
 21
185.982444
 31
0.0
 12
54.0
 22
186.415777
 32
0.0
 13
54.0
 23
186.415777
 33
0.0
  0
MTEXT
  5
686
100
AcDbEntity
  8
0
  6
BYBLOCK
 62
     0
100
AcDbMText
 10
50.27
 20
188.445777
 30
0.0
 40
3.0
 41
0.0
 71
     5
 72
     1
  1
\A1;{8}
  0
POINT
  5
687
100
AcDbEntity
  8
DEFPOINTS
  6
BYBLOCK
 62
     0
100
AcDbPoint
 10
46.0
 20
170.217391
 30
0.0
  0
POINT
  5
688
100
AcDbEntity
  8
DEFPOINTS
  6
BYBLOCK
 62
     0
100
AcDbPoint
 10
54.0
 20
170.217391
 30
0.0
  0
POINT
  5
689
100
AcDbEntity
  8
DEFPOINTS
  6
BYBLOCK
 62
     0
100
AcDbPoint
 10
54.0
 20
186.415777
 30
0.0
  0
ENDBLK
  5
68A
100
AcDbEntity
  8
0
100
AcDbBlockEnd
  0
BLOCK
  5
68B
100
AcDbEntity
  8
0
100
AcDbBlockBegin
  2
*D1
 70
    65
 10
0.0
 20
0.0
 30
0.0
  3
*D1
  1

  0
LINE
  5
68C
100
AcDbEntity
  8
0
  6
BYBLOCK
 62
     0
100
AcDbLine
 10
81.0
 20
170.743491
 30
0.0
 11
81.0
 21
187.301791
 31
0.0
  0
LINE
  5
68D
100
AcDbEntity
  8
0
  6
BYBLOCK
 62
     0
100
AcDbLine
 10
93.0
 20
170.743491
 30
0.0
 11
93.0
 21
187.301791
 31
0.0
  0
LINE
  5
68E
100
AcDbEntity
  8
0
  6
BYBLOCK
 62
     0
100
AcDbLine
 10
83.6
 20
186.249591
 30
0.0
 11
90.4
 21
186.249591
 31
0.0
  0
SOLID
  5
68F
100
AcDbEntity
  8
0
  6
BYBLOCK
 62
     0
100
AcDbTrace
 10
83.6
 20
186.682925
 30
0.0
 11
83.6
 21
185.816258
 31
0.0
 12
81.0
 22
186.249591
 32
0.0
 13
81.0
 23
186.249591
 33
0.0
  0
SOLID
  5
690
100
AcDbEntity
  8
0
  6
BYBLOCK
 62
     0
100
AcDbTrace
 10
90.4
 20
186.682925
 30
0.0
 11
90.4
 21
185.816258
 31
0.0
 12
93.0
 22
186.249591
 32
0.0
 13
93.0
 23
186.249591
 33
0.0
  0
MTEXT
  5
691
100
AcDbEntity
  8
0
  6
BYBLOCK
 62
     0
100
AcDbMText
 10
86.991701
 20
188.279887
 30
0.0
 40
3.0
 41
0.0
 71
     5
 72
     1
  1
\A1;{12}
  0
POINT
  5
692
100
AcDbEntity
  8
DEFPOINTS
  6
BYBLOCK
 62
     0
100
AcDbPoint
 10
81.0
 20
170.217391
 30
0.0
  0
POINT
  5
693
100
AcDbEntity
  8
DEFPOINTS
  6
BYBLOCK
 62
     0
100
AcDbPoint
 10
93.0
 20
170.217391
 30
0.0
  0
POINT
  5
694
100
AcDbEntity
  8
DEFPOINTS
  6
BYBLOCK
 62
     0
100
AcDbPoint
 10
93.0
 20
186.249591
 30
0.0
  0
ENDBLK
  5
695
100
AcDbEntity
  8
0
100
AcDbBlockEnd
  0
BLOCK
  5
493
100
AcDbEntity
  8
0
100
AcDbBlockBegin
  2
*D2
 70
    65
 10
0.0
 20
0.0
 30
0.0
  3
*D2
  1

  0
LINE
  5
494
100
AcDbEntity
  8
0
  6
BYBLOCK
 62
     0
100
AcDbLine
 10
74.0261
 20
157.217391
 30
0.0
 11
107.595988
 21
157.217391
 31
0.0
  0
LINE
  5
495
100
AcDbEntity
  8
0
  6
BYBLOCK
 62
     0
100
AcDbLine
 10
96.5261
 20
144.217391
 30
0.0
 11
107.595988
 21
144.217391
 31
0.0
  0
LINE
  5
496
100
AcDbEntity
  8
0
  6
BYBLOCK
 62
     0
100
AcDbLine
 10
106.543788
 20
154.617391
 30
0.0
 11
106.543788
 21
146.817391
 31
0.0
  0
SOLID
  5
497
100
AcDbEntity
  8
0
  6
BYBLOCK
 62
     0
100
AcDbTrace
 10
106.110455
 20
154.617391
 30
0.0
 11
106.977122
 21
154.617391
 31
0.0
 12
106.543788
 22
157.217391
 32
0.0
 13
106.543788
 23
157.217391
 33
0.0
  0
SOLID
  5
498
100
AcDbEntity
  8
0
  6
BYBLOCK
 62
     0
100
AcDbTrace
 10
106.110455
 20
146.817391
 30
0.0
 11
106.977122
 21
146.817391
 31
0.0
 12
106.543788
 22
144.217391
 32
0.0
 13
106.543788
 23
144.217391
 33
0.0
  0
MTEXT
  5
499
100
AcDbEntity
  8
0
  6
BYBLOCK
 62
     0
100
AcDbMText
 10
104.513788
 20
150.717391
 30
0.0
 40
3.0
 41
0.0
 71
     5
 72
     1
  1
\A1;13
 11
0.0
 21
1.0
 31
0.0
  0
POINT
  5
49A
100
AcDbEntity
  8
DEFPOINTS
  6
BYBLOCK
 62
     0
100
AcDbPoint
 10
73.5
 20
157.217391
 30
0.0
  0
POINT
  5
49B
100
AcDbEntity
  8
DEFPOINTS
  6
BYBLOCK
 62
     0
100
AcDbPoint
 10
96.0
 20
144.217391
 30
0.0
  0
POINT
  5
49C
100
AcDbEntity
  8
DEFPOINTS
  6
BYBLOCK
 62
     0
100
AcDbPoint
 10
106.543788
 20
144.217391
 30
0.0
  0
ENDBLK
  5
49D
100
AcDbEntity
  8
0
100
AcDbBlockEnd
  0
BLOCK
  5
49E
100
AcDbEntity
  8
0
100
AcDbBlockBegin
  2
*D3
 70
    65
 10
0.0
 20
0.0
 30
0.0
  3
*D3
  1

  0
LINE
  5
49F
100
AcDbEntity
  8
0
  6
BYBLOCK
 62
     0
100
AcDbLine
 10
70.0261
 20
162.180382
 30
0.0
 11
115.257176
 21
162.180382
 31
0.0
  0
LINE
  5
4A0
100
AcDbEntity
  8
0
  6
BYBLOCK
 62
     0
100
AcDbLine
 10
96.5261
 20
144.217391
 30
0.0
 11
115.257176
 21
144.217391
 31
0.0
  0
LINE
  5
4A1
100
AcDbEntity
  8
0
  6
BYBLOCK
 62
     0
100
AcDbLine
 10
114.204976
 20
159.580382
 30
0.0
 11
114.204976
 21
146.817391
 31
0.0
  0
SOLID
  5
4A2
100
AcDbEntity
  8
0
  6
BYBLOCK
 62
     0
100
AcDbTrace
 10
113.771643
 20
159.580382
 30
0.0
 11
114.638309
 21
159.580382
 31
0.0
 12
114.204976
 22
162.180382
 32
0.0
 13
114.204976
 23
162.180382
 33
0.0
  0
SOLID
  5
4A3
100
AcDbEntity
  8
0
  6
BYBLOCK
 62
     0
100
AcDbTrace
 10
113.771643
 20
146.817391
 30
0.0
 11
114.638309
 21
146.817391
 31
0.0
 12
114.204976
 22
144.217391
 32
0.0
 13
114.204976
 23
144.217391
 33
0.0
  0
MTEXT
  5
4A4
100
AcDbEntity
  8
0
  6
BYBLOCK
 62
     0
100
AcDbMText
 10
112.174976
 20
153.198887
 30
0.0
 40
3.0
 41
0.0
 71
     5
 72
     1
  1
\A1;{18}
 11
0.0
 21
1.0
 31
0.0
  0
POINT
  5
4A5
100
AcDbEntity
  8
DEFPOINTS
  6
BYBLOCK
 62
     0
100
AcDbPoint
 10
69.5
 20
162.180382
 30
0.0
  0
POINT
  5
4A6
100
AcDbEntity
  8
DEFPOINTS
  6
BYBLOCK
 62
     0
100
AcDbPoint
 10
96.0
 20
144.217391
 30
0.0
  0
POINT
  5
4A7
100
AcDbEntity
  8
DEFPOINTS
  6
BYBLOCK
 62
     0
100
AcDbPoint
 10
114.204976
 20
144.217391
 30
0.0
  0
ENDBLK
  5
4A8
100
AcDbEntity
  8
0
100
AcDbBlockEnd
  0
BLOCK
  5
51E
100
AcDbEntity
  8
0
100
AcDbBlockBegin
  2
*D4
 70
    65
 10
0.0
 20
0.0
 30
0.0
  3
*D4
  1

  0
LINE
  5
51F
100
AcDbEntity
  8
0
  6
BYBLOCK
 62
     0
100
AcDbLine
 10
65.5
 20
143.691291
 30
0.0
 11
65.5
 21
134.53856
 31
0.0
  0
LINE
  5
520
100
AcDbEntity
  8
0
  6
BYBLOCK
 62
     0
100
AcDbLine
 10
73.5
 20
143.691291
 30
0.0
 11
73.5
 21
134.53856
 31
0.0
  0
LINE
  5
521
100
AcDbEntity
  8
0
  6
BYBLOCK
 62
     0
100
AcDbLine
 10
62.9
 20
135.59076
 30
0.0
 11
60.3
 21
135.59076
 31
0.0
  0
LINE
  5
522
100
AcDbEntity
  8
0
  6
BYBLOCK
 62
     0
100
AcDbLine
 10
76.1
 20
135.59076
 30
0.0
 11
78.7
 21
135.59076
 31
0.0
  0
LINE
  5
523
100
AcDbEntity
  8
0
  6
BYBLOCK
 62
     0
100
AcDbLine
 10
65.5
 20
135.59076
 30
0.0
 11
73.5
 21
135.59076
 31
0.0
  0
SOLID
  5
524
100
AcDbEntity
  8
0
  6
BYBLOCK
 62
     0
100
AcDbTrace
 10
62.9
 20
136.024093
 30
0.0
 11
62.9
 21
135.157426
 31
0.0
 12
65.5
 22
135.59076
 32
0.0
 13
65.5
 23
135.59076
 33
0.0
  0
SOLID
  5
525
100
AcDbEntity
  8
0
  6
BYBLOCK
 62
     0
100
AcDbTrace
 10
76.1
 20
136.024093
 30
0.0
 11
76.1
 21
135.157426
 31
0.0
 12
73.5
 22
135.59076
 32
0.0
 13
73.5
 23
135.59076
 33
0.0
  0
MTEXT
  5
526
100
AcDbEntity
  8
0
  6
BYBLOCK
 62
     0
100
AcDbMText
 10
69.5
 20
137.62076
 30
0.0
 40
3.0
 41
0.0
 71
     5
 72
     1
  1
\A1;{M8}
  0
POINT
  5
527
100
AcDbEntity
  8
DEFPOINTS
  6
BYBLOCK
 62
     0
100
AcDbPoint
 10
65.5
 20
144.217391
 30
0.0
  0
POINT
  5
528
100
AcDbEntity
  8
DEFPOINTS
  6
BYBLOCK
 62
     0
100
AcDbPoint
 10
73.5
 20
144.217391
 30
0.0
  0
POINT
  5
529
100
AcDbEntity
  8
DEFPOINTS
  6
BYBLOCK
 62
     0
100
AcDbPoint
 10
73.5
 20
135.59076
 30
0.0
  0
ENDBLK
  5
52A
100
AcDbEntity
  8
0
100
AcDbBlockEnd
  0
BLOCK
  5
5ED
100
AcDbEntity
  8
0
100
AcDbBlockBegin
  2
*D5
 70
    65
 10
0.0
 20
0.0
 30
0.0
  3
*D5
  1

  0
LINE
  5
5EE
100
AcDbEntity
  8
0
  6
BYBLOCK
 62
     0
100
AcDbLine
 10
41.9739
 20
170.217391
 30
0.0
 11
34.892397
 21
170.217391
 31
0.0
  0
LINE
  5
5EF
100
AcDbEntity
  8
0
  6
BYBLOCK
 62
     0
100
AcDbLine
 10
42.4739
 20
144.217391
 30
0.0
 11
34.892397
 21
144.217391
 31
0.0
  0
LINE
  5
5F0
100
AcDbEntity
  8
0
  6
BYBLOCK
 62
     0
100
AcDbLine
 10
35.944597
 20
167.617391
 30
0.0
 11
35.944597
 21
146.817391
 31
0.0
  0
SOLID
  5
5F1
100
AcDbEntity
  8
0
  6
BYBLOCK
 62
     0
100
AcDbTrace
 10
35.511263
 20
167.617391
 30
0.0
 11
36.37793
 21
167.617391
 31
0.0
 12
35.944597
 22
170.217391
 32
0.0
 13
35.944597
 23
170.217391
 33
0.0
  0
SOLID
  5
5F2
100
AcDbEntity
  8
0
  6
BYBLOCK
 62
     0
100
AcDbTrace
 10
35.511263
 20
146.817391
 30
0.0
 11
36.37793
 21
146.817391
 31
0.0
 12
35.944597
 22
144.217391
 32
0.0
 13
35.944597
 23
144.217391
 33
0.0
  0
MTEXT
  5
5F3
100
AcDbEntity
  8
0
  6
BYBLOCK
 62
     0
100
AcDbMText
 10
31.988711
 20
157.217391
 30
0.0
 40
3.0
 41
0.0
 71
     5
 72
     1
  1
\A1;26\S 0.00^ -0.02;
 11
0.0
 21
1.0
 31
0.0
  0
POINT
  5
5F4
100
AcDbEntity
  8
DEFPOINTS
  6
BYBLOCK
 62
     0
100
AcDbPoint
 10
42.5
 20
170.217391
 30
0.0
  0
POINT
  5
5F5
100
AcDbEntity
  8
DEFPOINTS
  6
BYBLOCK
 62
     0
100
AcDbPoint
 10
43.0
 20
144.217391
 30
0.0
  0
POINT
  5
5F6
100
AcDbEntity
  8
DEFPOINTS
  6
BYBLOCK
 62
     0
100
AcDbPoint
 10
35.944597
 20
144.217391
 30
0.0
  0
ENDBLK
  5
5F7
100
AcDbEntity
  8
0
100
AcDbBlockEnd
  0
BLOCK
  5
52B
100
AcDbEntity
  8
0
100
AcDbBlockBegin
  2
*D6
 70
    65
 10
0.0
 20
0.0
 30
0.0
  3
*D6
  1

  0
LINE
  5
52C
100
AcDbEntity
  8
0
  6
BYBLOCK
 62
     0
100
AcDbLine
 10
42.0
 20
144.691291
 30
0.0
 11
42.0
 21
117.255276
 31
0.0
  0
LINE
  5
52D
100
AcDbEntity
  8
0
  6
BYBLOCK
 62
     0
100
AcDbLine
 10
97.0
 20
144.691291
 30
0.0
 11
97.0
 21
117.255276
 31
0.0
  0
LINE
  5
52E
100
AcDbEntity
  8
0
  6
BYBLOCK
 62
     0
100
AcDbLine
 10
44.6
 20
118.307476
 30
0.0
 11
94.4
 21
118.307476
 31
0.0
  0
SOLID
  5
52F
100
AcDbEntity
  8
0
  6
BYBLOCK
 62
     0
100
AcDbTrace
 10
44.6
 20
118.740809
 30
0.0
 11
44.6
 21
117.874143
 31
0.0
 12
42.0
 22
118.307476
 32
0.0
 13
42.0
 23
118.307476
 33
0.0
  0
SOLID
  5
530
100
AcDbEntity
  8
0
  6
BYBLOCK
 62
     0
100
AcDbTrace
 10
94.4
 20
118.740809
 30
0.0
 11
94.4
 21
117.874143
 31
0.0
 12
97.0
 22
118.307476
 32
0.0
 13
97.0
 23
118.307476
 33
0.0
  0
MTEXT
  5
531
100
AcDbEntity
  8
0
  6
BYBLOCK
 62
     0
100
AcDbMText
 10
69.5
 20
120.337771
 30
0.0
 40
3.0
 41
0.0
 71
     5
 72
     1
  1
\A1;55±0.02
  0
POINT
  5
532
100
AcDbEntity
  8
DEFPOINTS
  6
BYBLOCK
 62
     0
100
AcDbPoint
 10
42.0
 20
145.217391
 30
0.0
  0
POINT
  5
533
100
AcDbEntity
  8
DEFPOINTS
  6
BYBLOCK
 62
     0
100
AcDbPoint
 10
97.0
 20
145.217391
 30
0.0
  0
POINT
  5
534
100
AcDbEntity
  8
DEFPOINTS
  6
BYBLOCK
 62
     0
100
AcDbPoint
 10
97.0
 20
118.307476
 30
0.0
  0
ENDBLK
  5
535
100
AcDbEntity
  8
0
100
AcDbBlockEnd
  0
BLOCK
  5
2F2
100
AcDbEntity
  8
0
100
AcDbBlockBegin
  2
*D7
 70
    65
 10
0.0
 20
0.0
 30
0.0
  3
*D7
  1

  0
LINE
  5
2F3
100
AcDbEntity
  8
0
  6
BYBLOCK
 62
     0
100
AcDbLine
 10
45.055909
 20
68.536088
 30
0.0
 11
45.055909
 21
77.639304
 31
0.0
  0
LINE
  5
2F4
100
AcDbEntity
  8
0
  6
BYBLOCK
 62
     0
100
AcDbLine
 10
65.855909
 20
68.536088
 30
0.0
 11
65.855909
 21
77.639304
 31
0.0
  0
LINE
  5
2F5
100
AcDbEntity
  8
0
  6
BYBLOCK
 62
     0
100
AcDbLine
 10
47.655909
 20
76.587104
 30
0.0
 11
63.255909
 21
76.587104
 31
0.0
  0
SOLID
  5
2F6
100
AcDbEntity
  8
0
  6
BYBLOCK
 62
     0
100
AcDbTrace
 10
47.655909
 20
77.020438
 30
0.0
 11
47.655909
 21
76.153771
 31
0.0
 12
45.055909
 22
76.587104
 32
0.0
 13
45.055909
 23
76.587104
 33
0.0
  0
SOLID
  5
2F7
100
AcDbEntity
  8
0
  6
BYBLOCK
 62
     0
100
AcDbTrace
 10
63.255909
 20
77.020438
 30
0.0
 11
63.255909
 21
76.153771
 31
0.0
 12
65.855909
 22
76.587104
 32
0.0
 13
65.855909
 23
76.587104
 33
0.0
  0
MTEXT
  5
2F8
100
AcDbEntity
  8
0
  6
BYBLOCK
 62
     0
100
AcDbMText
 10
55.455909
 20
78.617104
 30
0.0
 40
3.0
 41
0.0
 71
     5
 72
     1
  1
\A1;{104}
  0
POINT
  5
2F9
100
AcDbEntity
  8
DEFPOINTS
  6
BYBLOCK
 62
     0
100
AcDbPoint
 10
45.055909
 20
68.009988
 30
0.0
  0
POINT
  5
2FA
100
AcDbEntity
  8
DEFPOINTS
  6
BYBLOCK
 62
     0
100
AcDbPoint
 10
65.855909
 20
68.009988
 30
0.0
  0
POINT
  5
2FB
100
AcDbEntity
  8
DEFPOINTS
  6
BYBLOCK
 62
     0
100
AcDbPoint
 10
65.855909
 20
76.587104
 30
0.0
  0
ENDBLK
  5
2FC
100
AcDbEntity
  8
0
100
AcDbBlockEnd
  0
BLOCK
  5
2FF
100
AcDbEntity
  8
0
100
AcDbBlockBegin
  2
*D8
 70
    65
 10
0.0
 20
0.0
 30
0.0
  3
*D8
  1

  0
LINE
  5
300
100
AcDbEntity
  8
0
  6
BYBLOCK
 62
     0
100
AcDbLine
 10
65.855909
 20
68.536088
 30
0.0
 11
65.855909
 21
77.639304
 31
0.0
  0
LINE
  5
301
100
AcDbEntity
  8
0
  6
BYBLOCK
 62
     0
100
AcDbLine
 10
107.655909
 20
68.536088
 30
0.0
 11
107.655909
 21
77.639304
 31
0.0
  0
LINE
  5
302
100
AcDbEntity
  8
0
  6
BYBLOCK
 62
     0
100
AcDbLine
 10
68.455909
 20
76.587104
 30
0.0
 11
105.055909
 21
76.587104
 31
0.0
  0
SOLID
  5
303
100
AcDbEntity
  8
0
  6
BYBLOCK
 62
     0
100
AcDbTrace
 10
68.455909
 20
77.020438
 30
0.0
 11
68.455909
 21
76.153771
 31
0.0
 12
65.855909
 22
76.587104
 32
0.0
 13
65.855909
 23
76.587104
 33
0.0
  0
SOLID
  5
304
100
AcDbEntity
  8
0
  6
BYBLOCK
 62
     0
100
AcDbTrace
 10
105.055909
 20
77.020438
 30
0.0
 11
105.055909
 21
76.153771
 31
0.0
 12
107.655909
 22
76.587104
 32
0.0
 13
107.655909
 23
76.587104
 33
0.0
  0
MTEXT
  5
305
100
AcDbEntity
  8
0
  6
BYBLOCK
 62
     0
100
AcDbMText
 10
86.755909
 20
78.617104
 30
0.0
 40
3.0
 41
0.0
 71
     5
 72
     1
  1
\A1;{209}
  0
POINT
  5
306
100
AcDbEntity
  8
DEFPOINTS
  6
BYBLOCK
 62
     0
100
AcDbPoint
 10
65.855909
 20
68.009988
 30
0.0
  0
POINT
  5
307
100
AcDbEntity
  8
DEFPOINTS
  6
BYBLOCK
 62
     0
100
AcDbPoint
 10
107.655909
 20
68.009988
 30
0.0
  0
POINT
  5
308
100
AcDbEntity
  8
DEFPOINTS
  6
BYBLOCK
 62
     0
100
AcDbPoint
 10
107.655909
 20
76.587104
 30
0.0
  0
ENDBLK
  5
309
100
AcDbEntity
  8
0
100
AcDbBlockEnd
  0
BLOCK
  5
30C
100
AcDbEntity
  8
0
100
AcDbBlockBegin
  2
*D9
 70
    65
 10
0.0
 20
0.0
 30
0.0
  3
*D9
  1

  0
LINE
  5
30D
100
AcDbEntity
  8
0
  6
BYBLOCK
 62
     0
100
AcDbLine
 10
107.655909
 20
68.536088
 30
0.0
 11
107.655909
 21
77.639304
 31
0.0
  0
LINE
  5
30E
100
AcDbEntity
  8
0
  6
BYBLOCK
 62
     0
100
AcDbLine
 10
149.455909
 20
68.536088
 30
0.0
 11
149.455909
 21
77.639304
 31
0.0
  0
LINE
  5
30F
100
AcDbEntity
  8
0
  6
BYBLOCK
 62
     0
100
AcDbLine
 10
110.255909
 20
76.587104
 30
0.0
 11
146.855909
 21
76.587104
 31
0.0
  0
SOLID
  5
310
100
AcDbEntity
  8
0
  6
BYBLOCK
 62
     0
100
AcDbTrace
 10
110.255909
 20
77.020438
 30
0.0
 11
110.255909
 21
76.153771
 31
0.0
 12
107.655909
 22
76.587104
 32
0.0
 13
107.655909
 23
76.587104
 33
0.0
  0
SOLID
  5
311
100
AcDbEntity
  8
0
  6
BYBLOCK
 62
     0
100
AcDbTrace
 10
146.855909
 20
77.020438
 30
0.0
 11
146.855909
 21
76.153771
 31
0.0
 12
149.455909
 22
76.587104
 32
0.0
 13
149.455909
 23
76.587104
 33
0.0
  0
MTEXT
  5
312
100
AcDbEntity
  8
0
  6
BYBLOCK
 62
     0
100
AcDbMText
 10
128.555909
 20
78.617104
 30
0.0
 40
3.0
 41
0.0
 71
     5
 72
     1
  1
\A1;{209}
  0
POINT
  5
313
100
AcDbEntity
  8
DEFPOINTS
  6
BYBLOCK
 62
     0
100
AcDbPoint
 10
107.655909
 20
68.009988
 30
0.0
  0
POINT
  5
314
100
AcDbEntity
  8
DEFPOINTS
  6
BYBLOCK
 62
     0
100
AcDbPoint
 10
149.455909
 20
68.009988
 30
0.0
  0
POINT
  5
315
100
AcDbEntity
  8
DEFPOINTS
  6
BYBLOCK
 62
     0
100
AcDbPoint
 10
149.455909
 20
76.587104
 30
0.0
  0
ENDBLK
  5
316
100
AcDbEntity
  8
0
100
AcDbBlockEnd
  0
BLOCK
  5
319
100
AcDbEntity
  8
0
100
AcDbBlockBegin
  2
*D10
 70
    65
 10
0.0
 20
0.0
 30
0.0
  3
*D10
  1

  0
LINE
  5
31A
100
AcDbEntity
  8
0
  6
BYBLOCK
 62
     0
100
AcDbLine
 10
149.455909
 20
68.536088
 30
0.0
 11
149.455909
 21
77.639305
 31
0.0
  0
LINE
  5
31B
100
AcDbEntity
  8
0
  6
BYBLOCK
 62
     0
100
AcDbLine
 10
191.255909
 20
68.536088
 30
0.0
 11
191.255909
 21
77.639305
 31
0.0
  0
LINE
  5
31C
100
AcDbEntity
  8
0
  6
BYBLOCK
 62
     0
100
AcDbLine
 10
152.055909
 20
76.587105
 30
0.0
 11
188.655909
 21
76.587105
 31
0.0
  0
SOLID
  5
31D
100
AcDbEntity
  8
0
  6
BYBLOCK
 62
     0
100
AcDbTrace
 10
152.055909
 20
77.020438
 30
0.0
 11
152.055909
 21
76.153771
 31
0.0
 12
149.455909
 22
76.587105
 32
0.0
 13
149.455909
 23
76.587105
 33
0.0
  0
SOLID
  5
31E
100
AcDbEntity
  8
0
  6
BYBLOCK
 62
     0
100
AcDbTrace
 10
188.655909
 20
77.020438
 30
0.0
 11
188.655909
 21
76.153771
 31
0.0
 12
191.255909
 22
76.587105
 32
0.0
 13
191.255909
 23
76.587105
 33
0.0
  0
MTEXT
  5
31F
100
AcDbEntity
  8
0
  6
BYBLOCK
 62
     0
100
AcDbMText
 10
170.355909
 20
78.617105
 30
0.0
 40
3.0
 41
0.0
 71
     5
 72
     1
  1
\A1;{209}
  0
POINT
  5
320
100
AcDbEntity
  8
DEFPOINTS
  6
BYBLOCK
 62
     0
100
AcDbPoint
 10
149.455909
 20
68.009988
 30
0.0
  0
POINT
  5
321
100
AcDbEntity
  8
DEFPOINTS
  6
BYBLOCK
 62
     0
100
AcDbPoint
 10
191.255909
 20
68.009988
 30
0.0
  0
POINT
  5
322
100
AcDbEntity
  8
DEFPOINTS
  6
BYBLOCK
 62
     0
100
AcDbPoint
 10
191.255909
 20
76.587105
 30
0.0
  0
ENDBLK
  5
323
100
AcDbEntity
  8
0
100
AcDbBlockEnd
  0
BLOCK
  5
326
100
AcDbEntity
  8
0
100
AcDbBlockBegin
  2
*D11
 70
    65
 10
0.0
 20
0.0
 30
0.0
  3
*D11
  1

  0
LINE
  5
327
100
AcDbEntity
  8
0
  6
BYBLOCK
 62
     0
100
AcDbLine
 10
191.255909
 20
68.536088
 30
0.0
 11
191.255909
 21
77.639305
 31
0.0
  0
LINE
  5
328
100
AcDbEntity
  8
0
  6
BYBLOCK
 62
     0
100
AcDbLine
 10
212.055909
 20
68.536088
 30
0.0
 11
212.055909
 21
77.639305
 31
0.0
  0
LINE
  5
329
100
AcDbEntity
  8
0
  6
BYBLOCK
 62
     0
100
AcDbLine
 10
193.855909
 20
76.587105
 30
0.0
 11
209.455909
 21
76.587105
 31
0.0
  0
SOLID
  5
32A
100
AcDbEntity
  8
0
  6
BYBLOCK
 62
     0
100
AcDbTrace
 10
193.855909
 20
77.020438
 30
0.0
 11
193.855909
 21
76.153771
 31
0.0
 12
191.255909
 22
76.587105
 32
0.0
 13
191.255909
 23
76.587105
 33
0.0
  0
SOLID
  5
32B
100
AcDbEntity
  8
0
  6
BYBLOCK
 62
     0
100
AcDbTrace
 10
209.455909
 20
77.020438
 30
0.0
 11
209.455909
 21
76.153771
 31
0.0
 12
212.055909
 22
76.587105
 32
0.0
 13
212.055909
 23
76.587105
 33
0.0
  0
MTEXT
  5
32C
100
AcDbEntity
  8
0
  6
BYBLOCK
 62
     0
100
AcDbMText
 10
201.655909
 20
78.617105
 30
0.0
 40
3.0
 41
0.0
 71
     5
 72
     1
  1
\A1;{104}
  0
POINT
  5
32D
100
AcDbEntity
  8
DEFPOINTS
  6
BYBLOCK
 62
     0
100
AcDbPoint
 10
191.255909
 20
68.009988
 30
0.0
  0
POINT
  5
32E
100
AcDbEntity
  8
DEFPOINTS
  6
BYBLOCK
 62
     0
100
AcDbPoint
 10
212.055909
 20
68.009988
 30
0.0
  0
POINT
  5
32F
100
AcDbEntity
  8
DEFPOINTS
  6
BYBLOCK
 62
     0
100
AcDbPoint
 10
212.055909
 20
76.587105
 30
0.0
  0
ENDBLK
  5
330
100
AcDbEntity
  8
0
100
AcDbBlockEnd
  0
BLOCK
  5
341
100
AcDbEntity
  8
0
100
AcDbBlockBegin
  2
*D12
 70
    65
 10
0.0
 20
0.0
 30
0.0
  3
*D12
  1

  0
LINE
  5
342
100
AcDbEntity
  8
0
  6
BYBLOCK
 62
     0
100
AcDbLine
 10
45.055909
 20
68.536088
 30
0.0
 11
45.055909
 21
87.036375
 31
0.0
  0
LINE
  5
343
100
AcDbEntity
  8
0
  6
BYBLOCK
 62
     0
100
AcDbLine
 10
212.055909
 20
68.536088
 30
0.0
 11
212.055909
 21
87.036375
 31
0.0
  0
LINE
  5
344
100
AcDbEntity
  8
0
  6
BYBLOCK
 62
     0
100
AcDbLine
 10
47.655909
 20
85.984175
 30
0.0
 11
209.455909
 21
85.984175
 31
0.0
  0
SOLID
  5
345
100
AcDbEntity
  8
0
  6
BYBLOCK
 62
     0
100
AcDbTrace
 10
47.655909
 20
86.417509
 30
0.0
 11
47.655909
 21
85.550842
 31
0.0
 12
45.055909
 22
85.984175
 32
0.0
 13
45.055909
 23
85.984175
 33
0.0
  0
SOLID
  5
346
100
AcDbEntity
  8
0
  6
BYBLOCK
 62
     0
100
AcDbTrace
 10
209.455909
 20
86.417509
 30
0.0
 11
209.455909
 21
85.550842
 31
0.0
 12
212.055909
 22
85.984175
 32
0.0
 13
212.055909
 23
85.984175
 33
0.0
  0
MTEXT
  5
347
100
AcDbEntity
  8
0
  6
BYBLOCK
 62
     0
100
AcDbMText
 10
128.555909
 20
88.014175
 30
0.0
 40
3.0
 41
0.0
 71
     5
 72
     1
  1
\A1;{835}
  0
POINT
  5
348
100
AcDbEntity
  8
DEFPOINTS
  6
BYBLOCK
 62
     0
100
AcDbPoint
 10
45.055909
 20
68.009988
 30
0.0
  0
POINT
  5
349
100
AcDbEntity
  8
DEFPOINTS
  6
BYBLOCK
 62
     0
100
AcDbPoint
 10
212.055909
 20
68.009988
 30
0.0
  0
POINT
  5
34A
100
AcDbEntity
  8
DEFPOINTS
  6
BYBLOCK
 62
     0
100
AcDbPoint
 10
212.055909
 20
85.984175
 30
0.0
  0
ENDBLK
  5
34B
100
AcDbEntity
  8
0
100
AcDbBlockEnd
  0
BLOCK
  5
3DC
100
AcDbEntity
  8
0
100
AcDbBlockBegin
  2
*D13
 70
    65
 10
0.0
 20
0.0
 30
0.0
  3
*D13
  1

  0
LINE
  5
3DD
100
AcDbEntity
  8
0
  6
BYBLOCK
 62
     0
100
AcDbLine
 10
142.314447
 20
175.375608
 30
0.0
 11
127.201017
 21
175.375608
 31
0.0
  0
ARC
  5
3DE
100
AcDbEntity
  8
0
  6
BYBLOCK
 62
     0
100
AcDbCircle
 10
142.840547
 20
175.375608
 30
0.0
 40
14.58733
100
AcDbArc
 50
190.225787
 51
259.774213
  0
SOLID
  5
3DF
100
AcDbEntity
  8
0
  6
BYBLOCK
 62
     0
100
AcDbTrace
 10
128.053316
 20
172.747336
 30
0.0
 11
128.916535
 21
172.824572
 31
0.0
 12
128.253217
 22
175.375608
 32
0.0
 13
128.253217
 23
175.375608
 33
0.0
  0
SOLID
  5
3E0
100
AcDbEntity
  8
0
  6
BYBLOCK
 62
     0
100
AcDbTrace
 10
140.289511
 20
161.451596
 30
0.0
 11
140.212275
 21
160.588378
 31
0.0
 12
142.840547
 22
160.788279
 32
0.0
 13
142.840547
 23
160.788279
 33
0.0
  0
MTEXT
  5
3E1
100
AcDbEntity
  8
0
  6
BYBLOCK
 62
     0
100
AcDbMText
 10
133.961174
 20
166.496235
 30
0.0
 40
3.0
 41
0.0
 71
     5
 72
     1
  1
\A1;90°
 11
0.707107
 21
-0.707107
 31
0.0
  0
POINT
  5
3E2
100
AcDbEntity
  8
DEFPOINTS
  6
BYBLOCK
 62
     0
100
AcDbPoint
 10
130.207549
 20
168.081944
 30
0.0
  0
POINT
  5
3E3
100
AcDbEntity
  8
DEFPOINTS
  6
BYBLOCK
 62
     0
100
AcDbPoint
 10
142.840547
 20
175.375608
 30
0.0
  0
POINT
  5
3E4
100
AcDbEntity
  8
DEFPOINTS
  6
BYBLOCK
 62
     0
100
AcDbPoint
 10
142.840547
 20
175.375608
 30
0.0
  0
POINT
  5
3E5
100
AcDbEntity
  8
DEFPOINTS
  6
BYBLOCK
 62
     0
100
AcDbPoint
 10
142.840547
 20
144.375608
 30
0.0
  0
POINT
  5
3E6
100
AcDbEntity
  8
DEFPOINTS
  6
BYBLOCK
 62
     0
100
AcDbPoint
 10
158.338321
 20
175.375608
 30
0.0
  0
ENDBLK
  5
3E7
100
AcDbEntity
  8
0
100
AcDbBlockEnd
  0
BLOCK
  5
3EA
100
AcDbEntity
  8
0
100
AcDbBlockBegin
  2
*D14
 70
    65
 10
0.0
 20
0.0
 30
0.0
  3
*D14
  1

  0
LINE
  5
3EB
100
AcDbEntity
  8
0
  6
BYBLOCK
 62
     0
100
AcDbLine
 10
183.366647
 20
175.375608
 30
0.0
 11
198.453009
 21
175.375608
 31
0.0
  0
ARC
  5
3EC
100
AcDbEntity
  8
0
  6
BYBLOCK
 62
     0
100
AcDbCircle
 10
182.840547
 20
175.375608
 30
0.0
 40
14.560262
100
AcDbArc
 50
280.244848
 51
349.755152
  0
SOLID
  5
3ED
100
AcDbEntity
  8
0
  6
BYBLOCK
 62
     0
100
AcDbTrace
 10
185.468853
 20
160.615883
 30
0.0
 11
185.391474
 21
161.479088
 31
0.0
 12
182.840547
 22
160.815347
 32
0.0
 13
182.840547
 23
160.815347
 33
0.0
  0
SOLID
  5
3EE
100
AcDbEntity
  8
0
  6
BYBLOCK
 62
     0
100
AcDbTrace
 10
196.737068
 20
172.824682
 30
0.0
 11
197.600273
 21
172.747303
 31
0.0
 12
197.400809
 22
175.375608
 32
0.0
 13
197.400809
 23
175.375608
 33
0.0
  0
MTEXT
  5
3EF
100
AcDbEntity
  8
0
  6
BYBLOCK
 62
     0
100
AcDbMText
 10
191.70078
 20
166.515375
 30
0.0
 40
3.0
 41
0.0
 71
     5
 72
     1
  1
\A1;90°
 11
0.707107
 21
0.707107
 31
0.0
  0
POINT
  5
3F0
100
AcDbEntity
  8
DEFPOINTS
  6
BYBLOCK
 62
     0
100
AcDbPoint
 10
190.120678
 20
162.766052
 30
0.0
  0
POINT
  5
3F1
100
AcDbEntity
  8
DEFPOINTS
  6
BYBLOCK
 62
     0
100
AcDbPoint
 10
161.390502
 20
175.375608
 30
0.0
  0
POINT
  5
3F2
100
AcDbEntity
  8
DEFPOINTS
  6
BYBLOCK
 62
     0
100
AcDbPoint
 10
182.840547
 20
175.375608
 30
0.0
  0
POINT
  5
3F3
100
AcDbEntity
  8
DEFPOINTS
  6
BYBLOCK
 62
     0
100
AcDbPoint
 10
182.840547
 20
144.375608
 30
0.0
  0
POINT
  5
3F4
100
AcDbEntity
  8
DEFPOINTS
  6
BYBLOCK
 62
     0
100
AcDbPoint
 10
182.840547
 20
175.375608
 30
0.0
  0
ENDBLK
  5
3F5
100
AcDbEntity
  8
0
100
AcDbBlockEnd
  0
BLOCK
  5
56A
100
AcDbEntity
  8
0
100
AcDbBlockBegin
  2
*D15
 70
    65
 10
0.0
 20
0.0
 30
0.0
  3
*D15
  1

  0
LINE
  5
56B
100
AcDbEntity
  8
0
  6
BYBLOCK
 62
     0
100
AcDbLine
 10
49.781467
 20
144.737426
 30
0.0
 11
50.00988
 21
125.474921
 31
0.0
  0
LINE
  5
56C
100
AcDbEntity
  8
0
  6
BYBLOCK
 62
     0
100
AcDbLine
 10
41.793886
 20
143.642639
 30
0.0
 11
42.010442
 21
125.380064
 31
0.0
  0
LINE
  5
56D
100
AcDbEntity
  8
0
  6
BYBLOCK
 62
     0
100
AcDbLine
 10
47.397586
 20
126.496218
 30
0.0
 11
44.597783
 21
126.463018
 31
0.0
  0
LINE
  5
56E
100
AcDbEntity
  8
0
  6
BYBLOCK
 62
     0
100
AcDbLine
 10
41.997966
 20
126.43219
 30
0.0
 11
23.690798
 21
126.215105
 31
0.0
  0
SOLID
  5
56F
100
AcDbEntity
  8
0
  6
BYBLOCK
 62
     0
100
AcDbTrace
 10
47.392448
 20
126.929521
 30
0.0
 11
47.402724
 21
126.062915
 31
0.0
 12
49.997404
 22
126.527047
 32
0.0
 13
49.997404
 23
126.527047
 33
0.0
  0
SOLID
  5
570
100
AcDbEntity
  8
0
  6
BYBLOCK
 62
     0
100
AcDbTrace
 10
44.592645
 20
126.896321
 30
0.0
 11
44.602921
 21
126.029716
 31
0.0
 12
41.997966
 22
126.43219
 32
0.0
 13
41.997966
 23
126.43219
 33
0.0
  0
MTEXT
  5
571
100
AcDbEntity
  8
0
  6
BYBLOCK
 62
     0
100
AcDbMText
 10
29.508449
 20
128.314233
 30
0.0
 40
3.0
 41
0.0
 71
     5
 72
     1
  1
\A1;8±0.05
 11
0.99993
 21
0.011857
 31
0.0
  0
POINT
  5
572
100
AcDbEntity
  8
DEFPOINTS
  6
BYBLOCK
 62
     0
100
AcDbPoint
 10
49.775229
 20
145.263489
 30
0.0
  0
POINT
  5
573
100
AcDbEntity
  8
DEFPOINTS
  6
BYBLOCK
 62
     0
100
AcDbPoint
 10
41.787648
 20
144.168703
 30
0.0
  0
POINT
  5
574
100
AcDbEntity
  8
DEFPOINTS
  6
BYBLOCK
 62
     0
100
AcDbPoint
 10
41.997966
 20
126.43219
 30
0.0
  0
ENDBLK
  5
575
100
AcDbEntity
  8
0
100
AcDbBlockEnd
  0
BLOCK
  5
552
100
AcDbEntity
  8
0
100
AcDbBlockBegin
  2
*D16
 70
    65
 10
0.0
 20
0.0
 30
0.0
  3
*D16
  1

  0
LINE
  5
553
100
AcDbEntity
  8
0
  6
BYBLOCK
 62
     0
100
AcDbLine
 10
50.0
 20
143.691291
 30
0.0
 11
50.0
 21
125.232176
 31
0.0
  0
LINE
  5
554
100
AcDbEntity
  8
0
  6
BYBLOCK
 62
     0
100
AcDbLine
 10
87.0
 20
143.691291
 30
0.0
 11
87.0
 21
125.232176
 31
0.0
  0
LINE
  5
555
100
AcDbEntity
  8
0
  6
BYBLOCK
 62
     0
100
AcDbLine
 10
52.6
 20
126.284376
 30
0.0
 11
84.4
 21
126.284376
 31
0.0
  0
SOLID
  5
556
100
AcDbEntity
  8
0
  6
BYBLOCK
 62
     0
100
AcDbTrace
 10
52.6
 20
126.717709
 30
0.0
 11
52.6
 21
125.851042
 31
0.0
 12
50.0
 22
126.284376
 32
0.0
 13
50.0
 23
126.284376
 33
0.0
  0
SOLID
  5
557
100
AcDbEntity
  8
0
  6
BYBLOCK
 62
     0
100
AcDbTrace
 10
84.4
 20
126.717709
 30
0.0
 11
84.4
 21
125.851042
 31
0.0
 12
87.0
 22
126.284376
 32
0.0
 13
87.0
 23
126.284376
 33
0.0
  0
MTEXT
  5
558
100
AcDbEntity
  8
0
  6
BYBLOCK
 62
     0
100
AcDbMText
 10
68.5
 20
128.314671
 30
0.0
 40
3.0
 41
0.0
 71
     5
 72
     1
  1
\A1;37±0.02
  0
POINT
  5
559
100
AcDbEntity
  8
DEFPOINTS
  6
BYBLOCK
 62
     0
100
AcDbPoint
 10
50.0
 20
144.217391
 30
0.0
  0
POINT
  5
55A
100
AcDbEntity
  8
DEFPOINTS
  6
BYBLOCK
 62
     0
100
AcDbPoint
 10
87.0
 20
144.217391
 30
0.0
  0
POINT
  5
55B
100
AcDbEntity
  8
DEFPOINTS
  6
BYBLOCK
 62
     0
100
AcDbPoint
 10
87.0
 20
126.284376
 30
0.0
  0
ENDBLK
  5
55C
100
AcDbEntity
  8
0
100
AcDbBlockEnd
  0
BLOCK
  5
5A8
100
AcDbEntity
  8
0
100
AcDbBlockBegin
  2
*D17
 70
    65
 10
0.0
 20
0.0
 30
0.0
  3
*D17
  1

  0
LINE
  5
5A9
100
AcDbEntity
  8
0
  6
BYBLOCK
 62
     0
100
AcDbLine
 10
86.873105
 20
144.656352
 30
0.0
 11
87.007789
 21
125.13833
 31
0.0
  0
LINE
  5
5AA
100
AcDbEntity
  8
0
  6
BYBLOCK
 62
     0
100
AcDbLine
 10
96.879767
 20
143.725379
 30
0.0
 11
97.007551
 21
125.207334
 31
0.0
  0
LINE
  5
5AB
100
AcDbEntity
  8
0
  6
BYBLOCK
 62
     0
100
AcDbLine
 10
89.600467
 20
126.208446
 30
0.0
 11
94.400353
 21
126.241568
 31
0.0
  0
LINE
  5
5AC
100
AcDbEntity
  8
0
  6
BYBLOCK
 62
     0
100
AcDbLine
 10
97.000291
 20
126.259509
 30
0.0
 11
116.683397
 21
126.395332
 31
0.0
  0
SOLID
  5
5AD
100
AcDbEntity
  8
0
  6
BYBLOCK
 62
     0
100
AcDbTrace
 10
89.597477
 20
126.641769
 30
0.0
 11
89.603457
 21
125.775123
 31
0.0
 12
87.000529
 22
126.190505
 32
0.0
 13
87.000529
 23
126.190505
 33
0.0
  0
SOLID
  5
5AE
100
AcDbEntity
  8
0
  6
BYBLOCK
 62
     0
100
AcDbTrace
 10
94.397362
 20
126.674891
 30
0.0
 11
94.403343
 21
125.808245
 31
0.0
 12
97.000291
 22
126.259509
 32
0.0
 13
97.000291
 23
126.259509
 33
0.0
  0
MTEXT
  5
5AF
100
AcDbEntity
  8
0
  6
BYBLOCK
 62
     0
100
AcDbMText
 10
110.077414
 20
128.379796
 30
0.0
 40
3.0
 41
0.0
 71
     5
 72
     1
  1
\A1;10±0.05
 11
0.999976
 21
0.0069
 31
0.0
  0
POINT
  5
5B0
100
AcDbEntity
  8
DEFPOINTS
  6
BYBLOCK
 62
     0
100
AcDbPoint
 10
86.869475
 20
145.182439
 30
0.0
  0
POINT
  5
5B1
100
AcDbEntity
  8
DEFPOINTS
  6
BYBLOCK
 62
     0
100
AcDbPoint
 10
96.876137
 20
144.251466
 30
0.0
  0
POINT
  5
5B2
100
AcDbEntity
  8
DEFPOINTS
  6
BYBLOCK
 62
     0
100
AcDbPoint
 10
97.000291
 20
126.259509
 30
0.0
  0
ENDBLK
  5
5B3
100
AcDbEntity
  8
0
100
AcDbBlockEnd
  0
BLOCK
  5
644
100
AcDbEntity
  8
0
100
AcDbBlockBegin
  2
*D18
 70
    65
 10
0.0
 20
0.0
 30
0.0
  3
*D18
  1

  0
LINE
  5
645
100
AcDbEntity
  8
0
  6
BYBLOCK
 62
     0
100
AcDbLine
 10
87.5261
 20
177.825087
 30
0.0
 11
124.928801
 21
177.825087
 31
0.0
  0
LINE
  5
646
100
AcDbEntity
  8
0
  6
BYBLOCK
 62
     0
100
AcDbLine
 10
96.5261
 20
144.217391
 30
0.0
 11
124.928801
 21
144.217391
 31
0.0
  0
LINE
  5
647
100
AcDbEntity
  8
0
  6
BYBLOCK
 62
     0
100
AcDbLine
 10
123.876601
 20
175.225087
 30
0.0
 11
123.876601
 21
146.817391
 31
0.0
  0
SOLID
  5
648
100
AcDbEntity
  8
0
  6
BYBLOCK
 62
     0
100
AcDbTrace
 10
123.443268
 20
175.225087
 30
0.0
 11
124.309935
 21
175.225087
 31
0.0
 12
123.876601
 22
177.825087
 32
0.0
 13
123.876601
 23
177.825087
 33
0.0
  0
SOLID
  5
649
100
AcDbEntity
  8
0
  6
BYBLOCK
 62
     0
100
AcDbTrace
 10
123.443268
 20
146.817391
 30
0.0
 11
124.309935
 21
146.817391
 31
0.0
 12
123.876601
 22
144.217391
 32
0.0
 13
123.876601
 23
144.217391
 33
0.0
  0
MTEXT
  5
64A
100
AcDbEntity
  8
0
  6
BYBLOCK
 62
     0
100
AcDbMText
 10
119.920716
 20
161.021239
 30
0.0
 40
3.0
 41
0.0
 71
     5
 72
     1
  1
\A1;33.61\S+0.02^  0.00;
 11
0.0
 21
1.0
 31
0.0
  0
POINT
  5
64B
100
AcDbEntity
  8
DEFPOINTS
  6
BYBLOCK
 62
     0
100
AcDbPoint
 10
87.0
 20
177.825087
 30
0.0
  0
POINT
  5
64C
100
AcDbEntity
  8
DEFPOINTS
  6
BYBLOCK
 62
     0
100
AcDbPoint
 10
96.0
 20
144.217391
 30
0.0
  0
POINT
  5
64D
100
AcDbEntity
  8
DEFPOINTS
  6
BYBLOCK
 62
     0
100
AcDbPoint
 10
123.876601
 20
144.217391
 30
0.0
  0
ENDBLK
  5
64E
100
AcDbEntity
  8
0
100
AcDbBlockEnd
  0
BLOCK
  5
656
100
AcDbEntity
  8
0
100
AcDbBlockBegin
  2
*D19
 70
    65
 10
0.0
 20
0.0
 30
0.0
  3
*D19
  1

  0
LINE
  5
657
100
AcDbEntity
  8
0
  6
BYBLOCK
 62
     0
100
AcDbLine
 10
49.4739
 20
175.289188
 30
0.0
 11
26.460348
 21
175.289188
 31
0.0
  0
LINE
  5
658
100
AcDbEntity
  8
0
  6
BYBLOCK
 62
     0
100
AcDbLine
 10
42.4739
 20
144.217391
 30
0.0
 11
26.460348
 21
144.217391
 31
0.0
  0
LINE
  5
659
100
AcDbEntity
  8
0
  6
BYBLOCK
 62
     0
100
AcDbLine
 10
27.512548
 20
172.689188
 30
0.0
 11
27.512548
 21
146.817391
 31
0.0
  0
SOLID
  5
65A
100
AcDbEntity
  8
0
  6
BYBLOCK
 62
     0
100
AcDbTrace
 10
27.079215
 20
172.689188
 30
0.0
 11
27.945881
 21
172.689188
 31
0.0
 12
27.512548
 22
175.289188
 32
0.0
 13
27.512548
 23
175.289188
 33
0.0
  0
SOLID
  5
65B
100
AcDbEntity
  8
0
  6
BYBLOCK
 62
     0
100
AcDbTrace
 10
27.079215
 20
146.817391
 30
0.0
 11
27.945881
 21
146.817391
 31
0.0
 12
27.512548
 22
144.217391
 32
0.0
 13
27.512548
 23
144.217391
 33
0.0
  0
MTEXT
  5
65C
100
AcDbEntity
  8
0
  6
BYBLOCK
 62
     0
100
AcDbMText
 10
23.556662
 20
159.75329
 30
0.0
 40
3.0
 41
0.0
 71
     5
 72
     1
  1
\A1;31.07\S+0.02^  0.00;
 11
0.0
 21
1.0
 31
0.0
  0
POINT
  5
65D
100
AcDbEntity
  8
DEFPOINTS
  6
BYBLOCK
 62
     0
100
AcDbPoint
 10
50.0
 20
175.289188
 30
0.0
  0
POINT
  5
65E
100
AcDbEntity
  8
DEFPOINTS
  6
BYBLOCK
 62
     0
100
AcDbPoint
 10
43.0
 20
144.217391
 30
0.0
  0
POINT
  5
65F
100
AcDbEntity
  8
DEFPOINTS
  6
BYBLOCK
 62
     0
100
AcDbPoint
 10
27.512548
 20
144.217391
 30
0.0
  0
ENDBLK
  5
660
100
AcDbEntity
  8
0
100
AcDbBlockEnd
  0
BLOCK
  5
663
100
AcDbEntity
  8
0
100
AcDbBlockBegin
  2
*D20
 70
    65
 10
0.0
 20
0.0
 30
0.0
  3
*D20
  1

  0
LINE
  5
664
100
AcDbEntity
  8
0
  6
BYBLOCK
 62
     0
100
AcDbLine
 10
54.118712
 20
170.423007
 30
0.0
 11
67.025681
 21
192.778532
 31
0.0
  0
LINE
  5
665
100
AcDbEntity
  8
0
  6
BYBLOCK
 62
     0
100
AcDbLine
 10
45.881288
 20
170.423007
 30
0.0
 11
32.974319
 21
192.778532
 31
0.0
  0
ARC
  5
666
100
AcDbEntity
  8
0
  6
BYBLOCK
 62
     0
100
AcDbCircle
 10
50.0
 20
163.289188
 30
0.0
 40
32.999161
100
AcDbArc
 50
64.515496
 51
115.484504
  0
SOLID
  5
667
100
AcDbEntity
  8
0
  6
BYBLOCK
 62
     0
100
AcDbTrace
 10
64.400164
 20
193.461109
 30
0.0
 11
63.996735
 21
192.694065
 31
0.0
 12
66.499581
 22
191.8673
 32
0.0
 13
66.499581
 23
191.8673
 33
0.0
  0
SOLID
  5
668
100
AcDbEntity
  8
0
  6
BYBLOCK
 62
     0
100
AcDbTrace
 10
36.003265
 20
192.694065
 30
0.0
 11
35.599836
 21
193.461109
 31
0.0
 12
33.500419
 22
191.8673
 32
0.0
 13
33.500419
 23
191.8673
 33
0.0
  0
MTEXT
  5
669
100
AcDbEntity
  8
0
  6
BYBLOCK
 62
     0
100
AcDbMText
 10
50.0
 20
198.318349
 30
0.0
 40
3.0
 41
0.0
 71
     5
 72
     1
  1
\A1;60°
  0
POINT
  5
66A
100
AcDbEntity
  8
DEFPOINTS
  6
BYBLOCK
 62
     0
100
AcDbPoint
 10
55.730244
 20
195.787018
 30
0.0
  0
POINT
  5
66B
100
AcDbEntity
  8
DEFPOINTS
  6
BYBLOCK
 62
     0
100
AcDbPoint
 10
46.144338
 20
169.967391
 30
0.0
  0
POINT
  5
66C
100
AcDbEntity
  8
DEFPOINTS
  6
BYBLOCK
 62
     0
100
AcDbPoint
 10
53.855662
 20
169.967391
 30
0.0
  0
POINT
  5
66D
100
AcDbEntity
  8
DEFPOINTS
  6
BYBLOCK
 62
     0
100
AcDbPoint
 10
50.0
 20
163.289188
 30
0.0
  0
POINT
  5
66E
100
AcDbEntity
  8
DEFPOINTS
  6
BYBLOCK
 62
     0
100
AcDbPoint
 10
50.0
 20
163.289188
 30
0.0
  0
ENDBLK
  5
66F
100
AcDbEntity
  8
0
100
AcDbBlockEnd
  0
BLOCK
  5
672
100
AcDbEntity
  8
0
100
AcDbBlockBegin
  2
*D21
 70
    65
 10
0.0
 20
0.0
 30
0.0
  3
*D21
  1

  0
LINE
  5
673
100
AcDbEntity
  8
0
  6
BYBLOCK
 62
     0
100
AcDbLine
 10
93.03211
 20
170.273007
 30
0.0
 11
105.971212
 21
192.684191
 31
0.0
  0
LINE
  5
674
100
AcDbEntity
  8
0
  6
BYBLOCK
 62
     0
100
AcDbLine
 10
80.96789
 20
170.273007
 30
0.0
 11
68.028788
 21
192.684191
 31
0.0
  0
ARC
  5
675
100
AcDbEntity
  8
0
  6
BYBLOCK
 62
     0
100
AcDbCircle
 10
87.0
 20
159.825087
 30
0.0
 40
36.890225
100
AcDbArc
 50
64.039007
 51
115.960993
  0
SOLID
  5
676
100
AcDbEntity
  8
0
  6
BYBLOCK
 62
     0
100
AcDbTrace
 10
103.352341
 20
193.375483
 30
0.0
 11
102.945726
 21
192.610123
 31
0.0
 12
105.445112
 22
191.772959
 32
0.0
 13
105.445112
 23
191.772959
 33
0.0
  0
SOLID
  5
677
100
AcDbEntity
  8
0
  6
BYBLOCK
 62
     0
100
AcDbTrace
 10
71.054274
 20
192.610123
 30
0.0
 11
70.647659
 21
193.375483
 31
0.0
 12
68.554888
 22
191.772959
 32
0.0
 13
68.554888
 23
191.772959
 33
0.0
  0
MTEXT
  5
678
100
AcDbEntity
  8
0
  6
BYBLOCK
 62
     0
100
AcDbMText
 10
87.0
 20
198.745312
 30
0.0
 40
3.0
 41
0.0
 71
     5
 72
     1
  1
\A1;60°
  0
POINT
  5
679
100
AcDbEntity
  8
DEFPOINTS
  6
BYBLOCK
 62
     0
100
AcDbPoint
 10
93.40592
 20
196.154866
 30
0.0
  0
POINT
  5
67A
100
AcDbEntity
  8
DEFPOINTS
  6
BYBLOCK
 62
     0
100
AcDbPoint
 10
81.23094
 20
169.817391
 30
0.0
  0
POINT
  5
67B
100
AcDbEntity
  8
DEFPOINTS
  6
BYBLOCK
 62
     0
100
AcDbPoint
 10
92.76906
 20
169.817391
 30
0.0
  0
POINT
  5
67C
100
AcDbEntity
  8
DEFPOINTS
  6
BYBLOCK
 62
     0
100
AcDbPoint
 10
87.0
 20
159.825087
 30
0.0
  0
POINT
  5
67D
100
AcDbEntity
  8
DEFPOINTS
  6
BYBLOCK
 62
     0
100
AcDbPoint
 10
87.0
 20
159.825087
 30
0.0
  0
ENDBLK
  5
67E
100
AcDbEntity
  8
0
100
AcDbBlockEnd
  0
BLOCK
  5
6F3
100
AcDbEntity
  8
0
100
AcDbBlockBegin
  2
*D22
 70
    65
 10
0.0
 20
0.0
 30
0.0
  3
*D22
  1

  0
LINE
  5
6F4
100
AcDbEntity
  8
0
  6
BYBLOCK
 62
     0
100
AcDbLine
 10
125.739121
 20
210.354472
 30
0.0
 11
111.330673
 21
223.959056
 31
0.0
  0
LINE
  5
6F5
100
AcDbEntity
  8
0
  6
BYBLOCK
 62
     0
100
AcDbLine
 10
128.211256
 20
208.02026
 30
0.0
 11
127.629578
 21
208.569486
 31
0.0
  0
SOLID
  5
6F6
100
AcDbEntity
  8
0
  6
BYBLOCK
 62
     0
100
AcDbTrace
 10
126.036619
 20
210.669548
 30
0.0
 11
125.441623
 21
210.039396
 31
0.0
 12
127.629578
 22
208.569486
 32
0.0
 13
127.629578
 23
208.569486
 33
0.0
  0
MTEXT
  5
6F7
100
AcDbEntity
  8
0
  6
BYBLOCK
 62
     0
100
AcDbMText
 10
118.983534
 20
219.525482
 30
0.0
 40
3.0
 41
0.0
 71
     5
 72
     1
  1
\A1;R0.8±0.02
 11
0.727099
 21
-0.686533
 31
0.0
  0
LINE
  5
6F8
100
AcDbEntity
  8
0
  6
BYBLOCK
 62
     0
100
AcDbLine
 10
126.106856
 20
208.02026
 30
0.0
 11
130.315656
 21
208.02026
 31
0.0
  0
LINE
  5
6F9
100
AcDbEntity
  8
0
  6
BYBLOCK
 62
     0
100
AcDbLine
 10
128.211256
 20
205.91586
 30
0.0
 11
128.211256
 21
210.12466
 31
0.0
  0
POINT
  5
6FA
100
AcDbEntity
  8
DEFPOINTS
  6
BYBLOCK
 62
     0
100
AcDbPoint
 10
127.629578
 20
208.569486
 30
0.0
  0
POINT
  5
6FB
100
AcDbEntity
  8
DEFPOINTS
  6
BYBLOCK
 62
     0
100
AcDbPoint
 10
128.211256
 20
208.02026
 30
0.0
  0
ENDBLK
  5
6FC
100
AcDbEntity
  8
0
100
AcDbBlockEnd
  0
BLOCK
  5
70C
100
AcDbEntity
  8
0
100
AcDbBlockBegin
  2
*D23
 70
    65
 10
0.0
 20
0.0
 30
0.0
  3
*D23
  1

  0
LINE
  5
70D
100
AcDbEntity
  8
0
  6
BYBLOCK
 62
     0
100
AcDbLine
 10
188.391287
 20
229.804084
 30
0.0
 11
173.982839
 21
243.408668
 31
0.0
  0
LINE
  5
70E
100
AcDbEntity
  8
0
  6
BYBLOCK
 62
     0
100
AcDbLine
 10
190.863422
 20
227.469872
 30
0.0
 11
190.281743
 21
228.019098
 31
0.0
  0
SOLID
  5
70F
100
AcDbEntity
  8
0
  6
BYBLOCK
 62
     0
100
AcDbTrace
 10
188.688784
 20
230.11916
 30
0.0
 11
188.093789
 21
229.489008
 31
0.0
 12
190.281743
 22
228.019098
 32
0.0
 13
190.281743
 23
228.019098
 33
0.0
  0
MTEXT
  5
710
100
AcDbEntity
  8
0
  6
BYBLOCK
 62
     0
100
AcDbMText
 10
181.635699
 20
238.975094
 30
0.0
 40
3.0
 41
0.0
 71
     5
 72
     1
  1
\A1;R0.8±0.02
 11
0.727099
 21
-0.686533
 31
0.0
  0
LINE
  5
711
100
AcDbEntity
  8
0
  6
BYBLOCK
 62
     0
100
AcDbLine
 10
188.759022
 20
227.469872
 30
0.0
 11
192.967822
 21
227.469872
 31
0.0
  0
LINE
  5
712
100
AcDbEntity
  8
0
  6
BYBLOCK
 62
     0
100
AcDbLine
 10
190.863422
 20
225.365472
 30
0.0
 11
190.863422
 21
229.574272
 31
0.0
  0
POINT
  5
713
100
AcDbEntity
  8
DEFPOINTS
  6
BYBLOCK
 62
     0
100
AcDbPoint
 10
190.281743
 20
228.019098
 30
0.0
  0
POINT
  5
714
100
AcDbEntity
  8
DEFPOINTS
  6
BYBLOCK
 62
     0
100
AcDbPoint
 10
190.863422
 20
227.469872
 30
0.0
  0
ENDBLK
  5
715
100
AcDbEntity
  8
0
100
AcDbBlockEnd
  0
BLOCK
  5
71E
100
AcDbEntity
  8
0
100
AcDbBlockBegin
  2
*D24
 70
    65
 10
0.0
 20
0.0
 30
0.0
  3
*D24
  1

  0
LINE
  5
71F
100
AcDbEntity
  8
0
  6
BYBLOCK
 62
     0
100
AcDbLine
 10
122.359678
 20
195.984463
 30
0.0
 11
104.441242
 21
187.521739
 31
0.0
  0
LINE
  5
720
100
AcDbEntity
  8
0
  6
BYBLOCK
 62
     0
100
AcDbLine
 10
125.162774
 20
197.308341
 30
0.0
 11
124.710661
 21
197.094813
 31
0.0
  0
SOLID
  5
721
100
AcDbEntity
  8
0
  6
BYBLOCK
 62
     0
100
AcDbTrace
 10
122.17462
 20
196.376294
 30
0.0
 11
122.544736
 21
195.592633
 31
0.0
 12
124.710661
 22
197.094813
 32
0.0
 13
124.710661
 23
197.094813
 33
0.0
  0
MTEXT
  5
722
100
AcDbEntity
  8
0
  6
BYBLOCK
 62
     0
100
AcDbMText
 10
111.357915
 20
193.033769
 30
0.0
 40
3.0
 41
0.0
 71
     5
 72
     1
  1
\A1;R0.5±0.02
 11
0.904224
 21
0.427057
 31
0.0
  0
LINE
  5
723
100
AcDbEntity
  8
0
  6
BYBLOCK
 62
     0
100
AcDbLine
 10
123.058374
 20
197.308341
 30
0.0
 11
127.267174
 21
197.308341
 31
0.0
  0
LINE
  5
724
100
AcDbEntity
  8
0
  6
BYBLOCK
 62
     0
100
AcDbLine
 10
125.162774
 20
195.203941
 30
0.0
 11
125.162774
 21
199.412741
 31
0.0
  0
POINT
  5
725
100
AcDbEntity
  8
DEFPOINTS
  6
BYBLOCK
 62
     0
100
AcDbPoint
 10
124.710661
 20
197.094813
 30
0.0
  0
POINT
  5
726
100
AcDbEntity
  8
DEFPOINTS
  6
BYBLOCK
 62
     0
100
AcDbPoint
 10
125.162774
 20
197.308341
 30
0.0
  0
ENDBLK
  5
727
100
AcDbEntity
  8
0
100
AcDbBlockEnd
  0
BLOCK
  5
739
100
AcDbEntity
  8
0
100
AcDbBlockBegin
  2
*D25
 70
    65
 10
0.0
 20
0.0
 30
0.0
  3
*D25
  1

  0
LINE
  5
73A
100
AcDbEntity
  8
0
  6
BYBLOCK
 62
     0
100
AcDbLine
 10
139.419649
 20
226.854024
 30
0.0
 11
157.977216
 21
218.941607
 31
0.0
  0
LINE
  5
73B
100
AcDbEntity
  8
0
  6
BYBLOCK
 62
     0
100
AcDbLine
 10
136.568033
 20
228.069872
 30
0.0
 11
137.027971
 21
227.873767
 31
0.0
  0
SOLID
  5
73C
100
AcDbEntity
  8
0
  6
BYBLOCK
 62
     0
100
AcDbTrace
 10
139.589606
 20
227.252637
 30
0.0
 11
139.249692
 21
226.455411
 31
0.0
 12
137.027971
 22
227.873767
 32
0.0
 13
137.027971
 23
227.873767
 33
0.0
  0
MTEXT
  5
73D
100
AcDbEntity
  8
0
  6
BYBLOCK
 62
     0
100
AcDbMText
 10
150.855058
 20
224.185432
 30
0.0
 40
3.0
 41
0.0
 71
     5
 72
     1
  1
\A1;R0.5±0.02
 11
0.919876
 21
-0.392209
 31
0.0
  0
LINE
  5
73E
100
AcDbEntity
  8
0
  6
BYBLOCK
 62
     0
100
AcDbLine
 10
134.463633
 20
228.069872
 30
0.0
 11
138.672433
 21
228.069872
 31
0.0
  0
LINE
  5
73F
100
AcDbEntity
  8
0
  6
BYBLOCK
 62
     0
100
AcDbLine
 10
136.568033
 20
225.965472
 30
0.0
 11
136.568033
 21
230.174272
 31
0.0
  0
POINT
  5
740
100
AcDbEntity
  8
DEFPOINTS
  6
BYBLOCK
 62
     0
100
AcDbPoint
 10
137.027971
 20
227.873767
 30
0.0
  0
POINT
  5
741
100
AcDbEntity
  8
DEFPOINTS
  6
BYBLOCK
 62
     0
100
AcDbPoint
 10
136.568033
 20
228.069872
 30
0.0
  0
ENDBLK
  5
742
100
AcDbEntity
  8
0
100
AcDbBlockEnd
  0
ENDSEC
  0
SECTION
  2
ENTITIES
  0
LINE
  5
8A
100
AcDbEntity
  8
OGGETTO
  6
CONTINUOUS
100
AcDbLine
 10
45.711325
 20
170.217391
 30
0.0
 11
42.5
 21
170.217391
 31
0.0
  0
LINE
  5
8B
100
AcDbEntity
  8
OGGETTO
  6
CONTINUOUS
100
AcDbLine
 10
42.0
 20
169.717391
 30
0.0
 11
42.0
 21
145.217391
 31
0.0
  0
LINE
  5
8C
100
AcDbEntity
  8
OGGETTO
  6
CONTINUOUS
100
AcDbLine
 10
43.0
 20
144.217391
 30
0.0
 11
96.0
 21
144.217391
 31
0.0
  0
LINE
  5
8D
100
AcDbEntity
  8
OGGETTO
  6
CONTINUOUS
100
AcDbLine
 10
97.0
 20
145.217391
 30
0.0
 11
97.0
 21
169.717391
 31
0.0
  0
LINE
  5
8E
100
AcDbEntity
  8
OGGETTO
  6
CONTINUOUS
100
AcDbLine
 10
96.5
 20
170.217391
 30
0.0
 11
93.46188
 21
170.217391
 31
0.0
  0
LINE
  5
9A
100
AcDbEntity
  8
OGGETTO
  6
CONTINUOUS
100
AcDbLine
 10
80.53812
 20
170.217391
 30
0.0
 11
54.288675
 21
170.217391
 31
0.0
  0
LINE
  5
BE
100
AcDbEntity
  8
OGGETTO
  6
CONTINUOUS
100
AcDbLine
 10
96.5
 20
170.217391
 30
0.0
 11
97.0
 21
169.717391
 31
0.0
  0
LINE
  5
BF
100
AcDbEntity
  8
OGGETTO
  6
CONTINUOUS
100
AcDbLine
 10
42.5
 20
170.217391
 30
0.0
 11
42.0
 21
169.717391
 31
0.0
  0
LINE
  5
C0
100
AcDbEntity
  8
OGGETTO
  6
CONTINUOUS
100
AcDbLine
 10
42.0
 20
145.217391
 30
0.0
 11
43.0
 21
144.217391
 31
0.0
  0
LINE
  5
C1
100
AcDbEntity
  8
OGGETTO
  6
CONTINUOUS
100
AcDbLine
 10
97.0
 20
145.217391
 30
0.0
 11
96.0
 21
144.217391
 31
0.0
  0
MTEXT
  5
17C
100
AcDbEntity
  8
QUOTE
  6
CONTINUOUS
100
AcDbMText
 10
70.132523
 20
112.106046
 30
0.0
 40
2.6
 41
0.0
 71
     7
 72
     1
  1

  0
MTEXT
  5
17E
100
AcDbEntity
  8
QUOTE
  6
CONTINUOUS
100
AcDbMText
 10
69.778676
 20
112.106046
 30
0.0
 40
2.6
 41
0.0
 71
     9
 72
     1
  1

  0
LINE
  5
610
100
AcDbEntity
  8
OGGETTO
  6
CONTINUOUS
100
AcDbLine
 10
81.23094
 20
169.817391
 30
0.0
 11
87.0
 21
159.825087
 31
0.0
  0
LINE
  5
611
100
AcDbEntity
  8
OGGETTO
  6
CONTINUOUS
100
AcDbLine
 10
92.76906
 20
169.817391
 30
0.0
 11
87.0
 21
159.825087
 31
0.0
  0
LINE
  5
612
100
AcDbEntity
  8
OGGETTO
  6
CONTINUOUS
100
AcDbLine
 10
46.144338
 20
169.967391
 30
0.0
 11
50.0
 21
163.289188
 31
0.0
  0
LINE
  5
613
100
AcDbEntity
  8
OGGETTO
  6
CONTINUOUS
100
AcDbLine
 10
53.855662
 20
169.967391
 30
0.0
 11
50.0
 21
163.289188
 31
0.0
  0
ARC
  5
61B
100
AcDbEntity
  8
OGGETTO
  6
CONTINUOUS
100
AcDbCircle
 10
54.288675
 20
169.717391
 30
0.0
 40
0.5
100
AcDbArc
 50
90.0
 51
150.0
  0
ARC
  5
61C
100
AcDbEntity
  8
OGGETTO
  6
CONTINUOUS
100
AcDbCircle
 10
45.711325
 20
169.717391
 30
0.0
 40
0.5
100
AcDbArc
 50
30.0
 51
90.0
  0
ARC
  5
61D
100
AcDbEntity
  8
OGGETTO
  6
CONTINUOUS
100
AcDbCircle
 10
80.53812
 20
169.417391
 30
0.0
 40
0.8
100
AcDbArc
 50
30.0
 51
90.0
  0
ARC
  5
61E
100
AcDbEntity
  8
OGGETTO
  6
CONTINUOUS
100
AcDbCircle
 10
93.46188
 20
169.417391
 30
0.0
 40
0.8
100
AcDbArc
 50
90.0
 51
150.0
  0
VIEWPORT
  5
22
100
AcDbEntity
 67
     1
  8
0
100
AcDbViewport
 10
261.517699
 20
154.724298
 30
0.0
 40
523.035398
 41
309.448596
 68
    -1
 69
     1
1001
ACAD
1000
MVIEW
1002
{
1070
    16
1010
0.0
1020
0.0
1030
0.0
1010
0.0
1020
0.0
1030
1.0
1040
0.0
1040
309.448596
1040
261.517699
1040
154.724298
1040
50.0
1040
0.0
1040
0.0
1070
     0
1070
   100
1070
     1
1070
     0
1070
     0
1070
     0
1070
     0
1070
     0
1040
0.0
1040
0.0
1040
0.0
1040
1.0
1040
1.0
1040
10.0
1040
10.0
1070
     0
1002
{
1002
}
1002
}
  0
ENDSEC
  0
SECTION
  2
OBJECTS
  0
DICTIONARY
  5
C
100
AcDbDictionary
  3
ACAD_GROUP
350
D
  3
ACAD_MLINESTYLE
350
E
  0
DICTIONARY
  5
D
102
{ACAD_REACTORS
330
C
102
}
100
AcDbDictionary
  0
DICTIONARY
  5
E
102
{ACAD_REACTORS
330
C
102
}
100
AcDbDictionary
  3
STANDARD
350
13
  0
MLINESTYLE
  5
13
102
{ACAD_REACTORS
330
E
102
}
100
AcDbMlineStyle
  2
STANDARD
 70
     0
  3

 62
     0
 51
90.0
 52
90.0
 71
     2
 49
0.5
 62
   256
  6
BYLAYER
 49
-0.5
 62
   256
  6
BYLAYER
  0
ENDSEC
  0
EOF
