  0
SECTION
  2
HEADER
  9
$ACADVER
  1
AC1012
  9
$DWGCODEPAGE
  3
iso8859-1
  9
$INSBASE
 10
0.0
 20
0.0
 30
0.0
  9
$EXTMIN
 10
-1940.234365
 20
-1659.251698
 30
0.0
  9
$EXTMAX
 10
-1501.96332
 20
-1372.037392
 30
0.0
  9
$LIMMIN
 10
0.0
 20
0.0
  9
$LIMMAX
 10
210.0
 20
297.0
  9
$ORTHOMODE
 70
     0
  9
$REGENMODE
 70
     1
  9
$FILLMODE
 70
     1
  9
$QTEXTMODE
 70
     0
  9
$MIRRTEXT
 70
     1
  9
$DRAGMODE
 70
     2
  9
$LTSCALE
 40
1.0
  9
$OSMODE
 70
     0
  9
$ATTMODE
 70
     1
  9
$TEXTSIZE
 40
7.0
  9
$TRACEWID
 40
0.05
  9
$TEXTSTYLE
  7
STYLE3
  9
$CLAYER
  8
TEMPRA
  9
$CELTYPE
  6
BYLAYER
  9
$CECOLOR
 62
   256
  9
$CELTSCALE
 40
1.0
  9
$DELOBJ
 70
     1
  9
$DISPSILH
 70
     0
  9
$DIMSCALE
 40
1.0
  9
$DIMASZ
 40
2.5
  9
$DIMEXO
 40
0.625
  9
$DIMDLI
 40
3.75
  9
$DIMRND
 40
0.0
  9
$DIMDLE
 40
0.0
  9
$DIMEXE
 40
1.25
  9
$DIMTP
 40
0.0
  9
$DIMTM
 40
0.0
  9
$DIMTXT
 40
3.5
  9
$DIMCEN
 40
0.0
  9
$DIMTSZ
 40
0.0
  9
$DIMTOL
 70
     0
  9
$DIMLIM
 70
     0
  9
$DIMTIH
 70
     0
  9
$DIMTOH
 70
     0
  9
$DIMSE1
 70
     0
  9
$DIMSE2
 70
     0
  9
$DIMTAD
 70
     1
  9
$DIMZIN
 70
     8
  9
$DIMBLK
  1

  9
$DIMASO
 70
     1
  9
$DIMSHO
 70
     1
  9
$DIMPOST
  1

  9
$DIMAPOST
  1

  9
$DIMALT
 70
     0
  9
$DIMALTD
 70
     2
  9
$DIMALTF
 40
0.03937
  9
$DIMLFAC
 40
1.0
  9
$DIMTOFL
 70
     0
  9
$DIMTVP
 40
0.0
  9
$DIMTIX
 70
     0
  9
$DIMSOXD
 70
     0
  9
$DIMSAH
 70
     0
  9
$DIMBLK1
  1

  9
$DIMBLK2
  1

  9
$DIMSTYLE
  2
STANDARD
  9
$DIMCLRD
 70
     0
  9
$DIMCLRE
 70
     0
  9
$DIMCLRT
 70
     0
  9
$DIMTFAC
 40
1.0
  9
$DIMGAP
 40
0.625
  9
$DIMJUST
 70
     0
  9
$DIMSD1
 70
     0
  9
$DIMSD2
 70
     0
  9
$DIMTOLJ
 70
     1
  9
$DIMTZIN
 70
     8
  9
$DIMALTZ
 70
     0
  9
$DIMALTTZ
 70
     0
  9
$DIMFIT
 70
     3
  9
$DIMUPT
 70
     0
  9
$DIMUNIT
 70
     2
  9
$DIMDEC
 70
     2
  9
$DIMTDEC
 70
     2
  9
$DIMALTU
 70
     2
  9
$DIMALTTD
 70
     2
  9
$DIMTXSTY
  7
STANDARD
  9
$DIMAUNIT
 70
     0
  9
$LUNITS
 70
     2
  9
$LUPREC
 70
     4
  9
$SKETCHINC
 40
0.1
  9
$FILLETRAD
 40
5.0
  9
$AUNITS
 70
     0
  9
$AUPREC
 70
     0
  9
$MENU
  1
acad
  9
$ELEVATION
 40
0.0
  9
$PELEVATION
 40
0.0
  9
$THICKNESS
 40
0.0
  9
$LIMCHECK
 70
     0
  9
$BLIPMODE
 70
     1
  9
$CHAMFERA
 40
0.0
  9
$CHAMFERB
 40
0.0
  9
$CHAMFERC
 40
20.0
  9
$CHAMFERD
 40
0.0
  9
$SKPOLY
 70
     0
  9
$TDCREATE
 40
2452481.284075347
  9
$TDUPDATE
 40
2453076.501945833
  9
$TDINDWG
 40
0.1518600694
  9
$TDUSRTIMER
 40
0.1518600694
  9
$USRTIMER
 70
     1
  9
$ANGBASE
 50
0.0
  9
$ANGDIR
 70
     0
  9
$PDMODE
 70
     0
  9
$PDSIZE
 40
0.0
  9
$PLINEWID
 40
0.0
  9
$COORDS
 70
     1
  9
$SPLFRAME
 70
     0
  9
$SPLINETYPE
 70
     6
  9
$SPLINESEGS
 70
     8
  9
$ATTDIA
 70
     0
  9
$ATTREQ
 70
     1
  9
$HANDLING
 70
     1
  9
$HANDSEED
  5
27D6
  9
$SURFTAB1
 70
     6
  9
$SURFTAB2
 70
     6
  9
$SURFTYPE
 70
     6
  9
$SURFU
 70
     6
  9
$SURFV
 70
     6
  9
$UCSNAME
  2

  9
$UCSORG
 10
0.0
 20
0.0
 30
0.0
  9
$UCSXDIR
 10
1.0
 20
0.0
 30
0.0
  9
$UCSYDIR
 10
0.0
 20
1.0
 30
0.0
  9
$PUCSNAME
  2

  9
$PUCSORG
 10
0.0
 20
0.0
 30
0.0
  9
$PUCSXDIR
 10
1.0
 20
0.0
 30
0.0
  9
$PUCSYDIR
 10
0.0
 20
1.0
 30
0.0
  9
$USERI1
 70
     0
  9
$USERI2
 70
     0
  9
$USERI3
 70
     0
  9
$USERI4
 70
     0
  9
$USERI5
 70
     0
  9
$USERR1
 40
0.0
  9
$USERR2
 40
0.0
  9
$USERR3
 40
0.0
  9
$USERR4
 40
0.0
  9
$USERR5
 40
0.0
  9
$WORLDVIEW
 70
     1
  9
$SHADEDGE
 70
     3
  9
$SHADEDIF
 70
    70
  9
$TILEMODE
 70
     1
  9
$MAXACTVP
 70
    16
  9
$PINSBASE
 10
0.0
 20
0.0
 30
0.0
  9
$PLIMCHECK
 70
     0
  9
$PEXTMIN
 10
1.000000E+20
 20
1.000000E+20
 30
1.000000E+20
  9
$PEXTMAX
 10
-1.000000E+20
 20
-1.000000E+20
 30
-1.000000E+20
  9
$PLIMMIN
 10
0.0
 20
0.0
  9
$PLIMMAX
 10
12.0
 20
9.0
  9
$UNITMODE
 70
     0
  9
$VISRETAIN
 70
     0
  9
$PLINEGEN
 70
     0
  9
$PSLTSCALE
 70
     1
  9
$TREEDEPTH
 70
  3020
  9
$PICKSTYLE
 70
     1
  9
$CMLSTYLE
  2
STANDARD
  9
$CMLJUST
 70
     0
  9
$CMLSCALE
 40
20.0
  9
$SAVEIMAGES
 70
     0
  0
ENDSEC
  0
SECTION
  2
CLASSES
  0
ENDSEC
  0
SECTION
  2
TABLES
  0
TABLE
  2
VPORT
  5
8
100
AcDbSymbolTable
 70
     2
  0
VPORT
  5
27D5
100
AcDbSymbolTableRecord
100
AcDbViewportTableRecord
  2
*ACTIVE
 70
     0
 10
0.0
 20
0.0
 11
1.0
 21
1.0
 12
-1796.781669
 22
-1491.230658
 13
0.0
 23
0.0
 14
10.0
 24
10.0
 15
10.0
 25
10.0
 16
0.0
 26
0.0
 36
1.0
 17
0.0
 27
0.0
 37
0.0
 40
146.852309
 41
1.563011
 42
50.0
 43
0.0
 44
0.0
 50
0.0
 51
0.0
 71
     0
 72
   100
 73
     1
 74
     0
 75
     0
 76
     0
 77
     0
 78
     0
  0
ENDTAB
  0
TABLE
  2
LTYPE
  5
5
100
AcDbSymbolTable
 70
     4
  0
LTYPE
  5
13
100
AcDbSymbolTableRecord
100
AcDbLinetypeTableRecord
  2
BYBLOCK
 70
     0
  3

 72
    65
 73
     0
 40
0.0
  0
LTYPE
  5
14
100
AcDbSymbolTableRecord
100
AcDbLinetypeTableRecord
  2
BYLAYER
 70
     0
  3

 72
    65
 73
     0
 40
0.0
  0
LTYPE
  5
15
100
AcDbSymbolTableRecord
100
AcDbLinetypeTableRecord
  2
CONTINUOUS
 70
    64
  3
Solid line
 72
    65
 73
     0
 40
0.0
  0
LTYPE
  5
94
100
AcDbSymbolTableRecord
100
AcDbLinetypeTableRecord
  2
ACAD_ISO04W100
 70
    64
  3
____ . ____ . ____ . ____ . ____ . ____ . ____ 
 72
    65
 73
     4
 40
30.5
 49
24.0
 74
     0
 49
-3.0
 74
     0
 49
0.5
 74
     0
 49
-3.0
 74
     0
  0
LTYPE
  5
225
100
AcDbSymbolTableRecord
100
AcDbLinetypeTableRecord
  2
TRATTEGGIATAX2
 70
    64
  3
____  ____  ____  ____  ____  ____  ____  ____ 
 72
    65
 73
     2
 40
1.5
 49
1.0
 74
     0
 49
-0.5
 74
     0
  0
LTYPE
  5
226
100
AcDbSymbolTableRecord
100
AcDbLinetypeTableRecord
  2
NASCOSTA
 70
    64
  3
__ __ __ __ __ __ __ __ __ __ __ __ __ __ __ __
 72
    65
 73
     2
 40
0.375
 49
0.25
 74
     0
 49
-0.125
 74
     0
  0
ENDTAB
  0
TABLE
  2
LAYER
  5
2
100
AcDbSymbolTable
 70
    11
  0
LAYER
  5
F
100
AcDbSymbolTableRecord
100
AcDbLayerTableRecord
  2
0
 70
     0
 62
     7
  6
CONTINUOUS
  0
LAYER
  5
95
100
AcDbSymbolTableRecord
100
AcDbLayerTableRecord
  2
DISEGNO
 70
    64
 62
     7
  6
CONTINUOUS
  0
LAYER
  5
96
100
AcDbSymbolTableRecord
100
AcDbLayerTableRecord
  2
ASSI
 70
    64
 62
     1
  6
ACAD_ISO04W100
  0
LAYER
  5
97
100
AcDbSymbolTableRecord
100
AcDbLayerTableRecord
  2
SEZIONE
 70
    64
 62
     3
  6
CONTINUOUS
  0
LAYER
  5
98
100
AcDbSymbolTableRecord
100
AcDbLayerTableRecord
  2
TEMPRA
 70
    64
 62
     2
  6
CONTINUOUS
  0
LAYER
  5
99
100
AcDbSymbolTableRecord
100
AcDbLayerTableRecord
  2
QUOTE
 70
    64
 62
     5
  6
CONTINUOUS
  0
LAYER
  5
1A3
100
AcDbSymbolTableRecord
100
AcDbLayerTableRecord
  2
TRATTO
 70
    64
 62
     6
  6
NASCOSTA
  0
LAYER
  5
28A
100
AcDbSymbolTableRecord
100
AcDbLayerTableRecord
  2
DEFPOINTS
 70
    64
 62
     7
  6
CONTINUOUS
  0
LAYER
  5
4A6
100
AcDbSymbolTableRecord
100
AcDbLayerTableRecord
  2
TABELLA
 70
    64
 62
     8
  6
CONTINUOUS
  0
LAYER
  5
55B
100
AcDbSymbolTableRecord
100
AcDbLayerTableRecord
  2
MARCATURA
 70
    64
 62
   136
  6
CONTINUOUS
  0
LAYER
  5
55C
100
AcDbSymbolTableRecord
100
AcDbLayerTableRecord
  2
TESTO
 70
    64
 62
   140
  6
CONTINUOUS
  0
ENDTAB
  0
TABLE
  2
STYLE
  5
3
100
AcDbSymbolTable
 70
     2
  0
STYLE
  5
10
100
AcDbSymbolTableRecord
100
AcDbTextStyleTableRecord
  2
STANDARD
 70
    64
 40
0.0
 41
1.1
 50
0.0
 71
     0
 42
3.0
  3
D:\Programmi\AutoCAD LT\isocp.shx
  4

  0
STYLE
  5
B0
100
AcDbSymbolTableRecord
100
AcDbTextStyleTableRecord
  2
STYLE3
 70
    64
 40
0.0
 41
1.1
 50
0.0
 71
     0
 42
7.0
  3
D:\Programmi\AutoCAD LT\isocp.shx
  4

  0
ENDTAB
  0
TABLE
  2
VIEW
  5
6
100
AcDbSymbolTable
 70
     0
  0
ENDTAB
  0
TABLE
  2
UCS
  5
7
100
AcDbSymbolTable
 70
     0
  0
ENDTAB
  0
TABLE
  2
APPID
  5
9
100
AcDbSymbolTable
 70
     1
  0
APPID
  5
11
100
AcDbSymbolTableRecord
100
AcDbRegAppTableRecord
  2
ACAD
 70
     0
  0
ENDTAB
  0
TABLE
  2
DIMSTYLE
  5
A
100
AcDbSymbolTable
 70
    24
  0
DIMSTYLE
105
1D
100
AcDbSymbolTableRecord
100
AcDbDimStyleTableRecord
  2
STANDARD
 70
     0
  3

  4

  5

  6

  7

 40
1.0
 41
2.5
 42
0.625
 43
3.75
 44
1.25
 45
0.0
 46
0.0
 47
0.0
 48
0.0
140
3.5
141
2.5
142
0.0
143
0.03937
144
1.0
145
0.0
146
1.0
147
0.625
 71
     0
 72
     0
 73
     0
 74
     0
 75
     0
 76
     0
 77
     1
 78
     8
170
     0
171
     2
172
     0
173
     0
174
     0
175
     0
176
     0
177
     0
178
     0
270
     2
271
     2
272
     2
273
     2
274
     2
340
10
275
     0
280
     0
281
     0
282
     0
283
     1
284
     8
285
     0
286
     0
287
     3
288
     0
  0
DIMSTYLE
105
234
100
AcDbSymbolTableRecord
100
AcDbDimStyleTableRecord
  2
TOLL-04
 70
     0
  3

  4

  5

  6

  7

 40
1.0
 41
2.5
 42
0.625
 43
3.75
 44
1.25
 45
0.0
 46
0.0
 47
0.02
 48
0.02
140
3.5
141
2.5
142
0.0
143
0.03937
144
1.0
145
0.0
146
0.8
147
0.625
 71
     1
 72
     0
 73
     0
 74
     0
 75
     0
 76
     0
 77
     1
 78
     8
170
     0
171
     2
172
     0
173
     0
174
     0
175
     0
176
     0
177
     0
178
     0
270
     2
271
     2
272
     2
273
     2
274
     2
340
10
275
     0
280
     0
281
     0
282
     0
283
     2
284
     8
285
     0
286
     0
287
     3
288
     0
  0
DIMSTYLE
105
4A7
100
AcDbSymbolTableRecord
100
AcDbDimStyleTableRecord
  2
ISO-25
 70
     0
  3

  4

  5

  6

  7

 40
1.0
 41
2.5
 42
0.625
 43
3.75
 44
1.25
 45
0.0
 46
0.0
 47
0.0
 48
0.0
140
2.5
141
2.5
142
0.0
143
0.0394
144
1.0
145
1.0
146
1.0
147
0.625
 71
     0
 72
     0
 73
     1
 74
     0
 75
     0
 76
     0
 77
     1
 78
     8
170
     0
171
     2
172
     1
173
     0
174
     0
175
     0
176
     0
177
     0
178
     0
270
     2
271
     4
272
     4
273
     2
274
     2
340
10
275
     0
280
     0
281
     0
282
     0
283
     1
284
     0
285
     0
286
     0
287
     3
288
     0
  0
DIMSTYLE
105
574
100
AcDbSymbolTableRecord
100
AcDbDimStyleTableRecord
  2
TOLL-01
 70
     0
  3

  4

  5

  6

  7

 40
1.0
 41
2.5
 42
0.625
 43
3.75
 44
1.25
 45
0.0
 46
0.0
 47
0.01
 48
0.01
140
3.5
141
2.5
142
0.0
143
0.03937
144
1.0
145
0.0
146
0.8
147
0.625
 71
     1
 72
     0
 73
     0
 74
     0
 75
     0
 76
     0
 77
     1
 78
     8
170
     0
171
     2
172
     0
173
     0
174
     0
175
     0
176
     0
177
     0
178
     0
270
     2
271
     2
272
     2
273
     2
274
     2
340
10
275
     0
280
     0
281
     0
282
     0
283
     2
284
     8
285
     0
286
     0
287
     3
288
     0
  0
DIMSTYLE
105
575
100
AcDbSymbolTableRecord
100
AcDbDimStyleTableRecord
  2
TOLL-02
 70
     0
  3

  4

  5

  6

  7

 40
1.0
 41
2.5
 42
0.625
 43
3.75
 44
1.25
 45
0.0
 46
0.0
 47
0.01
 48
0.0
140
3.5
141
2.5
142
0.0
143
0.03937
144
1.0
145
0.0
146
0.8
147
0.625
 71
     1
 72
     0
 73
     0
 74
     0
 75
     0
 76
     0
 77
     1
 78
     8
170
     0
171
     2
172
     0
173
     0
174
     0
175
     0
176
     0
177
     0
178
     0
270
     2
271
     2
272
     2
273
     2
274
     2
340
10
275
     0
280
     0
281
     0
282
     0
283
     2
284
     8
285
     0
286
     0
287
     3
288
     0
  0
DIMSTYLE
105
576
100
AcDbSymbolTableRecord
100
AcDbDimStyleTableRecord
  2
TOLL-03
 70
     0
  3

  4

  5

  6

  7

 40
1.0
 41
2.5
 42
0.625
 43
3.75
 44
1.25
 45
0.0
 46
0.0
 47
-0.01
 48
0.0
140
3.5
141
2.5
142
0.0
143
0.03937
144
1.0
145
0.0
146
0.8
147
0.625
 71
     1
 72
     0
 73
     0
 74
     0
 75
     0
 76
     0
 77
     1
 78
     8
170
     0
171
     2
172
     0
173
     0
174
     0
175
     0
176
     0
177
     0
178
     0
270
     2
271
     2
272
     2
273
     2
274
     2
340
10
275
     0
280
     0
281
     0
282
     0
283
     2
284
     8
285
     0
286
     0
287
     3
288
     0
  0
DIMSTYLE
105
577
100
AcDbSymbolTableRecord
100
AcDbDimStyleTableRecord
  2
TOLL-05
 70
     0
  3

  4

  5

  6

  7

 40
1.0
 41
2.5
 42
0.625
 43
3.75
 44
1.25
 45
0.0
 46
0.0
 47
0.02
 48
0.0
140
3.5
141
2.5
142
0.0
143
0.03937
144
1.0
145
0.0
146
0.8
147
0.625
 71
     1
 72
     0
 73
     0
 74
     0
 75
     0
 76
     0
 77
     1
 78
     8
170
     0
171
     2
172
     0
173
     0
174
     0
175
     0
176
     0
177
     0
178
     0
270
     2
271
     2
272
     2
273
     2
274
     2
340
10
275
     0
280
     0
281
     0
282
     0
283
     2
284
     8
285
     0
286
     0
287
     3
288
     0
  0
DIMSTYLE
105
578
100
AcDbSymbolTableRecord
100
AcDbDimStyleTableRecord
  2
TOLL-06
 70
     0
  3

  4

  5

  6

  7

 40
1.0
 41
2.5
 42
0.625
 43
3.75
 44
1.25
 45
0.0
 46
0.0
 47
-0.02
 48
0.0
140
3.5
141
2.5
142
0.0
143
0.03937
144
1.0
145
0.0
146
0.8
147
0.625
 71
     1
 72
     0
 73
     0
 74
     0
 75
     0
 76
     0
 77
     1
 78
     8
170
     0
171
     2
172
     0
173
     0
174
     0
175
     0
176
     0
177
     0
178
     0
270
     2
271
     2
272
     2
273
     2
274
     2
340
10
275
     0
280
     0
281
     0
282
     0
283
     2
284
     8
285
     0
286
     0
287
     3
288
     0
  0
DIMSTYLE
105
579
100
AcDbSymbolTableRecord
100
AcDbDimStyleTableRecord
  2
TOLL-07
 70
     0
  3

  4

  5

  6

  7

 40
1.0
 41
2.5
 42
0.625
 43
3.75
 44
1.25
 45
0.0
 46
0.0
 47
0.05
 48
0.05
140
3.5
141
2.5
142
0.0
143
0.03937
144
1.0
145
0.0
146
0.8
147
0.625
 71
     1
 72
     0
 73
     0
 74
     0
 75
     0
 76
     0
 77
     1
 78
     8
170
     0
171
     2
172
     0
173
     0
174
     0
175
     0
176
     0
177
     0
178
     0
270
     2
271
     2
272
     2
273
     2
274
     2
340
10
275
     0
280
     0
281
     0
282
     0
283
     2
284
     8
285
     0
286
     0
287
     3
288
     0
  0
DIMSTYLE
105
57A
100
AcDbSymbolTableRecord
100
AcDbDimStyleTableRecord
  2
TOLL-08
 70
     0
  3

  4

  5

  6

  7

 40
1.0
 41
2.5
 42
0.625
 43
3.75
 44
1.25
 45
0.0
 46
0.0
 47
0.05
 48
0.0
140
3.5
141
2.5
142
0.0
143
0.03937
144
1.0
145
0.0
146
0.8
147
0.625
 71
     1
 72
     0
 73
     0
 74
     0
 75
     0
 76
     0
 77
     1
 78
     8
170
     0
171
     2
172
     0
173
     0
174
     0
175
     0
176
     0
177
     0
178
     0
270
     2
271
     2
272
     2
273
     2
274
     2
340
10
275
     0
280
     0
281
     0
282
     0
283
     2
284
     8
285
     0
286
     0
287
     3
288
     0
  0
DIMSTYLE
105
57B
100
AcDbSymbolTableRecord
100
AcDbDimStyleTableRecord
  2
TOLL-09
 70
     0
  3

  4

  5

  6

  7

 40
1.0
 41
2.5
 42
0.625
 43
3.75
 44
1.25
 45
0.0
 46
0.0
 47
-0.05
 48
0.0
140
3.5
141
2.5
142
0.0
143
0.03937
144
1.0
145
0.0
146
0.8
147
0.625
 71
     1
 72
     0
 73
     0
 74
     0
 75
     0
 76
     0
 77
     1
 78
     8
170
     0
171
     2
172
     0
173
     0
174
     0
175
     0
176
     0
177
     0
178
     0
270
     2
271
     2
272
     2
273
     2
274
     2
340
10
275
     0
280
     0
281
     0
282
     0
283
     2
284
     8
285
     0
286
     0
287
     3
288
     0
  0
DIMSTYLE
105
57C
100
AcDbSymbolTableRecord
100
AcDbDimStyleTableRecord
  2
TOLL-10
 70
     0
  3

  4

  5

  6

  7

 40
1.0
 41
2.5
 42
0.625
 43
3.75
 44
1.25
 45
0.0
 46
0.0
 47
0.1
 48
0.1
140
3.5
141
2.5
142
0.0
143
0.03937
144
1.0
145
0.0
146
0.8
147
0.625
 71
     1
 72
     0
 73
     0
 74
     0
 75
     0
 76
     0
 77
     1
 78
     8
170
     0
171
     2
172
     0
173
     0
174
     0
175
     0
176
     0
177
     0
178
     0
270
     2
271
     2
272
     2
273
     2
274
     2
340
10
275
     0
280
     0
281
     0
282
     0
283
     2
284
     8
285
     0
286
     0
287
     3
288
     0
  0
DIMSTYLE
105
57D
100
AcDbSymbolTableRecord
100
AcDbDimStyleTableRecord
  2
TOLL-11
 70
     0
  3

  4

  5

  6

  7

 40
1.0
 41
2.5
 42
0.625
 43
3.75
 44
1.25
 45
0.0
 46
0.0
 47
0.1
 48
0.0
140
3.5
141
2.5
142
0.0
143
0.03937
144
1.0
145
0.0
146
0.8
147
0.625
 71
     1
 72
     0
 73
     0
 74
     0
 75
     0
 76
     0
 77
     1
 78
     8
170
     0
171
     2
172
     0
173
     0
174
     0
175
     0
176
     0
177
     0
178
     0
270
     2
271
     2
272
     2
273
     2
274
     2
340
10
275
     0
280
     0
281
     0
282
     0
283
     2
284
     8
285
     0
286
     0
287
     3
288
     0
  0
DIMSTYLE
105
57E
100
AcDbSymbolTableRecord
100
AcDbDimStyleTableRecord
  2
TOLL-12
 70
     0
  3

  4

  5

  6

  7

 40
1.0
 41
2.5
 42
0.625
 43
3.75
 44
1.25
 45
0.0
 46
0.0
 47
-0.1
 48
0.0
140
3.5
141
2.5
142
0.0
143
0.03937
144
1.0
145
0.0
146
0.8
147
0.625
 71
     1
 72
     0
 73
     0
 74
     0
 75
     0
 76
     0
 77
     1
 78
     8
170
     0
171
     2
172
     0
173
     0
174
     0
175
     0
176
     0
177
     0
178
     0
270
     2
271
     2
272
     2
273
     2
274
     2
340
10
275
     0
280
     0
281
     0
282
     0
283
     2
284
     8
285
     0
286
     0
287
     3
288
     0
  0
DIMSTYLE
105
57F
100
AcDbSymbolTableRecord
100
AcDbDimStyleTableRecord
  2
TOLL-13
 70
     0
  3

  4

  5

  6

  7

 40
1.0
 41
2.5
 42
0.625
 43
3.75
 44
1.25
 45
0.0
 46
0.0
 47
0.2
 48
0.2
140
3.5
141
2.5
142
0.0
143
0.03937
144
1.0
145
0.0
146
0.8
147
0.625
 71
     1
 72
     0
 73
     0
 74
     0
 75
     0
 76
     0
 77
     1
 78
     8
170
     0
171
     2
172
     0
173
     0
174
     0
175
     0
176
     0
177
     0
178
     0
270
     2
271
     2
272
     2
273
     2
274
     2
340
10
275
     0
280
     0
281
     0
282
     0
283
     2
284
     8
285
     0
286
     0
287
     3
288
     0
  0
DIMSTYLE
105
580
100
AcDbSymbolTableRecord
100
AcDbDimStyleTableRecord
  2
TOLL-14
 70
     0
  3

  4

  5

  6

  7

 40
1.0
 41
2.5
 42
0.625
 43
3.75
 44
1.25
 45
0.0
 46
0.0
 47
0.2
 48
0.0
140
3.5
141
2.5
142
0.0
143
0.03937
144
1.0
145
0.0
146
0.8
147
0.625
 71
     1
 72
     0
 73
     0
 74
     0
 75
     0
 76
     0
 77
     1
 78
     8
170
     0
171
     2
172
     0
173
     0
174
     0
175
     0
176
     0
177
     0
178
     0
270
     2
271
     2
272
     2
273
     2
274
     2
340
10
275
     0
280
     0
281
     0
282
     0
283
     2
284
     8
285
     0
286
     0
287
     3
288
     0
  0
DIMSTYLE
105
581
100
AcDbSymbolTableRecord
100
AcDbDimStyleTableRecord
  2
TOLL-15
 70
     0
  3

  4

  5

  6

  7

 40
1.0
 41
2.5
 42
0.625
 43
3.75
 44
1.25
 45
0.0
 46
0.0
 47
-0.2
 48
0.0
140
3.5
141
2.5
142
0.0
143
0.03937
144
1.0
145
0.0
146
0.8
147
0.625
 71
     1
 72
     0
 73
     0
 74
     0
 75
     0
 76
     0
 77
     1
 78
     8
170
     0
171
     2
172
     0
173
     0
174
     0
175
     0
176
     0
177
     0
178
     0
270
     2
271
     2
272
     2
273
     2
274
     2
340
10
275
     0
280
     0
281
     0
282
     0
283
     2
284
     8
285
     0
286
     0
287
     3
288
     0
  0
DIMSTYLE
105
582
100
AcDbSymbolTableRecord
100
AcDbDimStyleTableRecord
  2
TOLL-16
 70
     0
  3

  4

  5

  6

  7

 40
1.0
 41
2.5
 42
0.625
 43
3.75
 44
1.25
 45
0.0
 46
0.0
 47
0.5
 48
0.5
140
3.5
141
2.5
142
0.0
143
0.03937
144
1.0
145
0.0
146
0.8
147
0.625
 71
     1
 72
     0
 73
     0
 74
     0
 75
     0
 76
     0
 77
     1
 78
     8
170
     0
171
     2
172
     0
173
     0
174
     0
175
     0
176
     0
177
     0
178
     0
270
     2
271
     2
272
     2
273
     2
274
     2
340
10
275
     0
280
     0
281
     0
282
     0
283
     2
284
     8
285
     0
286
     0
287
     3
288
     0
  0
DIMSTYLE
105
583
100
AcDbSymbolTableRecord
100
AcDbDimStyleTableRecord
  2
TOLL-17
 70
     0
  3

  4

  5

  6

  7

 40
1.0
 41
2.5
 42
0.625
 43
3.75
 44
1.25
 45
0.0
 46
0.0
 47
0.5
 48
0.0
140
3.5
141
2.5
142
0.0
143
0.03937
144
1.0
145
0.0
146
0.8
147
0.625
 71
     1
 72
     0
 73
     0
 74
     0
 75
     0
 76
     0
 77
     1
 78
     8
170
     0
171
     2
172
     0
173
     0
174
     0
175
     0
176
     0
177
     0
178
     0
270
     2
271
     2
272
     2
273
     2
274
     2
340
10
275
     0
280
     0
281
     0
282
     0
283
     2
284
     8
285
     0
286
     0
287
     3
288
     0
  0
DIMSTYLE
105
584
100
AcDbSymbolTableRecord
100
AcDbDimStyleTableRecord
  2
TOLL-18
 70
     0
  3

  4

  5

  6

  7

 40
1.0
 41
2.5
 42
0.625
 43
3.75
 44
1.25
 45
0.0
 46
0.0
 47
-0.5
 48
0.0
140
3.5
141
2.5
142
0.0
143
0.03937
144
1.0
145
0.0
146
0.8
147
0.625
 71
     1
 72
     0
 73
     0
 74
     0
 75
     0
 76
     0
 77
     1
 78
     8
170
     0
171
     2
172
     0
173
     0
174
     0
175
     0
176
     0
177
     0
178
     0
270
     2
271
     2
272
     2
273
     2
274
     2
340
10
275
     0
280
     0
281
     0
282
     0
283
     2
284
     8
285
     0
286
     0
287
     3
288
     0
  0
DIMSTYLE
105
585
100
AcDbSymbolTableRecord
100
AcDbDimStyleTableRecord
  2
TOLL-19
 70
     0
  3

  4

  5

  6

  7

 40
1.0
 41
2.5
 42
0.625
 43
3.75
 44
1.25
 45
0.0
 46
0.0
 47
0.16
 48
0.0
140
3.5
141
2.5
142
0.0
143
0.03937
144
1.0
145
0.0
146
0.8
147
0.625
 71
     1
 72
     0
 73
     0
 74
     0
 75
     0
 76
     0
 77
     1
 78
     8
170
     0
171
     2
172
     0
173
     0
174
     0
175
     0
176
     0
177
     0
178
     0
270
     2
271
     0
272
     2
273
     2
274
     2
340
10
275
     1
280
     0
281
     0
282
     0
283
     2
284
     8
285
     0
286
     0
287
     3
288
     0
  0
DIMSTYLE
105
5E5
100
AcDbSymbolTableRecord
100
AcDbDimStyleTableRecord
  2
TOLL-20
 70
     0
  3

  4

  5

  6

  7

 40
1.0
 41
2.5
 42
0.625
 43
3.75
 44
1.25
 45
0.0
 46
0.0
 47
-0.08
 48
-0.08
140
3.5
141
2.5
142
0.0
143
0.03937
144
1.0
145
0.0
146
0.8
147
0.625
 71
     1
 72
     0
 73
     0
 74
     0
 75
     0
 76
     0
 77
     1
 78
     8
170
     0
171
     2
172
     0
173
     0
174
     0
175
     0
176
     0
177
     0
178
     0
270
     2
271
     0
272
     2
273
     2
274
     2
340
10
275
     1
280
     0
281
     0
282
     0
283
     2
284
     8
285
     0
286
     0
287
     3
288
     0
  0
DIMSTYLE
105
5E6
100
AcDbSymbolTableRecord
100
AcDbDimStyleTableRecord
  2
TOLL-21
 70
     0
  3

  4

  5

  6

  7

 40
1.0
 41
2.5
 42
0.625
 43
3.75
 44
1.25
 45
0.0
 46
0.0
 47
0.033
 48
0.0
140
3.5
141
2.5
142
0.0
143
0.03937
144
1.0
145
0.0
146
0.8
147
0.625
 71
     1
 72
     0
 73
     0
 74
     0
 75
     0
 76
     0
 77
     1
 78
     8
170
     0
171
     2
172
     0
173
     0
174
     0
175
     0
176
     0
177
     0
178
     0
270
     2
271
     0
272
     2
273
     2
274
     2
340
10
275
     1
280
     0
281
     0
282
     0
283
     2
284
     8
285
     0
286
     0
287
     3
288
     0
  0
DIMSTYLE
105
60E
100
AcDbSymbolTableRecord
100
AcDbDimStyleTableRecord
  2
TOLL-22
 70
     0
  3

  4

  5

  6

  7

 40
1.0
 41
2.5
 42
0.625
 43
3.75
 44
1.25
 45
0.0
 46
0.0
 47
-0.033
 48
0.0
140
3.5
141
2.5
142
0.0
143
0.03937
144
1.0
145
0.0
146
0.8
147
0.625
 71
     1
 72
     0
 73
     0
 74
     0
 75
     0
 76
     0
 77
     1
 78
     8
170
     0
171
     2
172
     0
173
     0
174
     0
175
     0
176
     0
177
     0
178
     0
270
     2
271
     0
272
     2
273
     2
274
     2
340
10
275
     1
280
     0
281
     0
282
     0
283
     2
284
     8
285
     0
286
     0
287
     3
288
     0
  0
ENDTAB
  0
TABLE
  2
BLOCK_RECORD
  5
1
100
AcDbSymbolTable
 70
    45
  0
BLOCK_RECORD
  5
19
100
AcDbSymbolTableRecord
100
AcDbBlockTableRecord
  2
*MODEL_SPACE
  0
BLOCK_RECORD
  5
16
100
AcDbSymbolTableRecord
100
AcDbBlockTableRecord
  2
*PAPER_SPACE
  0
BLOCK_RECORD
  5
3A2
100
AcDbSymbolTableRecord
100
AcDbBlockTableRecord
  2
RUGOSITA
  0
BLOCK_RECORD
  5
4A8
100
AcDbSymbolTableRecord
100
AcDbBlockTableRecord
  2
A$C52B2
  0
BLOCK_RECORD
  5
62B
100
AcDbSymbolTableRecord
100
AcDbBlockTableRecord
  2
A$C350
  0
BLOCK_RECORD
  5
69B
100
AcDbSymbolTableRecord
100
AcDbBlockTableRecord
  2
*D3
  0
BLOCK_RECORD
  5
6CF
100
AcDbSymbolTableRecord
100
AcDbBlockTableRecord
  2
*D4
  0
BLOCK_RECORD
  5
723
100
AcDbSymbolTableRecord
100
AcDbBlockTableRecord
  2
*D5
  0
BLOCK_RECORD
  5
731
100
AcDbSymbolTableRecord
100
AcDbBlockTableRecord
  2
*D6
  0
BLOCK_RECORD
  5
7B8
100
AcDbSymbolTableRecord
100
AcDbBlockTableRecord
  2
*D7
  0
BLOCK_RECORD
  5
807
100
AcDbSymbolTableRecord
100
AcDbBlockTableRecord
  2
*D8
  0
BLOCK_RECORD
  5
815
100
AcDbSymbolTableRecord
100
AcDbBlockTableRecord
  2
*D9
  0
BLOCK_RECORD
  5
862
100
AcDbSymbolTableRecord
100
AcDbBlockTableRecord
  2
*D10
  0
BLOCK_RECORD
  5
892
100
AcDbSymbolTableRecord
100
AcDbBlockTableRecord
  2
*D11
  0
BLOCK_RECORD
  5
926
100
AcDbSymbolTableRecord
100
AcDbBlockTableRecord
  2
*D12
  0
BLOCK_RECORD
  5
933
100
AcDbSymbolTableRecord
100
AcDbBlockTableRecord
  2
*D13
  0
BLOCK_RECORD
  5
AE0
100
AcDbSymbolTableRecord
100
AcDbBlockTableRecord
  2
*D14
  0
BLOCK_RECORD
  5
AEC
100
AcDbSymbolTableRecord
100
AcDbBlockTableRecord
  2
*D15
  0
BLOCK_RECORD
  5
AF9
100
AcDbSymbolTableRecord
100
AcDbBlockTableRecord
  2
*D16
  0
BLOCK_RECORD
  5
B7D
100
AcDbSymbolTableRecord
100
AcDbBlockTableRecord
  2
*D17
  0
BLOCK_RECORD
  5
B8A
100
AcDbSymbolTableRecord
100
AcDbBlockTableRecord
  2
*D18
  0
BLOCK_RECORD
  5
BB4
100
AcDbSymbolTableRecord
100
AcDbBlockTableRecord
  2
*D19
  0
BLOCK_RECORD
  5
BEA
100
AcDbSymbolTableRecord
100
AcDbBlockTableRecord
  2
*D20
  0
BLOCK_RECORD
  5
C05
100
AcDbSymbolTableRecord
100
AcDbBlockTableRecord
  2
*D21
  0
BLOCK_RECORD
  5
C13
100
AcDbSymbolTableRecord
100
AcDbBlockTableRecord
  2
*D22
  0
BLOCK_RECORD
  5
1461
100
AcDbSymbolTableRecord
100
AcDbBlockTableRecord
  2
*D23
  0
BLOCK_RECORD
  5
146E
100
AcDbSymbolTableRecord
100
AcDbBlockTableRecord
  2
*D24
  0
BLOCK_RECORD
  5
170F
100
AcDbSymbolTableRecord
100
AcDbBlockTableRecord
  2
*D25
  0
BLOCK_RECORD
  5
171C
100
AcDbSymbolTableRecord
100
AcDbBlockTableRecord
  2
*D26
  0
BLOCK_RECORD
  5
1D86
100
AcDbSymbolTableRecord
100
AcDbBlockTableRecord
  2
*D27
  0
BLOCK_RECORD
  5
1DA7
100
AcDbSymbolTableRecord
100
AcDbBlockTableRecord
  2
*D28
  0
BLOCK_RECORD
  5
215D
100
AcDbSymbolTableRecord
100
AcDbBlockTableRecord
  2
*D29
  0
BLOCK_RECORD
  5
21EF
100
AcDbSymbolTableRecord
100
AcDbBlockTableRecord
  2
*D30
  0
BLOCK_RECORD
  5
21F9
100
AcDbSymbolTableRecord
100
AcDbBlockTableRecord
  2
*D31
  0
BLOCK_RECORD
  5
2206
100
AcDbSymbolTableRecord
100
AcDbBlockTableRecord
  2
*D32
  0
BLOCK_RECORD
  5
2248
100
AcDbSymbolTableRecord
100
AcDbBlockTableRecord
  2
*D33
  0
BLOCK_RECORD
  5
2281
100
AcDbSymbolTableRecord
100
AcDbBlockTableRecord
  2
*X34
  0
BLOCK_RECORD
  5
234D
100
AcDbSymbolTableRecord
100
AcDbBlockTableRecord
  2
*D35
  0
BLOCK_RECORD
  5
2371
100
AcDbSymbolTableRecord
100
AcDbBlockTableRecord
  2
*D36
  0
BLOCK_RECORD
  5
23E5
100
AcDbSymbolTableRecord
100
AcDbBlockTableRecord
  2
*D37
  0
BLOCK_RECORD
  5
23F2
100
AcDbSymbolTableRecord
100
AcDbBlockTableRecord
  2
*D38
  0
BLOCK_RECORD
  5
2401
100
AcDbSymbolTableRecord
100
AcDbBlockTableRecord
  2
*D39
  0
BLOCK_RECORD
  5
2543
100
AcDbSymbolTableRecord
100
AcDbBlockTableRecord
  2
*D40
  0
BLOCK_RECORD
  5
2566
100
AcDbSymbolTableRecord
100
AcDbBlockTableRecord
  2
*D41
  0
BLOCK_RECORD
  5
259B
100
AcDbSymbolTableRecord
100
AcDbBlockTableRecord
  2
*D42
  0
BLOCK_RECORD
  5
2618
100
AcDbSymbolTableRecord
100
AcDbBlockTableRecord
  2
*D43
  0
BLOCK_RECORD
  5
2680
100
AcDbSymbolTableRecord
100
AcDbBlockTableRecord
  2
*X44
  0
ENDTAB
  0
ENDSEC
  0
SECTION
  2
BLOCKS
  0
BLOCK
  5
1A
100
AcDbEntity
  8
0
100
AcDbBlockBegin
  2
*MODEL_SPACE
 70
     0
 10
0.0
 20
0.0
 30
0.0
  3
*MODEL_SPACE
  1

  0
ENDBLK
  5
1B
100
AcDbEntity
  8
0
100
AcDbBlockEnd
  0
BLOCK
  5
17
100
AcDbEntity
 67
     1
  8
0
100
AcDbBlockBegin
  2
*PAPER_SPACE
 70
     0
 10
0.0
 20
0.0
 30
0.0
  3
*PAPER_SPACE
  1

  0
ENDBLK
  5
18
100
AcDbEntity
 67
     1
  8
0
100
AcDbBlockEnd
  0
BLOCK
  5
3A7
100
AcDbEntity
  8
DISEGNO
100
AcDbBlockBegin
  2
RUGOSITA
 70
     2
 10
0.0
 20
0.0
 30
0.0
  3
RUGOSITA
  1

  0
ATTDEF
  5
3A3
100
AcDbEntity
  8
QUOTE
100
AcDbText
 10
-1.071886
 20
3.214106
 30
0.0
 40
1.5
  1
0.8
100
AcDbAttributeDefinition
  3
CHE RUGOSITA ?
  2
RUGOSITA
 70
     0
  0
LINE
  5
3A4
100
AcDbEntity
  8
QUOTE
100
AcDbLine
 10
0.0
 20
0.0
 30
0.0
 11
4.0
 21
6.928203
 31
0.0
  0
LINE
  5
3A5
100
AcDbEntity
  8
QUOTE
100
AcDbLine
 10
0.0
 20
0.0
 30
0.0
 11
-1.75
 21
3.031089
 31
0.0
  0
LINE
  5
3A6
100
AcDbEntity
  8
QUOTE
100
AcDbLine
 10
-1.75
 20
3.031089
 30
0.0
 11
1.75
 21
3.031089
 31
0.0
  0
ENDBLK
  5
3A8
100
AcDbEntity
  8
DISEGNO
100
AcDbBlockEnd
  0
BLOCK
  5
547
100
AcDbEntity
  8
QUOTE
100
AcDbBlockBegin
  2
A$C52B2
 70
     0
 10
0.0
 20
0.0
 30
0.0
  3
A$C52B2
  1

  0
LINE
  5
4A9
100
AcDbEntity
  8
TABELLA
  6
CONTINUOUS
100
AcDbLine
 10
100.781064
 20
5.387067
 30
0.0
 11
103.281064
 21
0.387067
 31
0.0
  0
LINE
  5
4AA
100
AcDbEntity
  8
TABELLA
  6
CONTINUOUS
100
AcDbLine
 10
100.781064
 20
0.387067
 30
0.0
 11
103.281064
 21
0.387067
 31
0.0
  0
LINE
  5
4AB
100
AcDbEntity
  8
TABELLA
  6
CONTINUOUS
100
AcDbLine
 10
103.281064
 20
287.387067
 30
0.0
 11
100.781064
 21
282.387067
 31
0.0
  0
LINE
  5
4AC
100
AcDbEntity
  8
TABELLA
  6
CONTINUOUS
100
AcDbLine
 10
100.781064
 20
287.387067
 30
0.0
 11
103.281064
 21
287.387067
 31
0.0
  0
TEXT
  5
4AD
100
AcDbEntity
  8
TABELLA
  6
CONTINUOUS
100
AcDbText
 10
83.891226
 20
14.123583
 30
0.0
 40
6.0
  1
ROLLERI
100
AcDbText
  0
LINE
  5
4AE
100
AcDbEntity
  8
TABELLA
  6
CONTINUOUS
100
AcDbLine
 10
115.706968
 20
22.612261
 30
0.0
 11
84.107383
 21
22.612261
 31
0.0
1001
ACAD
1000
ASC_BOUNDS
1002
{
1070
    19
1002
}
  0
LINE
  5
4AF
100
AcDbEntity
  8
TABELLA
  6
CONTINUOUS
100
AcDbLine
 10
82.055262
 20
11.456564
 30
0.0
 11
113.654847
 21
11.456564
 31
0.0
1001
ACAD
1000
ASC_BOUNDS
1002
{
1070
    19
1002
}
  0
LINE
  5
4B0
100
AcDbEntity
  8
TABELLA
  6
CONTINUOUS
100
AcDbLine
 10
116.407176
 20
23.612261
 30
0.0
 11
83.407176
 21
23.612261
 31
0.0
1001
ACAD
1000
ASC_BOUNDS
1002
{
1070
    19
1002
}
  0
LINE
  5
4B1
100
AcDbEntity
  8
TABELLA
  6
CONTINUOUS
100
AcDbLine
 10
81.355055
 20
10.456564
 30
0.0
 11
114.355055
 21
10.456564
 31
0.0
1001
ACAD
1000
ASC_BOUNDS
1002
{
1070
    19
1002
}
  0
TEXT
  5
4B2
100
AcDbEntity
  8
TABELLA
  6
CONTINUOUS
100
AcDbText
 10
79.770815
 20
6.679292
 30
0.0
 40
2.0
  1
Vigolzone ( Piacenza ) - ITALIA
100
AcDbText
  0
LINE
  5
4B3
100
AcDbEntity
  8
TABELLA
  6
CONTINUOUS
100
AcDbLine
 10
125.782064
 20
35.387067
 30
0.0
 11
75.782064
 21
35.387067
 31
0.0
  0
LINE
  5
4B4
100
AcDbEntity
  8
TABELLA
  6
CONTINUOUS
100
AcDbLine
 10
195.782064
 20
45.387067
 30
0.0
 11
5.697058
 21
45.395351
 31
0.0
  0
LINE
  5
4B5
100
AcDbEntity
  8
TABELLA
  6
CONTINUOUS
100
AcDbLine
 10
125.782064
 20
25.387067
 30
0.0
 11
75.782064
 21
25.387067
 31
0.0
  0
LINE
  5
4B6
100
AcDbEntity
  8
TABELLA
  6
CONTINUOUS
100
AcDbLine
 10
195.782064
 20
5.387067
 30
0.0
 11
5.782064
 21
5.387067
 31
0.0
  0
LINE
  5
4B7
100
AcDbEntity
  8
TABELLA
  6
CONTINUOUS
100
AcDbLine
 10
5.782064
 20
282.387067
 30
0.0
 11
195.782064
 21
282.387067
 31
0.0
  0
LINE
  5
4B8
100
AcDbEntity
  8
TABELLA
  6
CONTINUOUS
100
AcDbLine
 10
5.782064
 20
143.887067
 30
0.0
 11
0.782064
 21
141.387067
 31
0.0
  0
LINE
  5
4B9
100
AcDbEntity
  8
TABELLA
  6
CONTINUOUS
100
AcDbLine
 10
0.782064
 20
143.887067
 30
0.0
 11
0.782064
 21
141.387067
 31
0.0
  0
LINE
  5
4BA
100
AcDbEntity
  8
TABELLA
  6
CONTINUOUS
100
AcDbLine
 10
5.782064
 20
5.387067
 30
0.0
 11
5.782064
 21
282.387067
 31
0.0
  0
POLYLINE
  5
4BB
100
AcDbEntity
  8
QUOTE
100
AcDb2dPolyline
 66
     1
 10
0.0
 20
0.0
 30
0.0
 70
     1
  0
VERTEX
  5
4BC
100
AcDbEntity
  8
QUOTE
100
AcDbVertex
100
AcDb2dVertex
 10
11.507487
 20
62.582414
 30
0.0
  0
VERTEX
  5
4BD
100
AcDbEntity
  8
QUOTE
100
AcDbVertex
100
AcDb2dVertex
 10
11.507487
 20
49.867806
 30
0.0
  0
VERTEX
  5
4BE
100
AcDbEntity
  8
QUOTE
100
AcDbVertex
100
AcDb2dVertex
 10
52.626527
 20
49.867806
 30
0.0
  0
VERTEX
  5
4BF
100
AcDbEntity
  8
QUOTE
100
AcDbVertex
100
AcDb2dVertex
 10
52.626527
 20
62.582414
 30
0.0
  0
SEQEND
  5
4C0
100
AcDbEntity
  8
QUOTE
  0
TOLERANCE
  5
4C1
100
AcDbEntity
  8
QUOTE
  6
CONTINUOUS
100
AcDbFcf
  3
ISO-25
 10
30.863585
 20
54.182522
 30
0.0
  1
{\Fgdt;u}%%v0.02%%v%%v%%v%%v
1001
ACAD
1000
DSTYLE
1002
{
1070
   140
1040
2.6
1070
    47
1040
0.02
1070
    73
1070
     0
1070
   272
1070
     2
1070
   147
1040
0.53
1070
    42
1040
0.5261
1070
    44
1040
1.0522
1070
    43
1040
3.1566
1070
   271
1070
     2
1070
   141
1040
2.1044
1070
    41
1040
2.6
1002
}
  0
TEXT
  5
4C2
100
AcDbEntity
  8
QUOTE
100
AcDbText
 10
12.101072
 20
58.118453
 30
0.0
 40
2.5
  1
TOLLERANZE AL METRO
 41
1.1
100
AcDbText
  0
TEXT
  5
4C3
100
AcDbEntity
  8
TABELLA
  6
CONTINUOUS
100
AcDbText
 10
7.271803
 20
15.7314
 30
0.0
 40
2.0
  1
- Angoli su superfici lavorate = +/- 30'
100
AcDbText
  0
TEXT
  5
4C4
100
AcDbEntity
  8
TABELLA
  6
CONTINUOUS
100
AcDbText
 10
7.271803
 20
23.3314
 30
0.0
 40
2.0
  1
   da mm 151 a mm 500 = +/- 0.4
100
AcDbText
  0
TEXT
  5
4C5
100
AcDbEntity
  8
TABELLA
  6
CONTINUOUS
100
AcDbText
 10
7.271803
 20
27.1314
 30
0.0
 40
2.0
  1
   da mm 51 a mm 150 = +/- 0.3
100
AcDbText
  0
TEXT
  5
4C6
100
AcDbEntity
  8
TABELLA
  6
CONTINUOUS
100
AcDbText
 10
7.271803
 20
30.9314
 30
0.0
 40
2.0
  1
- Superfici lavorate da mm 1 a mm 50 = +/- 0.2
100
AcDbText
  0
TEXT
  5
4C7
100
AcDbEntity
  8
TABELLA
  6
CONTINUOUS
100
AcDbText
 10
7.271803
 20
34.7314
 30
0.0
 40
2.0
  1
- Parti fuse con spessori >10 mm = +/- 10%
100
AcDbText
  0
TEXT
  5
4C8
100
AcDbEntity
  8
TABELLA
  6
CONTINUOUS
100
AcDbText
 10
7.271803
 20
38.5314
 30
0.0
 40
2.0
  1
- Parti fuse con spessori <10 mm = +/- 1 mm
100
AcDbText
  0
TOLERANCE
  5
4C9
100
AcDbEntity
  8
QUOTE
  6
CONTINUOUS
100
AcDbFcf
  3
ISO-25
 10
15.305627
 20
54.182522
 30
0.0
  1
{\Fgdt;b}%%v0.02%%v%%v%%v%%v
1001
ACAD
1000
DSTYLE
1002
{
1070
   140
1040
2.6
1070
    47
1040
0.02
1070
    73
1070
     0
1070
   272
1070
     2
1070
   147
1040
0.53
1070
    42
1040
0.5261
1070
    44
1040
1.0522
1070
    43
1040
3.1566
1070
   271
1070
     2
1070
   141
1040
2.1044
1070
    41
1040
2.6
1002
}
  0
TEXT
  5
4CA
100
AcDbEntity
  8
TABELLA
  6
CONTINUOUS
100
AcDbText
 10
0.769342
 20
51.259863
 30
0.0
 40
4.0
  1
B
100
AcDbText
  0
TEXT
  5
4CB
100
AcDbEntity
  8
TABELLA
  6
CONTINUOUS
100
AcDbText
 10
0.353187
 20
15.100813
 30
0.0
 40
4.0
  1
A
100
AcDbText
  0
LINE
  5
4CC
100
AcDbEntity
  8
TABELLA
  6
CONTINUOUS
100
AcDbLine
 10
5.782064
 20
36.262067
 30
0.0
 11
0.782064
 21
36.262067
 31
0.0
  0
TEXT
  5
4CD
100
AcDbEntity
  8
TABELLA
  6
CONTINUOUS
100
AcDbText
 10
15.583223
 20
0.138446
 30
0.0
 40
4.0
  1
6
100
AcDbText
  0
LINE
  5
4CE
100
AcDbEntity
  8
TABELLA
  6
CONTINUOUS
100
AcDbLine
 10
34.115064
 20
5.387067
 30
0.0
 11
34.115064
 21
0.387067
 31
0.0
  0
TEXT
  5
4CF
100
AcDbEntity
  8
TABELLA
  6
CONTINUOUS
100
AcDbText
 10
7.271803
 20
11.9314
 30
0.0
 40
2.0
  1
- Interassi fori = +/- 0.25
100
AcDbText
  0
TEXT
  5
4D0
100
AcDbEntity
  8
TABELLA
  6
CONTINUOUS
100
AcDbText
 10
7.271803
 20
19.5314
 30
0.0
 40
2.0
  1
   oltre 500 mm = +/- 0.5
100
AcDbText
  0
TEXT
  5
4D1
100
AcDbEntity
  8
TABELLA
  6
CONTINUOUS
100
AcDbText
 10
7.271803
 20
42.3314
 30
0.0
 40
2.0
  1
TOLLERANZE GENERALI :
100
AcDbText
  0
LINE
  5
4D2
100
AcDbEntity
  8
TABELLA
  6
CONTINUOUS
100
AcDbLine
 10
5.782064
 20
72.137067
 30
0.0
 11
0.782064
 21
72.137067
 31
0.0
  0
TEXT
  5
4D3
100
AcDbEntity
  8
TABELLA
  6
CONTINUOUS
100
AcDbText
 10
0.769342
 20
87.459725
 30
0.0
 40
4.0
  1
C
100
AcDbText
  0
LINE
  5
4D4
100
AcDbEntity
  8
TABELLA
  6
CONTINUOUS
100
AcDbLine
 10
5.782064
 20
108.012067
 30
0.0
 11
0.782064
 21
108.012067
 31
0.0
  0
TEXT
  5
4D5
100
AcDbEntity
  8
TABELLA
  6
CONTINUOUS
100
AcDbText
 10
0.769342
 20
124.034397
 30
0.0
 40
4.0
  1
D
100
AcDbText
  0
LINE
  5
4D6
100
AcDbEntity
  8
TABELLA
  6
CONTINUOUS
100
AcDbLine
 10
65.792444
 20
45.394891
 30
0.0
 11
65.782064
 21
5.389662
 31
0.0
  0
TEXT
  5
4D7
100
AcDbEntity
  8
TABELLA
  6
CONTINUOUS
100
AcDbText
 10
68.438556
 20
7.454028
 30
0.0
 40
1.5
  1
A termine di legge la Rolleri si riserva la
 50
90.0
100
AcDbText
  0
TEXT
  5
4D8
100
AcDbEntity
  8
TABELLA
  6
CONTINUOUS
100
AcDbText
 10
49.29176
 20
0.138446
 30
0.0
 40
4.0
  1
5
100
AcDbText
  0
LINE
  5
4D9
100
AcDbEntity
  8
TABELLA
  6
CONTINUOUS
100
AcDbLine
 10
67.448064
 20
5.387067
 30
0.0
 11
67.448064
 21
0.387067
 31
0.0
  0
LINE
  5
4DA
100
AcDbEntity
  8
TABELLA
  6
CONTINUOUS
100
AcDbLine
 10
75.792442
 20
45.387067
 30
0.0
 11
75.792442
 21
5.387067
 31
0.0
  0
TEXT
  5
4DB
100
AcDbEntity
  8
TABELLA
  6
CONTINUOUS
100
AcDbText
 10
74.138556
 20
7.454028
 30
0.0
 40
1.5
  1
di riprodurlo e di comunicarlo a terzi.
 50
90.0
100
AcDbText
  0
TEXT
  5
4DC
100
AcDbEntity
  8
TABELLA
  6
CONTINUOUS
100
AcDbText
 10
71.288556
 20
7.454028
 30
0.0
 40
1.5
  1
proprietà di questo disegno, con divieto
 50
90.0
100
AcDbText
  0
TEXT
  5
4DD
100
AcDbEntity
  8
TABELLA
  6
CONTINUOUS
100
AcDbText
 10
83.416451
 20
0.554068
 30
0.0
 40
4.0
  1
4
100
AcDbText
  0
LINE
  5
4DE
100
AcDbEntity
  8
TABELLA
  6
CONTINUOUS
100
AcDbLine
 10
98.281064
 20
0.387067
 30
0.0
 11
100.781064
 21
5.387067
 31
0.0
  0
LINE
  5
4DF
100
AcDbEntity
  8
TABELLA
  6
CONTINUOUS
100
AcDbLine
 10
100.781064
 20
5.387067
 30
0.0
 11
100.781064
 21
0.387067
 31
0.0
  0
LINE
  5
4E0
100
AcDbEntity
  8
TABELLA
  6
CONTINUOUS
100
AcDbLine
 10
100.781064
 20
0.387067
 30
0.0
 11
98.281064
 21
0.387067
 31
0.0
  0
TEXT
  5
4E1
100
AcDbEntity
  8
TABELLA
  6
CONTINUOUS
100
AcDbText
 10
77.180326
 20
42.484843
 30
0.0
 40
2.0
  1
Materiale
100
AcDbText
  0
TEXT
  5
4E2
100
AcDbEntity
  8
TABELLA
  6
CONTINUOUS
100
AcDbText
 10
76.949018
 20
32.320687
 30
0.0
 40
2.0
  1
Disegnato da
100
AcDbText
  0
LINE
  5
4E3
100
AcDbEntity
  8
TABELLA
  6
CONTINUOUS
100
AcDbLine
 10
84.107383
 20
22.612261
 30
0.0
 11
81.051152
 21
14.215335
 31
0.0
1001
ACAD
1000
ASC_BOUNDS
1002
{
1070
    19
1002
}
  0
LINE
  5
4E4
100
AcDbEntity
  8
TABELLA
  6
CONTINUOUS
100
AcDbLine
 10
83.407176
 20
23.612261
 30
0.0
 11
79.986974
 21
14.215335
 31
0.0
1001
ACAD
1000
ASC_BOUNDS
1002
{
1070
    19
1002
}
  0
LINE
  5
4E5
100
AcDbEntity
  8
TABELLA
  6
CONTINUOUS
100
AcDbLine
 10
81.051152
 20
14.215335
 30
0.0
 11
82.055262
 21
11.456564
 31
0.0
1001
ACAD
1000
ASC_BOUNDS
1002
{
1070
    19
1002
}
  0
LINE
  5
4E6
100
AcDbEntity
  8
TABELLA
  6
CONTINUOUS
100
AcDbLine
 10
79.986974
 20
14.215335
 30
0.0
 11
81.355055
 21
10.456564
 31
0.0
1001
ACAD
1000
ASC_BOUNDS
1002
{
1070
    19
1002
}
  0
LINE
  5
4E7
100
AcDbEntity
  8
TABELLA
  6
CONTINUOUS
100
AcDbLine
 10
100.782064
 20
35.387067
 30
0.0
 11
100.782064
 21
25.387067
 31
0.0
  0
TEXT
  5
4E8
100
AcDbEntity
  8
TABELLA
  6
CONTINUOUS
100
AcDbText
 10
1.185497
 20
230.800736
 30
0.0
 40
4.0
  1
G
100
AcDbText
  0
LINE
  5
4E9
100
AcDbEntity
  8
TABELLA
  6
CONTINUOUS
100
AcDbLine
 10
0.782064
 20
146.387067
 30
0.0
 11
5.782064
 21
143.887067
 31
0.0
  0
LINE
  5
4EA
100
AcDbEntity
  8
TABELLA
  6
CONTINUOUS
100
AcDbLine
 10
5.782064
 20
143.887067
 30
0.0
 11
0.782064
 21
143.887067
 31
0.0
  0
LINE
  5
4EB
100
AcDbEntity
  8
TABELLA
  6
CONTINUOUS
100
AcDbLine
 10
0.782064
 20
143.887067
 30
0.0
 11
0.782064
 21
146.387067
 31
0.0
  0
TEXT
  5
4EC
100
AcDbEntity
  8
TABELLA
  6
CONTINUOUS
100
AcDbText
 10
1.601651
 20
158.319393
 30
0.0
 40
4.0
  1
E
100
AcDbText
  0
LINE
  5
4ED
100
AcDbEntity
  8
TABELLA
  6
CONTINUOUS
100
AcDbLine
 10
5.782064
 20
179.762067
 30
0.0
 11
0.782064
 21
179.762067
 31
0.0
  0
TEXT
  5
4EE
100
AcDbEntity
  8
TABELLA
  6
CONTINUOUS
100
AcDbText
 10
1.185497
 20
195.309687
 30
0.0
 40
4.0
  1
F
100
AcDbText
  0
LINE
  5
4EF
100
AcDbEntity
  8
TABELLA
  6
CONTINUOUS
100
AcDbLine
 10
5.782064
 20
215.637067
 30
0.0
 11
0.782064
 21
215.637067
 31
0.0
  0
LINE
  5
4F0
100
AcDbEntity
  8
TABELLA
  6
CONTINUOUS
100
AcDbLine
 10
5.782064
 20
251.512067
 30
0.0
 11
0.782064
 21
251.512067
 31
0.0
  0
TEXT
  5
4F1
100
AcDbEntity
  8
TABELLA
  6
CONTINUOUS
100
AcDbText
 10
1.185497
 20
268.206651
 30
0.0
 40
4.0
  1
H
100
AcDbText
  0
TEXT
  5
4F2
100
AcDbEntity
  8
TABELLA
  6
CONTINUOUS
100
AcDbText
 10
15.583224
 20
283.209827
 30
0.0
 40
4.0
  1
6
100
AcDbText
  0
LINE
  5
4F3
100
AcDbEntity
  8
TABELLA
  6
CONTINUOUS
100
AcDbLine
 10
34.115064
 20
282.387067
 30
0.0
 11
34.115064
 21
287.387067
 31
0.0
  0
TEXT
  5
4F4
100
AcDbEntity
  8
TABELLA
  6
CONTINUOUS
100
AcDbText
 10
50.12407
 20
283.250638
 30
0.0
 40
4.0
  1
5
100
AcDbText
  0
LINE
  5
4F5
100
AcDbEntity
  8
TABELLA
  6
CONTINUOUS
100
AcDbLine
 10
67.448064
 20
282.387067
 30
0.0
 11
67.448064
 21
287.387067
 31
0.0
  0
TEXT
  5
4F6
100
AcDbEntity
  8
TABELLA
  6
CONTINUOUS
100
AcDbText
 10
83.832607
 20
283.250638
 30
0.0
 40
4.0
  1
4
100
AcDbText
  0
LINE
  5
4F7
100
AcDbEntity
  8
TABELLA
  6
CONTINUOUS
100
AcDbLine
 10
100.781064
 20
282.387067
 30
0.0
 11
98.281064
 21
287.387067
 31
0.0
  0
LINE
  5
4F8
100
AcDbEntity
  8
TABELLA
  6
CONTINUOUS
100
AcDbLine
 10
100.781064
 20
282.387067
 30
0.0
 11
100.781064
 21
287.387067
 31
0.0
  0
LINE
  5
4F9
100
AcDbEntity
  8
TABELLA
  6
CONTINUOUS
100
AcDbLine
 10
100.781064
 20
287.387067
 30
0.0
 11
98.281064
 21
287.387067
 31
0.0
  0
LINE
  5
4FA
100
AcDbEntity
  8
TABELLA
  6
CONTINUOUS
100
AcDbLine
 10
200.782064
 20
141.387067
 30
0.0
 11
195.782064
 21
143.887067
 31
0.0
  0
LINE
  5
4FB
100
AcDbEntity
  8
TABELLA
  6
CONTINUOUS
100
AcDbLine
 10
200.782064
 20
143.887067
 30
0.0
 11
200.782064
 21
141.387067
 31
0.0
  0
LINE
  5
4FC
100
AcDbEntity
  8
TABELLA
  6
CONTINUOUS
100
AcDbLine
 10
191.781227
 20
165.387241
 30
0.0
 11
191.781227
 21
45.387241
 31
0.0
  0
LINE
  5
4FD
100
AcDbEntity
  8
TABELLA
  6
CONTINUOUS
100
AcDbLine
 10
195.782064
 20
5.387067
 30
0.0
 11
195.782064
 21
282.387067
 31
0.0
  0
TEXT
  5
4FE
100
AcDbEntity
  8
TABELLA
  6
CONTINUOUS
100
AcDbText
 10
147.267168
 20
42.484843
 30
0.0
 40
2.0
  1
Trattamento Termico
100
AcDbText
  0
TEXT
  5
4FF
100
AcDbEntity
  8
TABELLA
  6
CONTINUOUS
100
AcDbText
 10
161.83968
 20
32.089683
 30
0.0
 40
2.0
  1
Scala
100
AcDbText
  0
TEXT
  5
500
100
AcDbEntity
  8
TABELLA
  6
CONTINUOUS
100
AcDbText
 10
162.070991
 20
12.223377
 30
0.0
 40
2.0
  1
Data
100
AcDbText
  0
LINE
  5
501
100
AcDbEntity
  8
TABELLA
  6
CONTINUOUS
100
AcDbLine
 10
125.782064
 20
35.387067
 30
0.0
 11
195.782064
 21
35.387067
 31
0.0
  0
LINE
  5
502
100
AcDbEntity
  8
TABELLA
  6
CONTINUOUS
100
AcDbLine
 10
125.782064
 20
25.387067
 30
0.0
 11
195.782064
 21
25.387067
 31
0.0
  0
LINE
  5
503
100
AcDbEntity
  8
TABELLA
  6
CONTINUOUS
100
AcDbLine
 10
120.666552
 20
15.457427
 30
0.0
 11
195.782064
 21
15.387067
 31
0.0
  0
TEXT
  5
504
100
AcDbEntity
  8
TABELLA
  6
CONTINUOUS
100
AcDbText
 10
116.965597
 20
42.484843
 30
0.0
 40
2.0
  1
Dimensioni di prelievo
100
AcDbText
  0
TEXT
  5
505
100
AcDbEntity
  8
TABELLA
  6
CONTINUOUS
100
AcDbText
 10
126.911915
 20
32.089683
 30
0.0
 40
2.0
  1
Approvato da - data
100
AcDbText
  0
TEXT
  5
506
100
AcDbEntity
  8
TABELLA
  6
CONTINUOUS
100
AcDbText
 10
121.823101
 20
22.387534
 30
0.0
 40
2.0
  1
Particolare
100
AcDbText
  0
LINE
  5
507
100
AcDbEntity
  8
TABELLA
  6
CONTINUOUS
100
AcDbLine
 10
120.782064
 20
15.387067
 30
0.0
 11
120.782064
 21
5.387067
 31
0.0
  0
TEXT
  5
508
100
AcDbEntity
  8
TABELLA
  6
CONTINUOUS
100
AcDbText
 10
116.708833
 20
0.138446
 30
0.0
 40
4.0
  1
3
100
AcDbText
  0
LINE
  5
509
100
AcDbEntity
  8
TABELLA
  6
CONTINUOUS
100
AcDbLine
 10
116.711078
 20
19.853491
 30
0.0
 11
115.706968
 21
22.612261
 31
0.0
1001
ACAD
1000
ASC_BOUNDS
1002
{
1070
    19
1002
}
  0
LINE
  5
50A
100
AcDbEntity
  8
TABELLA
  6
CONTINUOUS
100
AcDbLine
 10
113.654847
 20
11.456564
 30
0.0
 11
116.711078
 21
19.853491
 31
0.0
1001
ACAD
1000
ASC_BOUNDS
1002
{
1070
    19
1002
}
  0
LINE
  5
50B
100
AcDbEntity
  8
TABELLA
  6
CONTINUOUS
100
AcDbLine
 10
114.355055
 20
10.456564
 30
0.0
 11
117.775256
 21
19.853491
 31
0.0
1001
ACAD
1000
ASC_BOUNDS
1002
{
1070
    19
1002
}
  0
TEXT
  5
50C
100
AcDbEntity
  8
TABELLA
  6
CONTINUOUS
100
AcDbText
 10
101.930465
 20
32.089683
 30
0.0
 40
2.0
  1
Controllato da
100
AcDbText
  0
LINE
  5
50D
100
AcDbEntity
  8
TABELLA
  6
CONTINUOUS
100
AcDbLine
 10
115.782064
 20
35.387067
 30
0.0
 11
115.782064
 21
45.387067
 31
0.0
  0
LINE
  5
50E
100
AcDbEntity
  8
TABELLA
  6
CONTINUOUS
100
AcDbLine
 10
125.782064
 20
35.387067
 30
0.0
 11
125.782064
 21
25.387067
 31
0.0
  0
TEXT
  5
50F
100
AcDbEntity
  8
TABELLA
  6
CONTINUOUS
100
AcDbText
 10
121.591791
 20
12.223377
 30
0.0
 40
2.0
  1
Disegno
100
AcDbText
  0
LINE
  5
510
100
AcDbEntity
  8
TABELLA
  6
CONTINUOUS
100
AcDbLine
 10
117.775256
 20
19.853491
 30
0.0
 11
116.407176
 21
23.612261
 31
0.0
1001
ACAD
1000
ASC_BOUNDS
1002
{
1070
    19
1002
}
  0
LINE
  5
511
100
AcDbEntity
  8
TABELLA
  6
CONTINUOUS
100
AcDbLine
 10
120.782064
 20
25.387067
 30
0.0
 11
120.782064
 21
15.387067
 31
0.0
  0
LINE
  5
512
100
AcDbEntity
  8
TABELLA
  6
CONTINUOUS
100
AcDbLine
 10
160.782064
 20
15.387067
 30
0.0
 11
160.782064
 21
5.387067
 31
0.0
  0
LINE
  5
513
100
AcDbEntity
  8
TABELLA
  6
CONTINUOUS
100
AcDbLine
 10
134.114064
 20
5.387067
 30
0.0
 11
134.114064
 21
0.387067
 31
0.0
  0
TEXT
  5
514
100
AcDbEntity
  8
TABELLA
  6
CONTINUOUS
100
AcDbText
 10
150.41737
 20
0.138446
 30
0.0
 40
4.0
  1
2
100
AcDbText
  0
LINE
  5
515
100
AcDbEntity
  8
TABELLA
  6
CONTINUOUS
100
AcDbLine
 10
145.782064
 20
35.387067
 30
0.0
 11
145.782064
 21
45.387067
 31
0.0
  0
LINE
  5
516
100
AcDbEntity
  8
TABELLA
  6
CONTINUOUS
100
AcDbLine
 10
160.782064
 20
35.387067
 30
0.0
 11
160.782064
 21
25.387067
 31
0.0
  0
TEXT
  5
517
100
AcDbEntity
  8
TABELLA
  6
CONTINUOUS
100
AcDbText
 10
197.026704
 20
51.259863
 30
0.0
 40
4.0
  1
B
100
AcDbText
  0
TEXT
  5
518
100
AcDbEntity
  8
TABELLA
  6
CONTINUOUS
100
AcDbText
 10
195.001816
 20
46.303578
 30
0.0
 40
2.0
  1
N° rev.
 50
90.0
100
AcDbText
  0
LINE
  5
519
100
AcDbEntity
  8
TABELLA
  6
CONTINUOUS
100
AcDbLine
 10
176.747411
 20
30.474182
 30
0.0
 11
194.673913
 21
30.474182
 31
0.0
  0
LINE
  5
51A
100
AcDbEntity
  8
TABELLA
  6
CONTINUOUS
100
AcDbLine
 10
180.782064
 20
15.387067
 30
0.0
 11
180.782064
 21
5.387067
 31
0.0
  0
LINE
  5
51B
100
AcDbEntity
  8
TABELLA
  6
CONTINUOUS
100
AcDbLine
 10
167.447064
 20
5.387067
 30
0.0
 11
167.447064
 21
0.387067
 31
0.0
  0
TEXT
  5
51C
100
AcDbEntity
  8
TABELLA
  6
CONTINUOUS
100
AcDbText
 10
184.542061
 20
0.138446
 30
0.0
 40
4.0
  1
1
100
AcDbText
  0
LINE
  5
51D
100
AcDbEntity
  8
TABELLA
  6
CONTINUOUS
100
AcDbLine
 10
176.747411
 20
31.974182
 30
0.0
 11
182.656258
 21
33.016071
 31
0.0
  0
LINE
  5
51E
100
AcDbEntity
  8
TABELLA
  6
CONTINUOUS
100
AcDbLine
 10
176.747411
 20
28.974182
 30
0.0
 11
182.656258
 21
27.932293
 31
0.0
  0
LINE
  5
51F
100
AcDbEntity
  8
TABELLA
  6
CONTINUOUS
100
AcDbLine
 10
176.747411
 20
31.974182
 30
0.0
 11
176.747411
 21
28.974182
 31
0.0
  0
LINE
  5
520
100
AcDbEntity
  8
TABELLA
  6
CONTINUOUS
100
AcDbLine
 10
175.782064
 20
35.387067
 30
0.0
 11
175.782064
 21
25.387067
 31
0.0
  0
CIRCLE
  5
521
100
AcDbEntity
  8
TABELLA
  6
CONTINUOUS
100
AcDbCircle
 10
189.932065
 20
30.474182
 30
0.0
 40
1.5
  0
LINE
  5
522
100
AcDbEntity
  8
TABELLA
  6
CONTINUOUS
100
AcDbLine
 10
189.932065
 20
28.369782
 30
0.0
 11
189.932065
 21
32.578582
 31
0.0
  0
CIRCLE
  5
523
100
AcDbEntity
  8
TABELLA
  6
CONTINUOUS
100
AcDbCircle
 10
189.932065
 20
30.474182
 30
0.0
 40
2.54
  0
LINE
  5
524
100
AcDbEntity
  8
TABELLA
  6
CONTINUOUS
100
AcDbLine
 10
182.656258
 20
33.016071
 30
0.0
 11
182.656258
 21
27.932293
 31
0.0
  0
TEXT
  5
525
100
AcDbEntity
  8
TABELLA
  6
CONTINUOUS
100
AcDbText
 10
181.963625
 20
11.992375
 30
0.0
 40
2.0
  1
Formato
100
AcDbText
  0
LINE
  5
526
100
AcDbEntity
  8
TABELLA
  6
CONTINUOUS
100
AcDbLine
 10
187.827665
 20
30.474182
 30
0.0
 11
192.036465
 21
30.474182
 31
0.0
  0
LINE
  5
527
100
AcDbEntity
  8
TABELLA
  6
CONTINUOUS
100
AcDbLine
 10
195.782064
 20
5.387067
 30
0.0
 11
195.782064
 21
35.387067
 31
0.0
  0
TEXT
  5
528
100
AcDbEntity
  8
TABELLA
  6
CONTINUOUS
100
AcDbText
 10
197.026704
 20
14.685191
 30
0.0
 40
4.0
  1
A
100
AcDbText
  0
LINE
  5
529
100
AcDbEntity
  8
TABELLA
  6
CONTINUOUS
100
AcDbLine
 10
195.782064
 20
36.262067
 30
0.0
 11
200.782064
 21
36.262067
 31
0.0
  0
TEXT
  5
52A
100
AcDbEntity
  8
TABELLA
  6
CONTINUOUS
100
AcDbText
 10
195.209894
 20
130.984517
 30
0.0
 40
2.0
  1
Data
 50
90.0
100
AcDbText
  0
TEXT
  5
52B
100
AcDbEntity
  8
TABELLA
  6
CONTINUOUS
100
AcDbText
 10
195.209894
 20
56.278486
 30
0.0
 40
2.0
  1
Nota di revisione
 50
90.0
100
AcDbText
  0
LINE
  5
52C
100
AcDbEntity
  8
TABELLA
  6
CONTINUOUS
100
AcDbLine
 10
191.781227
 20
55.387241
 30
0.0
 11
195.782064
 21
55.387241
 31
0.0
  0
LINE
  5
52D
100
AcDbEntity
  8
TABELLA
  6
CONTINUOUS
100
AcDbLine
 10
191.781227
 20
130.387241
 30
0.0
 11
195.782064
 21
130.387241
 31
0.0
  0
LINE
  5
52E
100
AcDbEntity
  8
TABELLA
  6
CONTINUOUS
100
AcDbLine
 10
195.782064
 20
72.137067
 30
0.0
 11
200.782064
 21
72.137067
 31
0.0
  0
TEXT
  5
52F
100
AcDbEntity
  8
TABELLA
  6
CONTINUOUS
100
AcDbText
 10
197.442859
 20
87.459725
 30
0.0
 40
4.0
  1
C
100
AcDbText
  0
LINE
  5
530
100
AcDbEntity
  8
TABELLA
  6
CONTINUOUS
100
AcDbLine
 10
195.782064
 20
108.012067
 30
0.0
 11
200.782064
 21
108.012067
 31
0.0
  0
TEXT
  5
531
100
AcDbEntity
  8
TABELLA
  6
CONTINUOUS
100
AcDbText
 10
197.442859
 20
123.618776
 30
0.0
 40
4.0
  1
D
100
AcDbText
  0
TEXT
  5
532
100
AcDbEntity
  8
TABELLA
  6
CONTINUOUS
100
AcDbText
 10
116.708835
 20
283.250638
 30
0.0
 40
4.0
  1
3
100
AcDbText
  0
LINE
  5
533
100
AcDbEntity
  8
TABELLA
  6
CONTINUOUS
100
AcDbLine
 10
134.114064
 20
282.387067
 30
0.0
 11
134.114064
 21
287.387067
 31
0.0
  0
TEXT
  5
534
100
AcDbEntity
  8
TABELLA
  6
CONTINUOUS
100
AcDbText
 10
150.417372
 20
283.250638
 30
0.0
 40
4.0
  1
2
100
AcDbText
  0
TEXT
  5
535
100
AcDbEntity
  8
TABELLA
  6
CONTINUOUS
100
AcDbText
 10
197.026704
 20
230.800736
 30
0.0
 40
4.0
  1
G
100
AcDbText
  0
TEXT
  5
536
100
AcDbEntity
  8
TABELLA
  6
CONTINUOUS
100
AcDbText
 10
195.209894
 20
155.7956
 30
0.0
 40
2.0
  1
Control.
 50
90.0
100
AcDbText
  0
TEXT
  5
537
100
AcDbEntity
  8
TABELLA
  6
CONTINUOUS
100
AcDbText
 10
195.209894
 20
146.028502
 30
0.0
 40
2.0
  1
Firma
 50
90.0
100
AcDbText
  0
LINE
  5
538
100
AcDbEntity
  8
TABELLA
  6
CONTINUOUS
100
AcDbLine
 10
191.781227
 20
145.387241
 30
0.0
 11
195.782064
 21
145.387241
 31
0.0
  0
LINE
  5
539
100
AcDbEntity
  8
TABELLA
  6
CONTINUOUS
100
AcDbLine
 10
191.781227
 20
155.387241
 30
0.0
 11
195.782064
 21
155.387241
 31
0.0
  0
LINE
  5
53A
100
AcDbEntity
  8
TABELLA
  6
CONTINUOUS
100
AcDbLine
 10
191.781227
 20
165.387241
 30
0.0
 11
195.782064
 21
165.387241
 31
0.0
  0
LINE
  5
53B
100
AcDbEntity
  8
TABELLA
  6
CONTINUOUS
100
AcDbLine
 10
195.782064
 20
143.887067
 30
0.0
 11
200.782064
 21
146.387067
 31
0.0
  0
LINE
  5
53C
100
AcDbEntity
  8
TABELLA
  6
CONTINUOUS
100
AcDbLine
 10
195.782064
 20
143.887067
 30
0.0
 11
200.782064
 21
143.887067
 31
0.0
  0
LINE
  5
53D
100
AcDbEntity
  8
TABELLA
  6
CONTINUOUS
100
AcDbLine
 10
200.782064
 20
143.887067
 30
0.0
 11
200.782064
 21
146.387067
 31
0.0
  0
TEXT
  5
53E
100
AcDbEntity
  8
TABELLA
  6
CONTINUOUS
100
AcDbText
 10
197.442859
 20
158.319393
 30
0.0
 40
4.0
  1
E
100
AcDbText
  0
LINE
  5
53F
100
AcDbEntity
  8
TABELLA
  6
CONTINUOUS
100
AcDbLine
 10
195.782064
 20
179.762067
 30
0.0
 11
200.782064
 21
179.762067
 31
0.0
  0
TEXT
  5
540
100
AcDbEntity
  8
TABELLA
  6
CONTINUOUS
100
AcDbText
 10
197.859013
 20
195.309687
 30
0.0
 40
4.0
  1
F
100
AcDbText
  0
LINE
  5
541
100
AcDbEntity
  8
TABELLA
  6
CONTINUOUS
100
AcDbLine
 10
195.782064
 20
215.637067
 30
0.0
 11
200.782064
 21
215.637067
 31
0.0
  0
LINE
  5
542
100
AcDbEntity
  8
TABELLA
  6
CONTINUOUS
100
AcDbLine
 10
167.447064
 20
282.387067
 30
0.0
 11
167.447064
 21
287.387067
 31
0.0
  0
TEXT
  5
543
100
AcDbEntity
  8
TABELLA
  6
CONTINUOUS
100
AcDbText
 10
184.958217
 20
283.250638
 30
0.0
 40
4.0
  1
1
100
AcDbText
  0
LINE
  5
544
100
AcDbEntity
  8
TABELLA
  6
CONTINUOUS
100
AcDbLine
 10
195.782064
 20
282.387067
 30
0.0
 11
195.782064
 21
278.387067
 31
0.0
  0
LINE
  5
545
100
AcDbEntity
  8
TABELLA
  6
CONTINUOUS
100
AcDbLine
 10
195.782064
 20
251.512067
 30
0.0
 11
200.782064
 21
251.512067
 31
0.0
  0
TEXT
  5
546
100
AcDbEntity
  8
TABELLA
  6
CONTINUOUS
100
AcDbText
 10
197.026704
 20
268.206651
 30
0.0
 40
4.0
  1
H
100
AcDbText
  0
ENDBLK
  5
548
100
AcDbEntity
  8
QUOTE
100
AcDbBlockEnd
  0
BLOCK
  5
660
100
AcDbEntity
  8
DISEGNO
100
AcDbBlockBegin
  2
A$C350
 70
     0
 10
0.0
 20
0.0
 30
0.0
  3
A$C350
  1

  0
LINE
  5
62C
100
AcDbEntity
  8
DISEGNO
100
AcDbLine
 10
8.0579
 20
17.260118
 30
0.0
 11
8.0579
 21
20.260118
 31
0.0
  0
LINE
  5
62D
100
AcDbEntity
  8
DISEGNO
100
AcDbLine
 10
16.0579
 20
17.260118
 30
0.0
 11
8.0579
 21
17.260118
 31
0.0
  0
LINE
  5
62E
100
AcDbEntity
  8
DISEGNO
100
AcDbLine
 10
16.0579
 20
20.260118
 30
0.0
 11
16.0579
 21
17.260118
 31
0.0
  0
LINE
  5
62F
100
AcDbEntity
  8
DISEGNO
100
AcDbLine
 10
8.0579
 20
20.260118
 30
0.0
 11
16.0579
 21
20.260118
 31
0.0
  0
LINE
  5
630
100
AcDbEntity
  8
DISEGNO
100
AcDbLine
 10
50.0579
 20
0.260118
 30
0.0
 11
50.0579
 21
24.260118
 31
0.0
  0
LINE
  5
631
100
AcDbEntity
  8
DISEGNO
100
AcDbLine
 10
0.0579
 20
0.260118
 30
0.0
 11
0.0579
 21
24.260118
 31
0.0
  0
LINE
  5
632
100
AcDbEntity
  8
DISEGNO
100
AcDbLine
 10
0.0579
 20
24.260118
 30
0.0
 11
50.0579
 21
24.260118
 31
0.0
  0
LINE
  5
633
100
AcDbEntity
  8
DISEGNO
100
AcDbLine
 10
0.0579
 20
9.260118
 30
0.0
 11
50.0579
 21
9.260118
 31
0.0
  0
LINE
  5
634
100
AcDbEntity
  8
DISEGNO
100
AcDbLine
 10
0.0579
 20
6.260118
 30
0.0
 11
50.0579
 21
6.260118
 31
0.0
  0
LINE
  5
635
100
AcDbEntity
  8
DISEGNO
100
AcDbLine
 10
0.0579
 20
0.260118
 30
0.0
 11
50.0579
 21
0.260118
 31
0.0
  0
ARC
  5
636
100
AcDbEntity
  8
DISEGNO
100
AcDbCircle
 10
100.198804
 20
122.244193
 30
0.0
 40
1.0
100
AcDbArc
 50
195.0
 51
345.0
1001
ACAD
1000
ASC_BOUNDS
1002
{
1070
    19
1005
0
1002
}
  0
LINE
  5
637
100
AcDbEntity
  8
ASSI
100
AcDbLine
 10
100.198804
 20
65.964984
 30
0.0
 11
100.198804
 21
18.126553
 31
0.0
  0
LINE
  5
638
100
AcDbEntity
  8
ASSI
100
AcDbLine
 10
100.198804
 20
11.442606
 30
0.0
 11
100.198804
 21
10.119892
 31
0.0
  0
ARC
  5
639
100
AcDbEntity
  8
DISEGNO
100
AcDbCircle
 10
105.966131
 20
136.040743
 30
0.0
 40
1.0
100
AcDbArc
 50
90.0
 51
165.0
1001
ACAD
1000
ASC_BOUNDS
1002
{
1070
    19
1005
0
1002
}
  0
ARC
  5
63A
100
AcDbEntity
  8
DISEGNO
100
AcDbCircle
 10
94.431477
 20
136.040743
 30
0.0
 40
1.0
100
AcDbArc
 50
15.0
 51
90.0
1001
ACAD
1000
ASC_BOUNDS
1002
{
1070
    19
1005
0
1002
}
  0
LINE
  5
63B
100
AcDbEntity
  8
DISEGNO
100
AcDbLine
 10
111.698804
 20
82.040743
 30
0.0
 11
112.698804
 21
81.040743
 31
0.0
1001
ACAD
1000
ASC_BOUNDS
1002
{
1070
    19
1002
}
  0
LINE
  5
63C
100
AcDbEntity
  8
DISEGNO
100
AcDbLine
 10
87.698804
 20
81.040743
 30
0.0
 11
88.698804
 21
82.040743
 31
0.0
  0
LINE
  5
63D
100
AcDbEntity
  8
ASSI
100
AcDbLine
 10
100.198804
 20
152.302677
 30
0.0
 11
100.198804
 21
149.197785
 31
0.0
  0
LINE
  5
63E
100
AcDbEntity
  8
DISEGNO
100
AcDbLine
 10
105.966131
 20
137.040743
 30
0.0
 11
109.198804
 21
137.040743
 31
0.0
1001
ACAD
1000
ASC_BOUNDS
1002
{
1070
    19
1005
0
1002
}
  0
LINE
  5
63F
100
AcDbEntity
  8
DISEGNO
100
AcDbLine
 10
95.397403
 20
136.299563
 30
0.0
 11
99.232878
 21
121.985374
 31
0.0
1001
ACAD
1000
ASC_BOUNDS
1002
{
1070
    19
1005
0
1002
}
  0
LINE
  5
640
100
AcDbEntity
  8
DISEGNO
100
AcDbLine
 10
105.000205
 20
136.299563
 30
0.0
 11
101.16473
 21
121.985374
 31
0.0
1001
ACAD
1000
ASC_BOUNDS
1002
{
1070
    19
1005
0
1002
}
  0
LINE
  5
641
100
AcDbEntity
  8
DISEGNO
100
AcDbLine
 10
91.198804
 20
137.040743
 30
0.0
 11
94.431477
 21
137.040743
 31
0.0
1001
ACAD
1000
ASC_BOUNDS
1002
{
1070
    19
1005
0
1002
}
  0
LINE
  5
642
100
AcDbEntity
  8
DISEGNO
100
AcDbLine
 10
90.198804
 20
82.040743
 30
0.0
 11
88.698804
 21
82.040743
 31
0.0
  0
LINE
  5
643
100
AcDbEntity
  8
DISEGNO
100
AcDbLine
 10
87.698804
 20
81.040743
 30
0.0
 11
87.698804
 21
76.540743
 31
0.0
1001
ACAD
1000
ASC_BOUNDS
1002
{
1070
    19
1002
}
  0
LINE
  5
644
100
AcDbEntity
  8
DISEGNO
100
AcDbLine
 10
110.198804
 20
82.040743
 30
0.0
 11
110.198804
 21
136.040743
 31
0.0
1001
ACAD
1000
ASC_BOUNDS
1002
{
1070
    19
1005
0
1002
}
  0
LINE
  5
645
100
AcDbEntity
  8
DISEGNO
100
AcDbLine
 10
111.698804
 20
82.040743
 30
0.0
 11
110.198804
 21
82.040743
 31
0.0
  0
LINE
  5
646
100
AcDbEntity
  8
DISEGNO
100
AcDbLine
 10
109.198804
 20
137.040743
 30
0.0
 11
110.198804
 21
136.040743
 31
0.0
1001
ACAD
1000
ASC_BOUNDS
1002
{
1070
    19
1005
0
1002
}
  0
LINE
  5
647
100
AcDbEntity
  8
DISEGNO
100
AcDbLine
 10
90.198804
 20
136.040743
 30
0.0
 11
91.198804
 21
137.040743
 31
0.0
1001
ACAD
1000
ASC_BOUNDS
1002
{
1070
    19
1005
0
1002
}
  0
LINE
  5
648
100
AcDbEntity
  8
DISEGNO
100
AcDbLine
 10
87.698804
 20
68.040743
 30
0.0
 11
88.698804
 21
67.040743
 31
0.0
  0
LINE
  5
649
100
AcDbEntity
  8
DISEGNO
100
AcDbLine
 10
111.698804
 20
67.040743
 30
0.0
 11
112.698804
 21
68.040743
 31
0.0
  0
LINE
  5
64A
100
AcDbEntity
  8
DISEGNO
100
AcDbLine
 10
105.698804
 20
47.040743
 30
0.0
 11
106.698804
 21
48.040743
 31
0.0
  0
LINE
  5
64B
100
AcDbEntity
  8
DISEGNO
100
AcDbLine
 10
93.698804
 20
48.040743
 30
0.0
 11
94.698804
 21
47.040743
 31
0.0
  0
LINE
  5
64C
100
AcDbEntity
  8
ASSI
100
AcDbLine
 10
75.396992
 20
75.040743
 30
0.0
 11
74.902374
 21
75.040743
 31
0.0
  0
LINE
  5
64D
100
AcDbEntity
  8
DISEGNO
100
AcDbLine
 10
87.698804
 20
73.540743
 30
0.0
 11
87.698804
 21
68.040743
 31
0.0
  0
LINE
  5
64E
100
AcDbEntity
  8
DISEGNO
100
AcDbLine
 10
87.698804
 20
73.540743
 30
0.0
 11
89.198804
 21
75.040743
 31
0.0
  0
LINE
  5
64F
100
AcDbEntity
  8
DISEGNO
100
AcDbLine
 10
87.698804
 20
76.540743
 30
0.0
 11
89.198804
 21
75.040743
 31
0.0
  0
LINE
  5
650
100
AcDbEntity
  8
ASSI
100
AcDbLine
 10
94.698804
 20
75.040743
 30
0.0
 11
79.697732
 21
75.040743
 31
0.0
  0
LINE
  5
651
100
AcDbEntity
  8
DISEGNO
100
AcDbLine
 10
105.638144
 20
66.68719
 30
0.0
 11
107.052358
 21
68.101404
 31
0.0
  0
LINE
  5
652
100
AcDbEntity
  8
DISEGNO
100
AcDbLine
 10
108.113018
 20
67.040743
 30
0.0
 11
107.052358
 21
68.101404
 31
0.0
  0
LINE
  5
653
100
AcDbEntity
  8
DISEGNO
100
AcDbLine
 10
106.698804
 20
65.62653
 30
0.0
 11
105.638144
 21
66.68719
 31
0.0
  0
LINE
  5
654
100
AcDbEntity
  8
DISEGNO
100
AcDbLine
 10
94.759464
 20
66.68719
 30
0.0
 11
93.345251
 21
68.101404
 31
0.0
  0
LINE
  5
655
100
AcDbEntity
  8
DISEGNO
100
AcDbLine
 10
93.698804
 20
65.62653
 30
0.0
 11
94.759464
 21
66.68719
 31
0.0
  0
LINE
  5
656
100
AcDbEntity
  8
DISEGNO
100
AcDbLine
 10
92.284591
 20
67.040743
 30
0.0
 11
93.345251
 21
68.101404
 31
0.0
  0
LINE
  5
657
100
AcDbEntity
  8
ASSI
100
AcDbLine
 10
100.198804
 20
141.638559
 30
0.0
 11
100.198804
 21
74.55863
 31
0.0
  0
LINE
  5
658
100
AcDbEntity
  8
DISEGNO
100
AcDbLine
 10
93.698804
 20
65.62653
 30
0.0
 11
93.698804
 21
48.040743
 31
0.0
  0
LINE
  5
659
100
AcDbEntity
  8
DISEGNO
100
AcDbLine
 10
88.698804
 20
67.040743
 30
0.0
 11
92.284591
 21
67.040743
 31
0.0
  0
LINE
  5
65A
100
AcDbEntity
  8
DISEGNO
100
AcDbLine
 10
90.198804
 20
136.040743
 30
0.0
 11
90.198804
 21
82.040743
 31
0.0
1001
ACAD
1000
ASC_BOUNDS
1002
{
1070
    19
1005
0
1002
}
  0
LINE
  5
65B
100
AcDbEntity
  8
DISEGNO
100
AcDbLine
 10
112.698804
 20
68.040743
 30
0.0
 11
112.698804
 21
81.040743
 31
0.0
1001
ACAD
1000
ASC_BOUNDS
1002
{
1070
    19
1002
}
  0
LINE
  5
65C
100
AcDbEntity
  8
DISEGNO
100
AcDbLine
 10
108.113018
 20
67.040743
 30
0.0
 11
111.698804
 21
67.040743
 31
0.0
  0
LINE
  5
65D
100
AcDbEntity
  8
DISEGNO
100
AcDbLine
 10
106.698804
 20
48.040743
 30
0.0
 11
106.698804
 21
65.62653
 31
0.0
  0
LINE
  5
65E
100
AcDbEntity
  8
DISEGNO
100
AcDbLine
 10
94.698804
 20
47.040743
 30
0.0
 11
105.698804
 21
47.040743
 31
0.0
  0
LINE
  5
65F
100
AcDbEntity
  8
ASSI
100
AcDbLine
 10
100.198804
 20
165.803287
 30
0.0
 11
100.198804
 21
159.62319
 31
0.0
  0
ENDBLK
  5
661
100
AcDbEntity
  8
DISEGNO
100
AcDbBlockEnd
  0
BLOCK
  5
2331
100
AcDbEntity
  8
0
100
AcDbBlockBegin
  2
*D3
 70
    65
 10
0.0
 20
0.0
 30
0.0
  3
*D3
  1

  0
LINE
  5
2332
100
AcDbEntity
  8
0
  6
BYBLOCK
 62
     0
100
AcDbLine
 10
-1806.221673
 20
-1524.645768
 30
0.0
 11
-1806.221673
 21
-1543.249355
 31
0.0
  0
LINE
  5
2333
100
AcDbEntity
  8
0
  6
BYBLOCK
 62
     0
100
AcDbLine
 10
-1819.221673
 20
-1524.645768
 30
0.0
 11
-1819.221673
 21
-1543.249355
 31
0.0
  0
LINE
  5
2334
100
AcDbEntity
  8
0
  6
BYBLOCK
 62
     0
100
AcDbLine
 10
-1816.721673
 20
-1541.999355
 30
0.0
 11
-1808.721673
 21
-1541.999355
 31
0.0
  0
LINE
  5
2335
100
AcDbEntity
  8
0
  6
BYBLOCK
 62
     0
100
AcDbLine
 10
-1806.221673
 20
-1541.999355
 30
0.0
 11
-1774.813207
 21
-1541.999355
 31
0.0
  0
SOLID
  5
2336
100
AcDbEntity
  8
0
  6
BYBLOCK
 62
     0
100
AcDbTrace
 10
-1816.721673
 20
-1541.582689
 30
0.0
 11
-1816.721673
 21
-1542.416022
 31
0.0
 12
-1819.221673
 22
-1541.999355
 32
0.0
 13
-1819.221673
 23
-1541.999355
 33
0.0
  0
SOLID
  5
2337
100
AcDbEntity
  8
0
  6
BYBLOCK
 62
     0
100
AcDbTrace
 10
-1808.721673
 20
-1541.582689
 30
0.0
 11
-1808.721673
 21
-1542.416022
 31
0.0
 12
-1806.221673
 22
-1541.999355
 32
0.0
 13
-1806.221673
 23
-1541.999355
 33
0.0
  0
MTEXT
  5
2338
100
AcDbEntity
  8
0
  6
BYBLOCK
 62
     0
100
AcDbMText
 10
-1781.752207
 20
-1539.624355
 30
0.0
 40
3.5
 41
0.0
 71
     5
 72
     1
  1
\A2;13{\H2.800000;±0.01}
  0
POINT
  5
2339
100
AcDbEntity
  8
DEFPOINTS
  6
BYBLOCK
 62
     0
100
AcDbPoint
 10
-1806.221673
 20
-1524.020768
 30
0.0
  0
POINT
  5
233A
100
AcDbEntity
  8
DEFPOINTS
  6
BYBLOCK
 62
     0
100
AcDbPoint
 10
-1819.221673
 20
-1524.020768
 30
0.0
  0
POINT
  5
233B
100
AcDbEntity
  8
DEFPOINTS
  6
BYBLOCK
 62
     0
100
AcDbPoint
 10
-1819.221673
 20
-1541.999355
 30
0.0
  0
ENDBLK
  5
233C
100
AcDbEntity
  8
0
100
AcDbBlockEnd
  0
BLOCK
  5
1A24
100
AcDbEntity
  8
0
100
AcDbBlockBegin
  2
*D4
 70
    65
 10
0.0
 20
0.0
 30
0.0
  3
*D4
  1

  0
LINE
  5
1A25
100
AcDbEntity
  8
0
  6
BYBLOCK
 62
     0
100
AcDbLine
 10
-1798.096673
 20
-1505.020768
 30
0.0
 11
-1775.780386
 21
-1505.020768
 31
0.0
  0
LINE
  5
1A26
100
AcDbEntity
  8
0
  6
BYBLOCK
 62
     0
100
AcDbLine
 10
-1804.096673
 20
-1525.020768
 30
0.0
 11
-1775.780386
 21
-1525.020768
 31
0.0
  0
LINE
  5
1A27
100
AcDbEntity
  8
0
  6
BYBLOCK
 62
     0
100
AcDbLine
 10
-1777.030386
 20
-1507.520768
 30
0.0
 11
-1777.030386
 21
-1522.520768
 31
0.0
  0
SOLID
  5
1A28
100
AcDbEntity
  8
0
  6
BYBLOCK
 62
     0
100
AcDbTrace
 10
-1777.447053
 20
-1507.520768
 30
0.0
 11
-1776.61372
 21
-1507.520768
 31
0.0
 12
-1777.030386
 22
-1505.020768
 32
0.0
 13
-1777.030386
 23
-1505.020768
 33
0.0
  0
SOLID
  5
1A29
100
AcDbEntity
  8
0
  6
BYBLOCK
 62
     0
100
AcDbTrace
 10
-1777.447053
 20
-1522.520768
 30
0.0
 11
-1776.61372
 21
-1522.520768
 31
0.0
 12
-1777.030386
 22
-1525.020768
 32
0.0
 13
-1777.030386
 23
-1525.020768
 33
0.0
  0
MTEXT
  5
1A2A
100
AcDbEntity
  8
0
  6
BYBLOCK
 62
     0
100
AcDbMText
 10
-1779.405386
 20
-1515.020768
 30
0.0
 40
3.5
 41
0.0
 71
     5
 72
     1
  1
\A1;20
 11
0.0
 21
1.0
 31
0.0
  0
POINT
  5
1A2B
100
AcDbEntity
  8
DEFPOINTS
  6
BYBLOCK
 62
     0
100
AcDbPoint
 10
-1798.721673
 20
-1505.020768
 30
0.0
  0
POINT
  5
1A2C
100
AcDbEntity
  8
DEFPOINTS
  6
BYBLOCK
 62
     0
100
AcDbPoint
 10
-1804.721673
 20
-1525.020768
 30
0.0
  0
POINT
  5
1A2D
100
AcDbEntity
  8
DEFPOINTS
  6
BYBLOCK
 62
     0
100
AcDbPoint
 10
-1777.030386
 20
-1525.020768
 30
0.0
  0
ENDBLK
  5
1A2E
100
AcDbEntity
  8
0
100
AcDbBlockEnd
  0
BLOCK
  5
724
100
AcDbEntity
  8
0
100
AcDbBlockBegin
  2
*D5
 70
    65
 10
0.0
 20
0.0
 30
0.0
  3
*D5
  1

  0
LINE
  5
725
100
AcDbEntity
  8
0
  6
BYBLOCK
 62
     0
100
AcDbLine
 10
-1820.193945
 20
-1505.462709
 30
0.0
 11
-1819.425308
 21
-1506.231347
 31
0.0
  0
LINE
  5
726
100
AcDbEntity
  8
0
  6
BYBLOCK
 62
     0
100
AcDbLine
 10
-1819.133285
 20
-1504.402049
 30
0.0
 11
-1818.364648
 21
-1505.170687
 31
0.0
  0
LINE
  5
727
100
AcDbEntity
  8
0
  6
BYBLOCK
 62
     0
100
AcDbLine
 10
-1822.076958
 20
-1507.11523
 30
0.0
 11
-1823.844725
 21
-1508.882997
 31
0.0
  0
LINE
  5
728
100
AcDbEntity
  8
0
  6
BYBLOCK
 62
     0
100
AcDbLine
 10
-1817.480764
 20
-1502.519036
 30
0.0
 11
-1811.449516
 21
-1496.487789
 31
0.0
  0
SOLID
  5
729
100
AcDbEntity
  8
0
  6
BYBLOCK
 62
     0
100
AcDbTrace
 10
-1822.371586
 20
-1506.820602
 30
0.0
 11
-1821.78233
 21
-1507.409858
 31
0.0
 12
-1820.309191
 22
-1505.347463
 32
0.0
 13
-1820.309191
 23
-1505.347463
 33
0.0
  0
SOLID
  5
72A
100
AcDbEntity
  8
0
  6
BYBLOCK
 62
     0
100
AcDbTrace
 10
-1817.775392
 20
-1502.224408
 30
0.0
 11
-1817.186136
 21
-1502.813664
 31
0.0
 12
-1819.248531
 22
-1504.286803
 32
0.0
 13
-1819.248531
 23
-1504.286803
 33
0.0
  0
MTEXT
  5
72B
100
AcDbEntity
  8
0
  6
BYBLOCK
 62
     0
100
AcDbMText
 10
-1815.260635
 20
-1496.94015
 30
0.0
 40
3.5
 41
0.0
 71
     5
 72
     1
  1
\A1;1.5
 11
0.707107
 21
0.707107
 31
0.0
  0
POINT
  5
72C
100
AcDbEntity
  8
DEFPOINTS
  6
BYBLOCK
 62
     0
100
AcDbPoint
 10
-1820.635887
 20
-1505.020768
 30
0.0
  0
POINT
  5
72D
100
AcDbEntity
  8
DEFPOINTS
  6
BYBLOCK
 62
     0
100
AcDbPoint
 10
-1819.575227
 20
-1503.960107
 30
0.0
  0
POINT
  5
72E
100
AcDbEntity
  8
DEFPOINTS
  6
BYBLOCK
 62
     0
100
AcDbPoint
 10
-1819.248531
 20
-1504.286803
 30
0.0
  0
ENDBLK
  5
72F
100
AcDbEntity
  8
0
100
AcDbBlockEnd
  0
BLOCK
  5
732
100
AcDbEntity
  8
0
100
AcDbBlockBegin
  2
*D6
 70
    65
 10
0.0
 20
0.0
 30
0.0
  3
*D6
  1

  0
LINE
  5
733
100
AcDbEntity
  8
0
  6
BYBLOCK
 62
     0
100
AcDbLine
 10
-1807.724275
 20
-1504.932379
 30
0.0
 11
-1809.499717
 21
-1503.156938
 31
0.0
  0
LINE
  5
734
100
AcDbEntity
  8
0
  6
BYBLOCK
 62
     0
100
AcDbLine
 10
-1806.310062
 20
-1503.518166
 30
0.0
 11
-1808.085503
 21
-1501.742724
 31
0.0
  0
LINE
  5
735
100
AcDbEntity
  8
0
  6
BYBLOCK
 62
     0
100
AcDbLine
 10
-1810.3836
 20
-1505.808588
 30
0.0
 11
-1812.151367
 21
-1507.576355
 31
0.0
  0
LINE
  5
736
100
AcDbEntity
  8
0
  6
BYBLOCK
 62
     0
100
AcDbLine
 10
-1805.433853
 20
-1500.858841
 30
0.0
 11
-1801.460625
 21
-1496.885613
 31
0.0
  0
SOLID
  5
737
100
AcDbEntity
  8
0
  6
BYBLOCK
 62
     0
100
AcDbTrace
 10
-1810.678228
 20
-1505.51396
 30
0.0
 11
-1810.088972
 21
-1506.103216
 31
0.0
 12
-1808.615833
 22
-1504.040821
 32
0.0
 13
-1808.615833
 23
-1504.040821
 33
0.0
  0
SOLID
  5
738
100
AcDbEntity
  8
0
  6
BYBLOCK
 62
     0
100
AcDbTrace
 10
-1805.728481
 20
-1500.564213
 30
0.0
 11
-1805.139225
 21
-1501.153468
 31
0.0
 12
-1807.20162
 22
-1502.626608
 32
0.0
 13
-1807.20162
 23
-1502.626608
 33
0.0
  0
MTEXT
  5
739
100
AcDbEntity
  8
0
  6
BYBLOCK
 62
     0
100
AcDbMText
 10
-1804.242977
 20
-1496.308721
 30
0.0
 40
3.5
 41
0.0
 71
     5
 72
     1
  1
\A1;2
 11
0.707107
 21
0.707107
 31
0.0
  0
POINT
  5
73A
100
AcDbEntity
  8
DEFPOINTS
  6
BYBLOCK
 62
     0
100
AcDbPoint
 10
-1807.282333
 20
-1505.374321
 30
0.0
  0
POINT
  5
73B
100
AcDbEntity
  8
DEFPOINTS
  6
BYBLOCK
 62
     0
100
AcDbPoint
 10
-1805.86812
 20
-1503.960107
 30
0.0
  0
POINT
  5
73C
100
AcDbEntity
  8
DEFPOINTS
  6
BYBLOCK
 62
     0
100
AcDbPoint
 10
-1807.20162
 20
-1502.626608
 30
0.0
  0
ENDBLK
  5
73D
100
AcDbEntity
  8
0
100
AcDbBlockEnd
  0
BLOCK
  5
7FC
100
AcDbEntity
  8
0
100
AcDbBlockBegin
  2
*D7
 70
    65
 10
0.0
 20
0.0
 30
0.0
  3
*D7
  1

  0
LINE
  5
7FD
100
AcDbEntity
  8
0
  6
BYBLOCK
 62
     0
100
AcDbLine
 10
-1862.862577
 20
-1572.426394
 30
0.0
 11
-1862.862577
 21
-1584.164194
 31
0.0
  0
LINE
  5
7FE
100
AcDbEntity
  8
0
  6
BYBLOCK
 62
     0
100
AcDbLine
 10
-1912.862577
 20
-1572.426394
 30
0.0
 11
-1912.862577
 21
-1584.164194
 31
0.0
  0
LINE
  5
7FF
100
AcDbEntity
  8
0
  6
BYBLOCK
 62
     0
100
AcDbLine
 10
-1865.362577
 20
-1582.914194
 30
0.0
 11
-1910.362577
 21
-1582.914194
 31
0.0
  0
SOLID
  5
800
100
AcDbEntity
  8
0
  6
BYBLOCK
 62
     0
100
AcDbTrace
 10
-1865.362577
 20
-1582.497527
 30
0.0
 11
-1865.362577
 21
-1583.330861
 31
0.0
 12
-1862.862577
 22
-1582.914194
 32
0.0
 13
-1862.862577
 23
-1582.914194
 33
0.0
  0
SOLID
  5
801
100
AcDbEntity
  8
0
  6
BYBLOCK
 62
     0
100
AcDbTrace
 10
-1910.362577
 20
-1582.497527
 30
0.0
 11
-1910.362577
 21
-1583.330861
 31
0.0
 12
-1912.862577
 22
-1582.914194
 32
0.0
 13
-1912.862577
 23
-1582.914194
 33
0.0
  0
MTEXT
  5
802
100
AcDbEntity
  8
0
  6
BYBLOCK
 62
     0
100
AcDbMText
 10
-1887.862577
 20
-1580.539194
 30
0.0
 40
3.5
 41
0.0
 71
     5
 72
     1
  1
\A1;{1000 +/- 0,1}
  0
POINT
  5
803
100
AcDbEntity
  8
DEFPOINTS
  6
BYBLOCK
 62
     0
100
AcDbPoint
 10
-1862.862577
 20
-1571.801394
 30
0.0
  0
POINT
  5
804
100
AcDbEntity
  8
DEFPOINTS
  6
BYBLOCK
 62
     0
100
AcDbPoint
 10
-1912.862577
 20
-1571.801394
 30
0.0
  0
POINT
  5
805
100
AcDbEntity
  8
DEFPOINTS
  6
BYBLOCK
 62
     0
100
AcDbPoint
 10
-1912.862577
 20
-1582.914194
 30
0.0
  0
ENDBLK
  5
806
100
AcDbEntity
  8
0
100
AcDbBlockEnd
  0
BLOCK
  5
830
100
AcDbEntity
  8
0
100
AcDbBlockBegin
  2
*D8
 70
    65
 10
0.0
 20
0.0
 30
0.0
  3
*D8
  1

  0
LINE
  5
831
100
AcDbEntity
  8
0
  6
BYBLOCK
 62
     0
100
AcDbLine
 10
-1862.237577
 20
-1571.801394
 30
0.0
 11
-1855.846704
 21
-1571.801394
 31
0.0
  0
ARC
  5
832
100
AcDbEntity
  8
0
  6
BYBLOCK
 62
     0
100
AcDbCircle
 10
-1862.862577
 20
-1571.801394
 30
0.0
 40
5.765874
100
AcDbArc
 50
25.041459
 51
64.958541
  0
SOLID
  5
833
100
AcDbEntity
  8
0
  6
BYBLOCK
 62
     0
100
AcDbTrace
 10
-1857.231928
 20
-1569.270519
 30
0.0
 11
-1858.045443
 21
-1569.45118
 31
0.0
 12
-1857.096704
 22
-1571.801394
 32
0.0
 13
-1857.096704
 23
-1571.801394
 33
0.0
  0
SOLID
  5
834
100
AcDbEntity
  8
0
  6
BYBLOCK
 62
     0
100
AcDbTrace
 10
-1860.512363
 20
-1566.984259
 30
0.0
 11
-1860.331703
 21
-1566.170745
 31
0.0
 12
-1862.862577
 22
-1566.03552
 32
0.0
 13
-1862.862577
 23
-1566.03552
 33
0.0
  0
MTEXT
  5
835
100
AcDbEntity
  8
0
  6
BYBLOCK
 62
     0
100
AcDbMText
 10
-1855.78581
 20
-1565.331761
 30
0.0
 40
3.5
 41
0.0
 71
     5
 72
     1
  1
\A2;90°{\H2.800000;\S-0°2'^  0°0';}
 11
0.674738
 21
-0.738058
 31
0.0
  0
POINT
  5
836
100
AcDbEntity
  8
DEFPOINTS
  6
BYBLOCK
 62
     0
100
AcDbPoint
 10
-1859.97964
 20
-1566.808001
 30
0.0
  0
POINT
  5
837
100
AcDbEntity
  8
DEFPOINTS
  6
BYBLOCK
 62
     0
100
AcDbPoint
 10
-1912.862577
 20
-1571.801394
 30
0.0
  0
POINT
  5
838
100
AcDbEntity
  8
DEFPOINTS
  6
BYBLOCK
 62
     0
100
AcDbPoint
 10
-1862.862577
 20
-1571.801394
 30
0.0
  0
POINT
  5
839
100
AcDbEntity
  8
DEFPOINTS
  6
BYBLOCK
 62
     0
100
AcDbPoint
 10
-1862.862577
 20
-1547.801394
 30
0.0
  0
POINT
  5
83A
100
AcDbEntity
  8
DEFPOINTS
  6
BYBLOCK
 62
     0
100
AcDbPoint
 10
-1862.862577
 20
-1571.801394
 30
0.0
  0
ENDBLK
  5
83B
100
AcDbEntity
  8
0
100
AcDbBlockEnd
  0
BLOCK
  5
855
100
AcDbEntity
  8
0
100
AcDbBlockBegin
  2
*D9
 70
    65
 10
0.0
 20
0.0
 30
0.0
  3
*D9
  1

  0
LINE
  5
856
100
AcDbEntity
  8
0
  6
BYBLOCK
 62
     0
100
AcDbLine
 10
-1913.487577
 20
-1571.801394
 30
0.0
 11
-1919.170275
 21
-1571.801394
 31
0.0
  0
ARC
  5
857
100
AcDbEntity
  8
0
  6
BYBLOCK
 62
     0
100
AcDbCircle
 10
-1912.862577
 20
-1571.801394
 30
0.0
 40
5.057697
100
AcDbArc
 50
118.617624
 51
151.382376
  0
SOLID
  5
858
100
AcDbEntity
  8
0
  6
BYBLOCK
 62
     0
100
AcDbTrace
 10
-1915.388
 20
-1566.957825
 30
0.0
 11
-1915.182043
 21
-1567.765307
 31
0.0
 12
-1912.862577
 22
-1566.743696
 32
0.0
 13
-1912.862577
 23
-1566.743696
 33
0.0
  0
SOLID
  5
859
100
AcDbEntity
  8
0
  6
BYBLOCK
 62
     0
100
AcDbTrace
 10
-1916.898664
 20
-1569.481928
 30
0.0
 11
-1917.706145
 21
-1569.275971
 31
0.0
 12
-1917.920275
 22
-1571.801394
 32
0.0
 13
-1917.920275
 23
-1571.801394
 33
0.0
  0
MTEXT
  5
85A
100
AcDbEntity
  8
0
  6
BYBLOCK
 62
     0
100
AcDbMText
 10
-1920.044252
 20
-1566.57824
 30
0.0
 40
3.5
 41
0.0
 71
     5
 72
     1
  1
\A2;90°{\H2.800000;\S-0°2'^  0°0';}
 11
0.58818
 21
0.80873
 31
0.0
  0
POINT
  5
85B
100
AcDbEntity
  8
DEFPOINTS
  6
BYBLOCK
 62
     0
100
AcDbPoint
 10
-1915.391426
 20
-1567.421299
 30
0.0
  0
POINT
  5
85C
100
AcDbEntity
  8
DEFPOINTS
  6
BYBLOCK
 62
     0
100
AcDbPoint
 10
-1912.862577
 20
-1571.801394
 30
0.0
  0
POINT
  5
85D
100
AcDbEntity
  8
DEFPOINTS
  6
BYBLOCK
 62
     0
100
AcDbPoint
 10
-1912.862577
 20
-1571.801394
 30
0.0
  0
POINT
  5
85E
100
AcDbEntity
  8
DEFPOINTS
  6
BYBLOCK
 62
     0
100
AcDbPoint
 10
-1912.862577
 20
-1547.801394
 30
0.0
  0
POINT
  5
85F
100
AcDbEntity
  8
DEFPOINTS
  6
BYBLOCK
 62
     0
100
AcDbPoint
 10
-1862.862577
 20
-1571.801394
 30
0.0
  0
ENDBLK
  5
860
100
AcDbEntity
  8
0
100
AcDbBlockEnd
  0
BLOCK
  5
886
100
AcDbEntity
  8
0
100
AcDbBlockBegin
  2
*D10
 70
    65
 10
0.0
 20
0.0
 30
0.0
  3
*D10
  1

  0
LINE
  5
887
100
AcDbEntity
  8
0
  6
BYBLOCK
 62
     0
100
AcDbLine
 10
-1904.862577
 20
-1551.176394
 30
0.0
 11
-1904.862577
 21
-1537.971706
 31
0.0
  0
LINE
  5
888
100
AcDbEntity
  8
0
  6
BYBLOCK
 62
     0
100
AcDbLine
 10
-1912.862577
 20
-1547.176394
 30
0.0
 11
-1912.862577
 21
-1537.971706
 31
0.0
  0
LINE
  5
889
100
AcDbEntity
  8
0
  6
BYBLOCK
 62
     0
100
AcDbLine
 10
-1902.362577
 20
-1539.221706
 30
0.0
 11
-1899.862577
 21
-1539.221706
 31
0.0
  0
LINE
  5
88A
100
AcDbEntity
  8
0
  6
BYBLOCK
 62
     0
100
AcDbLine
 10
-1915.362577
 20
-1539.221706
 30
0.0
 11
-1917.862577
 21
-1539.221706
 31
0.0
  0
SOLID
  5
88B
100
AcDbEntity
  8
0
  6
BYBLOCK
 62
     0
100
AcDbTrace
 10
-1902.362577
 20
-1538.805039
 30
0.0
 11
-1902.362577
 21
-1539.638373
 31
0.0
 12
-1904.862577
 22
-1539.221706
 32
0.0
 13
-1904.862577
 23
-1539.221706
 33
0.0
  0
SOLID
  5
88C
100
AcDbEntity
  8
0
  6
BYBLOCK
 62
     0
100
AcDbTrace
 10
-1915.362577
 20
-1538.805039
 30
0.0
 11
-1915.362577
 21
-1539.638373
 31
0.0
 12
-1912.862577
 22
-1539.221706
 32
0.0
 13
-1912.862577
 23
-1539.221706
 33
0.0
  0
MTEXT
  5
88D
100
AcDbEntity
  8
0
  6
BYBLOCK
 62
     0
100
AcDbMText
 10
-1908.862577
 20
-1536.846706
 30
0.0
 40
3.5
 41
0.0
 71
     5
 72
     1
  1
\A1;{50}
  0
POINT
  5
88E
100
AcDbEntity
  8
DEFPOINTS
  6
BYBLOCK
 62
     0
100
AcDbPoint
 10
-1904.862577
 20
-1551.801394
 30
0.0
  0
POINT
  5
88F
100
AcDbEntity
  8
DEFPOINTS
  6
BYBLOCK
 62
     0
100
AcDbPoint
 10
-1912.862577
 20
-1547.801394
 30
0.0
  0
POINT
  5
890
100
AcDbEntity
  8
DEFPOINTS
  6
BYBLOCK
 62
     0
100
AcDbPoint
 10
-1912.862577
 20
-1539.221706
 30
0.0
  0
ENDBLK
  5
891
100
AcDbEntity
  8
0
100
AcDbBlockEnd
  0
BLOCK
  5
8B8
100
AcDbEntity
  8
0
100
AcDbBlockBegin
  2
*D11
 70
    65
 10
0.0
 20
0.0
 30
0.0
  3
*D11
  1

  0
LINE
  5
8B9
100
AcDbEntity
  8
0
  6
BYBLOCK
 62
     0
100
AcDbLine
 10
-1896.237577
 20
-1551.801394
 30
0.0
 11
-1883.016989
 21
-1551.801394
 31
0.0
  0
LINE
  5
8BA
100
AcDbEntity
  8
0
  6
BYBLOCK
 62
     0
100
AcDbLine
 10
-1884.281038
 20
-1547.801394
 30
0.0
 11
-1885.516989
 21
-1547.801394
 31
0.0
  0
LINE
  5
8BB
100
AcDbEntity
  8
0
  6
BYBLOCK
 62
     0
100
AcDbLine
 10
-1884.266989
 20
-1554.301394
 30
0.0
 11
-1884.266989
 21
-1556.801394
 31
0.0
  0
LINE
  5
8BC
100
AcDbEntity
  8
0
  6
BYBLOCK
 62
     0
100
AcDbLine
 10
-1884.266989
 20
-1545.301394
 30
0.0
 11
-1884.266989
 21
-1537.310331
 31
0.0
  0
SOLID
  5
8BD
100
AcDbEntity
  8
0
  6
BYBLOCK
 62
     0
100
AcDbTrace
 10
-1884.683656
 20
-1554.301394
 30
0.0
 11
-1883.850323
 21
-1554.301394
 31
0.0
 12
-1884.266989
 22
-1551.801394
 32
0.0
 13
-1884.266989
 23
-1551.801394
 33
0.0
  0
SOLID
  5
8BE
100
AcDbEntity
  8
0
  6
BYBLOCK
 62
     0
100
AcDbTrace
 10
-1884.683656
 20
-1545.301394
 30
0.0
 11
-1883.850323
 21
-1545.301394
 31
0.0
 12
-1884.266989
 22
-1547.801394
 32
0.0
 13
-1884.266989
 23
-1547.801394
 33
0.0
  0
MTEXT
  5
8BF
100
AcDbEntity
  8
0
  6
BYBLOCK
 62
     0
100
AcDbMText
 10
-1886.641989
 20
-1540.055862
 30
0.0
 40
3.5
 41
0.0
 71
     5
 72
     1
  1
\A1;{20}
 11
0.0
 21
1.0
 31
0.0
  0
POINT
  5
8C0
100
AcDbEntity
  8
DEFPOINTS
  6
BYBLOCK
 62
     0
100
AcDbPoint
 10
-1896.862577
 20
-1551.801394
 30
0.0
  0
POINT
  5
8C1
100
AcDbEntity
  8
DEFPOINTS
  6
BYBLOCK
 62
     0
100
AcDbPoint
 10
-1883.656038
 20
-1547.801394
 30
0.0
  0
POINT
  5
8C2
100
AcDbEntity
  8
DEFPOINTS
  6
BYBLOCK
 62
     0
100
AcDbPoint
 10
-1884.266989
 20
-1547.801394
 30
0.0
  0
ENDBLK
  5
8C3
100
AcDbEntity
  8
0
100
AcDbBlockEnd
  0
BLOCK
  5
927
100
AcDbEntity
  8
0
100
AcDbBlockBegin
  2
*D12
 70
    65
 10
0.0
 20
0.0
 30
0.0
  3
*D12
  1

  0
LINE
  5
928
100
AcDbEntity
  8
0
  6
BYBLOCK
 62
     0
100
AcDbLine
 10
-1838.643103
 20
-1497.020768
 30
0.0
 11
-1847.959048
 21
-1497.020768
 31
0.0
  0
LINE
  5
929
100
AcDbEntity
  8
0
  6
BYBLOCK
 62
     0
100
AcDbLine
 10
-1824.846673
 20
-1505.020768
 30
0.0
 11
-1847.959048
 21
-1505.020768
 31
0.0
  0
LINE
  5
92A
100
AcDbEntity
  8
0
  6
BYBLOCK
 62
     0
100
AcDbLine
 10
-1846.709048
 20
-1499.520768
 30
0.0
 11
-1846.709048
 21
-1502.520768
 31
0.0
  0
SOLID
  5
92B
100
AcDbEntity
  8
0
  6
BYBLOCK
 62
     0
100
AcDbTrace
 10
-1847.125715
 20
-1499.520768
 30
0.0
 11
-1846.292381
 21
-1499.520768
 31
0.0
 12
-1846.709048
 22
-1497.020768
 32
0.0
 13
-1846.709048
 23
-1497.020768
 33
0.0
  0
SOLID
  5
92C
100
AcDbEntity
  8
0
  6
BYBLOCK
 62
     0
100
AcDbTrace
 10
-1847.125715
 20
-1502.520768
 30
0.0
 11
-1846.292381
 21
-1502.520768
 31
0.0
 12
-1846.709048
 22
-1505.020768
 32
0.0
 13
-1846.709048
 23
-1505.020768
 33
0.0
  0
MTEXT
  5
92D
100
AcDbEntity
  8
0
  6
BYBLOCK
 62
     0
100
AcDbMText
 10
-1849.084048
 20
-1501.020768
 30
0.0
 40
3.5
 41
0.0
 71
     5
 72
     1
  1
\A1;8
 11
0.0
 21
1.0
 31
0.0
  0
POINT
  5
92E
100
AcDbEntity
  8
DEFPOINTS
  6
BYBLOCK
 62
     0
100
AcDbPoint
 10
-1838.018103
 20
-1497.020768
 30
0.0
  0
POINT
  5
92F
100
AcDbEntity
  8
DEFPOINTS
  6
BYBLOCK
 62
     0
100
AcDbPoint
 10
-1824.221673
 20
-1505.020768
 30
0.0
  0
POINT
  5
930
100
AcDbEntity
  8
DEFPOINTS
  6
BYBLOCK
 62
     0
100
AcDbPoint
 10
-1846.709048
 20
-1505.020768
 30
0.0
  0
ENDBLK
  5
931
100
AcDbEntity
  8
0
100
AcDbBlockEnd
  0
BLOCK
  5
934
100
AcDbEntity
  8
0
100
AcDbBlockBegin
  2
*D13
 70
    65
 10
0.0
 20
0.0
 30
0.0
  3
*D13
  1

  0
LINE
  5
935
100
AcDbEntity
  8
0
  6
BYBLOCK
 62
     0
100
AcDbLine
 10
-1825.846673
 20
-1495.520768
 30
0.0
 11
-1834.059904
 21
-1495.520768
 31
0.0
  0
LINE
  5
936
100
AcDbEntity
  8
0
  6
BYBLOCK
 62
     0
100
AcDbLine
 10
-1825.846673
 20
-1498.520768
 30
0.0
 11
-1834.059904
 21
-1498.520768
 31
0.0
  0
LINE
  5
937
100
AcDbEntity
  8
0
  6
BYBLOCK
 62
     0
100
AcDbLine
 10
-1832.809904
 20
-1493.020768
 30
0.0
 11
-1832.809904
 21
-1490.520768
 31
0.0
  0
LINE
  5
938
100
AcDbEntity
  8
0
  6
BYBLOCK
 62
     0
100
AcDbLine
 10
-1832.809904
 20
-1501.020768
 30
0.0
 11
-1832.809904
 21
-1503.520768
 31
0.0
  0
SOLID
  5
939
100
AcDbEntity
  8
0
  6
BYBLOCK
 62
     0
100
AcDbTrace
 10
-1833.22657
 20
-1493.020768
 30
0.0
 11
-1832.393237
 21
-1493.020768
 31
0.0
 12
-1832.809904
 22
-1495.520768
 32
0.0
 13
-1832.809904
 23
-1495.520768
 33
0.0
  0
SOLID
  5
93A
100
AcDbEntity
  8
0
  6
BYBLOCK
 62
     0
100
AcDbTrace
 10
-1833.22657
 20
-1501.020768
 30
0.0
 11
-1832.393237
 21
-1501.020768
 31
0.0
 12
-1832.809904
 22
-1498.520768
 32
0.0
 13
-1832.809904
 23
-1498.520768
 33
0.0
  0
MTEXT
  5
93B
100
AcDbEntity
  8
0
  6
BYBLOCK
 62
     0
100
AcDbMText
 10
-1835.184904
 20
-1497.020768
 30
0.0
 40
3.5
 41
0.0
 71
     5
 72
     1
  1
\A1;3
 11
0.0
 21
1.0
 31
0.0
  0
POINT
  5
93C
100
AcDbEntity
  8
DEFPOINTS
  6
BYBLOCK
 62
     0
100
AcDbPoint
 10
-1825.221673
 20
-1495.520768
 30
0.0
  0
POINT
  5
93D
100
AcDbEntity
  8
DEFPOINTS
  6
BYBLOCK
 62
     0
100
AcDbPoint
 10
-1825.221673
 20
-1498.520768
 30
0.0
  0
POINT
  5
93E
100
AcDbEntity
  8
DEFPOINTS
  6
BYBLOCK
 62
     0
100
AcDbPoint
 10
-1832.809904
 20
-1498.520768
 30
0.0
  0
ENDBLK
  5
93F
100
AcDbEntity
  8
0
100
AcDbBlockEnd
  0
BLOCK
  5
AE1
100
AcDbEntity
  8
0
100
AcDbBlockBegin
  2
*D14
 70
    65
 10
0.0
 20
0.0
 30
0.0
  3
*D14
  1

  0
LINE
  5
AE2
100
AcDbEntity
  8
0
  6
BYBLOCK
 62
     0
100
AcDbLine
 10
-1862.862577
 20
-1572.426394
 30
0.0
 11
-1862.862577
 21
-1584.164194
 31
0.0
  0
LINE
  5
AE3
100
AcDbEntity
  8
0
  6
BYBLOCK
 62
     0
100
AcDbLine
 10
-1912.862577
 20
-1572.426394
 30
0.0
 11
-1912.862577
 21
-1584.164194
 31
0.0
  0
LINE
  5
AE4
100
AcDbEntity
  8
0
  6
BYBLOCK
 62
     0
100
AcDbLine
 10
-1865.362577
 20
-1582.914194
 30
0.0
 11
-1910.362577
 21
-1582.914194
 31
0.0
  0
SOLID
  5
AE5
100
AcDbEntity
  8
0
  6
BYBLOCK
 62
     0
100
AcDbTrace
 10
-1865.362577
 20
-1582.497527
 30
0.0
 11
-1865.362577
 21
-1583.330861
 31
0.0
 12
-1862.862577
 22
-1582.914194
 32
0.0
 13
-1862.862577
 23
-1582.914194
 33
0.0
  0
SOLID
  5
AE6
100
AcDbEntity
  8
0
  6
BYBLOCK
 62
     0
100
AcDbTrace
 10
-1910.362577
 20
-1582.497527
 30
0.0
 11
-1910.362577
 21
-1583.330861
 31
0.0
 12
-1912.862577
 22
-1582.914194
 32
0.0
 13
-1912.862577
 23
-1582.914194
 33
0.0
  0
MTEXT
  5
AE7
100
AcDbEntity
  8
0
  6
BYBLOCK
 62
     0
100
AcDbMText
 10
-1887.862577
 20
-1580.539194
 30
0.0
 40
3.5
 41
0.0
 71
     5
 72
     1
  1
\A1;{1000 +/- 0,1}
  0
POINT
  5
AE8
100
AcDbEntity
  8
DEFPOINTS
  6
BYBLOCK
 62
     0
100
AcDbPoint
 10
-1862.862577
 20
-1571.801394
 30
0.0
  0
POINT
  5
AE9
100
AcDbEntity
  8
DEFPOINTS
  6
BYBLOCK
 62
     0
100
AcDbPoint
 10
-1912.862577
 20
-1571.801394
 30
0.0
  0
POINT
  5
AEA
100
AcDbEntity
  8
DEFPOINTS
  6
BYBLOCK
 62
     0
100
AcDbPoint
 10
-1912.862577
 20
-1582.914194
 30
0.0
  0
ENDBLK
  5
AEB
100
AcDbEntity
  8
0
100
AcDbBlockEnd
  0
BLOCK
  5
AED
100
AcDbEntity
  8
0
100
AcDbBlockBegin
  2
*D15
 70
    65
 10
0.0
 20
0.0
 30
0.0
  3
*D15
  1

  0
LINE
  5
AEE
100
AcDbEntity
  8
0
  6
BYBLOCK
 62
     0
100
AcDbLine
 10
-1862.237577
 20
-1571.801394
 30
0.0
 11
-1855.846704
 21
-1571.801394
 31
0.0
  0
ARC
  5
AEF
100
AcDbEntity
  8
0
  6
BYBLOCK
 62
     0
100
AcDbCircle
 10
-1862.862577
 20
-1571.801394
 30
0.0
 40
5.765874
100
AcDbArc
 50
25.041459
 51
64.958541
  0
SOLID
  5
AF0
100
AcDbEntity
  8
0
  6
BYBLOCK
 62
     0
100
AcDbTrace
 10
-1857.231928
 20
-1569.270519
 30
0.0
 11
-1858.045443
 21
-1569.45118
 31
0.0
 12
-1857.096704
 22
-1571.801394
 32
0.0
 13
-1857.096704
 23
-1571.801394
 33
0.0
  0
SOLID
  5
AF1
100
AcDbEntity
  8
0
  6
BYBLOCK
 62
     0
100
AcDbTrace
 10
-1860.512363
 20
-1566.984259
 30
0.0
 11
-1860.331703
 21
-1566.170745
 31
0.0
 12
-1862.862577
 22
-1566.03552
 32
0.0
 13
-1862.862577
 23
-1566.03552
 33
0.0
  0
MTEXT
  5
AF2
100
AcDbEntity
  8
0
  6
BYBLOCK
 62
     0
100
AcDbMText
 10
-1855.78581
 20
-1565.331761
 30
0.0
 40
3.5
 41
0.0
 71
     5
 72
     1
  1
\A2;90°{\H2.800000;\S-0°2'^  0°0';}
 11
0.674738
 21
-0.738058
 31
0.0
  0
POINT
  5
AF3
100
AcDbEntity
  8
DEFPOINTS
  6
BYBLOCK
 62
     0
100
AcDbPoint
 10
-1859.97964
 20
-1566.808001
 30
0.0
  0
POINT
  5
AF4
100
AcDbEntity
  8
DEFPOINTS
  6
BYBLOCK
 62
     0
100
AcDbPoint
 10
-1912.862577
 20
-1571.801394
 30
0.0
  0
POINT
  5
AF5
100
AcDbEntity
  8
DEFPOINTS
  6
BYBLOCK
 62
     0
100
AcDbPoint
 10
-1862.862577
 20
-1571.801394
 30
0.0
  0
POINT
  5
AF6
100
AcDbEntity
  8
DEFPOINTS
  6
BYBLOCK
 62
     0
100
AcDbPoint
 10
-1862.862577
 20
-1547.801394
 30
0.0
  0
POINT
  5
AF7
100
AcDbEntity
  8
DEFPOINTS
  6
BYBLOCK
 62
     0
100
AcDbPoint
 10
-1862.862577
 20
-1571.801394
 30
0.0
  0
ENDBLK
  5
AF8
100
AcDbEntity
  8
0
100
AcDbBlockEnd
  0
BLOCK
  5
AFA
100
AcDbEntity
  8
0
100
AcDbBlockBegin
  2
*D16
 70
    65
 10
0.0
 20
0.0
 30
0.0
  3
*D16
  1

  0
LINE
  5
AFB
100
AcDbEntity
  8
0
  6
BYBLOCK
 62
     0
100
AcDbLine
 10
-1913.487577
 20
-1571.801394
 30
0.0
 11
-1919.170275
 21
-1571.801394
 31
0.0
  0
ARC
  5
AFC
100
AcDbEntity
  8
0
  6
BYBLOCK
 62
     0
100
AcDbCircle
 10
-1912.862577
 20
-1571.801394
 30
0.0
 40
5.057697
100
AcDbArc
 50
118.617624
 51
151.382376
  0
SOLID
  5
AFD
100
AcDbEntity
  8
0
  6
BYBLOCK
 62
     0
100
AcDbTrace
 10
-1915.388
 20
-1566.957825
 30
0.0
 11
-1915.182043
 21
-1567.765307
 31
0.0
 12
-1912.862577
 22
-1566.743696
 32
0.0
 13
-1912.862577
 23
-1566.743696
 33
0.0
  0
SOLID
  5
AFE
100
AcDbEntity
  8
0
  6
BYBLOCK
 62
     0
100
AcDbTrace
 10
-1916.898664
 20
-1569.481928
 30
0.0
 11
-1917.706145
 21
-1569.275971
 31
0.0
 12
-1917.920275
 22
-1571.801394
 32
0.0
 13
-1917.920275
 23
-1571.801394
 33
0.0
  0
MTEXT
  5
AFF
100
AcDbEntity
  8
0
  6
BYBLOCK
 62
     0
100
AcDbMText
 10
-1920.044252
 20
-1566.57824
 30
0.0
 40
3.5
 41
0.0
 71
     5
 72
     1
  1
\A2;90°{\H2.800000;\S-0°2'^  0°0';}
 11
0.58818
 21
0.80873
 31
0.0
  0
POINT
  5
B00
100
AcDbEntity
  8
DEFPOINTS
  6
BYBLOCK
 62
     0
100
AcDbPoint
 10
-1915.391426
 20
-1567.421299
 30
0.0
  0
POINT
  5
B01
100
AcDbEntity
  8
DEFPOINTS
  6
BYBLOCK
 62
     0
100
AcDbPoint
 10
-1912.862577
 20
-1571.801394
 30
0.0
  0
POINT
  5
B02
100
AcDbEntity
  8
DEFPOINTS
  6
BYBLOCK
 62
     0
100
AcDbPoint
 10
-1912.862577
 20
-1571.801394
 30
0.0
  0
POINT
  5
B03
100
AcDbEntity
  8
DEFPOINTS
  6
BYBLOCK
 62
     0
100
AcDbPoint
 10
-1912.862577
 20
-1547.801394
 30
0.0
  0
POINT
  5
B04
100
AcDbEntity
  8
DEFPOINTS
  6
BYBLOCK
 62
     0
100
AcDbPoint
 10
-1862.862577
 20
-1571.801394
 30
0.0
  0
ENDBLK
  5
B05
100
AcDbEntity
  8
0
100
AcDbBlockEnd
  0
BLOCK
  5
25F5
100
AcDbEntity
  8
0
100
AcDbBlockBegin
  2
*D17
 70
    65
 10
0.0
 20
0.0
 30
0.0
  3
*D17
  1

  0
LINE
  5
25F6
100
AcDbEntity
  8
0
  6
BYBLOCK
 62
     0
100
AcDbLine
 10
-1555.125628
 20
-1505.320768
 30
0.0
 11
-1533.471044
 21
-1505.320768
 31
0.0
  0
LINE
  5
25F7
100
AcDbEntity
  8
0
  6
BYBLOCK
 62
     0
100
AcDbLine
 10
-1568.325628
 20
-1525.020768
 30
0.0
 11
-1533.471044
 21
-1525.020768
 31
0.0
  0
LINE
  5
25F8
100
AcDbEntity
  8
0
  6
BYBLOCK
 62
     0
100
AcDbLine
 10
-1534.721044
 20
-1507.820768
 30
0.0
 11
-1534.721044
 21
-1522.520768
 31
0.0
  0
SOLID
  5
25F9
100
AcDbEntity
  8
0
  6
BYBLOCK
 62
     0
100
AcDbTrace
 10
-1535.137711
 20
-1507.820768
 30
0.0
 11
-1534.304378
 21
-1507.820768
 31
0.0
 12
-1534.721044
 22
-1505.320768
 32
0.0
 13
-1534.721044
 23
-1505.320768
 33
0.0
  0
SOLID
  5
25FA
100
AcDbEntity
  8
0
  6
BYBLOCK
 62
     0
100
AcDbTrace
 10
-1535.137711
 20
-1522.520768
 30
0.0
 11
-1534.304378
 21
-1522.520768
 31
0.0
 12
-1534.721044
 22
-1525.020768
 32
0.0
 13
-1534.721044
 23
-1525.020768
 33
0.0
  0
MTEXT
  5
25FB
100
AcDbEntity
  8
0
  6
BYBLOCK
 62
     0
100
AcDbMText
 10
-1537.096044
 20
-1515.170768
 30
0.0
 40
3.5
 41
0.0
 71
     5
 72
     1
  1
\A1;19.7
 11
0.0
 21
1.0
 31
0.0
  0
POINT
  5
25FC
100
AcDbEntity
  8
DEFPOINTS
  6
BYBLOCK
 62
     0
100
AcDbPoint
 10
-1555.750628
 20
-1505.320768
 30
0.0
  0
POINT
  5
25FD
100
AcDbEntity
  8
DEFPOINTS
  6
BYBLOCK
 62
     0
100
AcDbPoint
 10
-1568.950628
 20
-1525.020768
 30
0.0
  0
POINT
  5
25FE
100
AcDbEntity
  8
DEFPOINTS
  6
BYBLOCK
 62
     0
100
AcDbPoint
 10
-1534.721044
 20
-1525.020768
 30
0.0
  0
ENDBLK
  5
25FF
100
AcDbEntity
  8
0
100
AcDbBlockEnd
  0
BLOCK
  5
2396
100
AcDbEntity
  8
0
100
AcDbBlockBegin
  2
*D18
 70
    65
 10
0.0
 20
0.0
 30
0.0
  3
*D18
  1

  0
LINE
  5
2397
100
AcDbEntity
  8
0
  6
BYBLOCK
 62
     0
100
AcDbLine
 10
-1567.700628
 20
-1524.395768
 30
0.0
 11
-1567.700628
 21
-1541.668384
 31
0.0
  0
LINE
  5
2398
100
AcDbEntity
  8
0
  6
BYBLOCK
 62
     0
100
AcDbLine
 10
-1581.200628
 20
-1524.395768
 30
0.0
 11
-1581.200628
 21
-1541.668384
 31
0.0
  0
LINE
  5
2399
100
AcDbEntity
  8
0
  6
BYBLOCK
 62
     0
100
AcDbLine
 10
-1578.700628
 20
-1540.418384
 30
0.0
 11
-1570.200628
 21
-1540.418384
 31
0.0
  0
LINE
  5
239A
100
AcDbEntity
  8
0
  6
BYBLOCK
 62
     0
100
AcDbLine
 10
-1567.700628
 20
-1540.418384
 30
0.0
 11
-1534.730197
 21
-1540.418384
 31
0.0
  0
SOLID
  5
239B
100
AcDbEntity
  8
0
  6
BYBLOCK
 62
     0
100
AcDbTrace
 10
-1578.700628
 20
-1540.001717
 30
0.0
 11
-1578.700628
 21
-1540.83505
 31
0.0
 12
-1581.200628
 22
-1540.418384
 32
0.0
 13
-1581.200628
 23
-1540.418384
 33
0.0
  0
SOLID
  5
239C
100
AcDbEntity
  8
0
  6
BYBLOCK
 62
     0
100
AcDbTrace
 10
-1570.200628
 20
-1540.001717
 30
0.0
 11
-1570.200628
 21
-1540.83505
 31
0.0
 12
-1567.700628
 22
-1540.418384
 32
0.0
 13
-1567.700628
 23
-1540.418384
 33
0.0
  0
MTEXT
  5
239D
100
AcDbEntity
  8
0
  6
BYBLOCK
 62
     0
100
AcDbMText
 10
-1542.978197
 20
-1536.665615
 30
0.0
 40
3.5
 41
0.0
 71
     5
 72
     1
  1
\A2;13.5{\H2.800000;\S+0.1^  0;}
  0
POINT
  5
239E
100
AcDbEntity
  8
DEFPOINTS
  6
BYBLOCK
 62
     0
100
AcDbPoint
 10
-1567.700628
 20
-1523.770768
 30
0.0
  0
POINT
  5
239F
100
AcDbEntity
  8
DEFPOINTS
  6
BYBLOCK
 62
     0
100
AcDbPoint
 10
-1581.200628
 20
-1523.770768
 30
0.0
  0
POINT
  5
23A0
100
AcDbEntity
  8
DEFPOINTS
  6
BYBLOCK
 62
     0
100
AcDbPoint
 10
-1581.200628
 20
-1540.418384
 30
0.0
  0
ENDBLK
  5
23A1
100
AcDbEntity
  8
0
100
AcDbBlockEnd
  0
BLOCK
  5
EFB
100
AcDbEntity
  8
0
100
AcDbBlockBegin
  2
*D19
 70
    65
 10
0.0
 20
0.0
 30
0.0
  3
*D19
  1

  0
LINE
  5
EFC
100
AcDbEntity
  8
0
  6
BYBLOCK
 62
     0
100
AcDbLine
 10
-1600.372058
 20
-1497.020768
 30
0.0
 11
-1605.186529
 21
-1497.020768
 31
0.0
  0
LINE
  5
EFD
100
AcDbEntity
  8
0
  6
BYBLOCK
 62
     0
100
AcDbLine
 10
-1586.275628
 20
-1505.320768
 30
0.0
 11
-1605.186529
 21
-1505.320768
 31
0.0
  0
LINE
  5
EFE
100
AcDbEntity
  8
0
  6
BYBLOCK
 62
     0
100
AcDbLine
 10
-1603.936529
 20
-1499.520768
 30
0.0
 11
-1603.936529
 21
-1502.820768
 31
0.0
  0
LINE
  5
EFF
100
AcDbEntity
  8
0
  6
BYBLOCK
 62
     0
100
AcDbLine
 10
-1603.936529
 20
-1505.320768
 30
0.0
 11
-1603.936529
 21
-1534.373992
 31
0.0
  0
SOLID
  5
F00
100
AcDbEntity
  8
0
  6
BYBLOCK
 62
     0
100
AcDbTrace
 10
-1604.353196
 20
-1499.520768
 30
0.0
 11
-1603.519863
 21
-1499.520768
 31
0.0
 12
-1603.936529
 22
-1497.020768
 32
0.0
 13
-1603.936529
 23
-1497.020768
 33
0.0
  0
SOLID
  5
F01
100
AcDbEntity
  8
0
  6
BYBLOCK
 62
     0
100
AcDbTrace
 10
-1604.353196
 20
-1502.820768
 30
0.0
 11
-1603.519863
 21
-1502.820768
 31
0.0
 12
-1603.936529
 22
-1505.320768
 32
0.0
 13
-1603.936529
 23
-1505.320768
 33
0.0
  0
MTEXT
  5
F02
100
AcDbEntity
  8
0
  6
BYBLOCK
 62
     0
100
AcDbMText
 10
-1606.311529
 20
-1527.550492
 30
0.0
 40
3.5
 41
0.0
 71
     5
 72
     1
  1
\A2;8.3{\H2.800000;±0.1}
 11
0.0
 21
1.0
 31
0.0
  0
POINT
  5
F03
100
AcDbEntity
  8
DEFPOINTS
  6
BYBLOCK
 62
     0
100
AcDbPoint
 10
-1599.747058
 20
-1497.020768
 30
0.0
  0
POINT
  5
F04
100
AcDbEntity
  8
DEFPOINTS
  6
BYBLOCK
 62
     0
100
AcDbPoint
 10
-1585.650628
 20
-1505.320768
 30
0.0
  0
POINT
  5
F05
100
AcDbEntity
  8
DEFPOINTS
  6
BYBLOCK
 62
     0
100
AcDbPoint
 10
-1603.936529
 20
-1505.320768
 30
0.0
  0
ENDBLK
  5
F06
100
AcDbEntity
  8
0
100
AcDbBlockEnd
  0
BLOCK
  5
2654
100
AcDbEntity
  8
0
100
AcDbBlockBegin
  2
*D20
 70
    65
 10
0.0
 20
0.0
 30
0.0
  3
*D20
  1

  0
LINE
  5
2655
100
AcDbEntity
  8
0
  6
BYBLOCK
 62
     0
100
AcDbLine
 10
-1595.075628
 20
-1495.520768
 30
0.0
 11
-1601.443446
 21
-1495.520768
 31
0.0
  0
LINE
  5
2656
100
AcDbEntity
  8
0
  6
BYBLOCK
 62
     0
100
AcDbLine
 10
-1595.075628
 20
-1498.520768
 30
0.0
 11
-1601.443446
 21
-1498.520768
 31
0.0
  0
LINE
  5
2657
100
AcDbEntity
  8
0
  6
BYBLOCK
 62
     0
100
AcDbLine
 10
-1600.193446
 20
-1501.020768
 30
0.0
 11
-1600.193446
 21
-1503.520768
 31
0.0
  0
LINE
  5
2658
100
AcDbEntity
  8
0
  6
BYBLOCK
 62
     0
100
AcDbLine
 10
-1600.193446
 20
-1493.020768
 30
0.0
 11
-1600.193446
 21
-1478.818874
 31
0.0
  0
SOLID
  5
2659
100
AcDbEntity
  8
0
  6
BYBLOCK
 62
     0
100
AcDbTrace
 10
-1600.610112
 20
-1501.020768
 30
0.0
 11
-1599.776779
 21
-1501.020768
 31
0.0
 12
-1600.193446
 22
-1498.520768
 32
0.0
 13
-1600.193446
 23
-1498.520768
 33
0.0
  0
SOLID
  5
265A
100
AcDbEntity
  8
0
  6
BYBLOCK
 62
     0
100
AcDbTrace
 10
-1600.610112
 20
-1493.020768
 30
0.0
 11
-1599.776779
 21
-1493.020768
 31
0.0
 12
-1600.193446
 22
-1495.520768
 32
0.0
 13
-1600.193446
 23
-1495.520768
 33
0.0
  0
MTEXT
  5
265B
100
AcDbEntity
  8
0
  6
BYBLOCK
 62
     0
100
AcDbMText
 10
-1602.568446
 20
-1480.29361
 30
0.0
 40
3.5
 41
0.0
 71
     5
 72
     1
  1
\A1;3
 11
0.0
 21
1.0
 31
0.0
  0
POINT
  5
265C
100
AcDbEntity
  8
DEFPOINTS
  6
BYBLOCK
 62
     0
100
AcDbPoint
 10
-1594.450628
 20
-1495.520768
 30
0.0
  0
POINT
  5
265D
100
AcDbEntity
  8
DEFPOINTS
  6
BYBLOCK
 62
     0
100
AcDbPoint
 10
-1594.450628
 20
-1498.520768
 30
0.0
  0
POINT
  5
265E
100
AcDbEntity
  8
DEFPOINTS
  6
BYBLOCK
 62
     0
100
AcDbPoint
 10
-1600.193446
 20
-1498.520768
 30
0.0
  0
ENDBLK
  5
265F
100
AcDbEntity
  8
0
100
AcDbBlockEnd
  0
BLOCK
  5
C06
100
AcDbEntity
  8
0
100
AcDbBlockBegin
  2
*D21
 70
    65
 10
0.0
 20
0.0
 30
0.0
  3
*D21
  1

  0
LINE
  5
C07
100
AcDbEntity
  8
0
  6
BYBLOCK
 62
     0
100
AcDbLine
 10
-1583.106783
 20
-1504.878826
 30
0.0
 11
-1584.928911
 21
-1503.056699
 31
0.0
  0
LINE
  5
C08
100
AcDbEntity
  8
0
  6
BYBLOCK
 62
     0
100
AcDbLine
 10
-1581.746123
 20
-1503.518166
 30
0.0
 11
-1583.56825
 21
-1501.696038
 31
0.0
  0
LINE
  5
C09
100
AcDbEntity
  8
0
  6
BYBLOCK
 62
     0
100
AcDbLine
 10
-1585.812794
 20
-1505.708349
 30
0.0
 11
-1587.580561
 21
-1507.476116
 31
0.0
  0
LINE
  5
C0A
100
AcDbEntity
  8
0
  6
BYBLOCK
 62
     0
100
AcDbLine
 10
-1580.9166
 20
-1500.812155
 30
0.0
 11
-1572.850317
 21
-1492.745872
 31
0.0
  0
SOLID
  5
C0B
100
AcDbEntity
  8
0
  6
BYBLOCK
 62
     0
100
AcDbTrace
 10
-1586.107422
 20
-1505.413721
 30
0.0
 11
-1585.518166
 21
-1506.002977
 31
0.0
 12
-1584.045027
 22
-1503.940582
 32
0.0
 13
-1584.045027
 23
-1503.940582
 33
0.0
  0
SOLID
  5
C0C
100
AcDbEntity
  8
0
  6
BYBLOCK
 62
     0
100
AcDbTrace
 10
-1581.211228
 20
-1500.517527
 30
0.0
 11
-1580.621972
 21
-1501.106783
 31
0.0
 12
-1582.684367
 22
-1502.579922
 32
0.0
 13
-1582.684367
 23
-1502.579922
 33
0.0
  0
MTEXT
  5
C0D
100
AcDbEntity
  8
0
  6
BYBLOCK
 62
     0
100
AcDbMText
 10
-1577.679197
 20
-1494.215508
 30
0.0
 40
3.5
 41
0.0
 71
     5
 72
     1
  1
\A1;1.92
 11
0.707107
 21
0.707107
 31
0.0
  0
POINT
  5
C0E
100
AcDbEntity
  8
DEFPOINTS
  6
BYBLOCK
 62
     0
100
AcDbPoint
 10
-1582.664841
 20
-1505.320768
 30
0.0
  0
POINT
  5
C0F
100
AcDbEntity
  8
DEFPOINTS
  6
BYBLOCK
 62
     0
100
AcDbPoint
 10
-1581.304181
 20
-1503.960107
 30
0.0
  0
POINT
  5
C10
100
AcDbEntity
  8
DEFPOINTS
  6
BYBLOCK
 62
     0
100
AcDbPoint
 10
-1582.684367
 20
-1502.579922
 30
0.0
  0
ENDBLK
  5
C11
100
AcDbEntity
  8
0
100
AcDbBlockEnd
  0
BLOCK
  5
C14
100
AcDbEntity
  8
0
100
AcDbBlockBegin
  2
*D22
 70
    65
 10
0.0
 20
0.0
 30
0.0
  3
*D22
  1

  0
LINE
  5
C15
100
AcDbEntity
  8
0
  6
BYBLOCK
 62
     0
100
AcDbLine
 10
-1569.45323
 20
-1504.932379
 30
0.0
 11
-1572.095563
 21
-1502.290047
 31
0.0
  0
LINE
  5
C16
100
AcDbEntity
  8
0
  6
BYBLOCK
 62
     0
100
AcDbLine
 10
-1568.039016
 20
-1503.518166
 30
0.0
 11
-1570.681349
 21
-1500.875833
 31
0.0
  0
LINE
  5
C17
100
AcDbEntity
  8
0
  6
BYBLOCK
 62
     0
100
AcDbLine
 10
-1572.979446
 20
-1504.941697
 30
0.0
 11
-1574.747213
 21
-1506.709464
 31
0.0
  0
LINE
  5
C18
100
AcDbEntity
  8
0
  6
BYBLOCK
 62
     0
100
AcDbLine
 10
-1568.029699
 20
-1499.99195
 30
0.0
 11
-1564.05647
 21
-1496.018721
 31
0.0
  0
SOLID
  5
C19
100
AcDbEntity
  8
0
  6
BYBLOCK
 62
     0
100
AcDbTrace
 10
-1573.274074
 20
-1504.647069
 30
0.0
 11
-1572.684818
 21
-1505.236325
 31
0.0
 12
-1571.211679
 22
-1503.17393
 32
0.0
 13
-1571.211679
 23
-1503.17393
 33
0.0
  0
SOLID
  5
C1A
100
AcDbEntity
  8
0
  6
BYBLOCK
 62
     0
100
AcDbTrace
 10
-1568.324326
 20
-1499.697322
 30
0.0
 11
-1567.735071
 21
-1500.286577
 31
0.0
 12
-1569.797466
 22
-1501.759716
 32
0.0
 13
-1569.797466
 23
-1501.759716
 33
0.0
  0
MTEXT
  5
C1B
100
AcDbEntity
  8
0
  6
BYBLOCK
 62
     0
100
AcDbMText
 10
-1566.838823
 20
-1495.44183
 30
0.0
 40
3.5
 41
0.0
 71
     5
 72
     1
  1
\A1;2
 11
0.707107
 21
0.707107
 31
0.0
  0
POINT
  5
C1C
100
AcDbEntity
  8
DEFPOINTS
  6
BYBLOCK
 62
     0
100
AcDbPoint
 10
-1569.011288
 20
-1505.374321
 30
0.0
  0
POINT
  5
C1D
100
AcDbEntity
  8
DEFPOINTS
  6
BYBLOCK
 62
     0
100
AcDbPoint
 10
-1567.597075
 20
-1503.960107
 30
0.0
  0
POINT
  5
C1E
100
AcDbEntity
  8
DEFPOINTS
  6
BYBLOCK
 62
     0
100
AcDbPoint
 10
-1569.797466
 20
-1501.759716
 30
0.0
  0
ENDBLK
  5
C1F
100
AcDbEntity
  8
0
100
AcDbBlockEnd
  0
BLOCK
  5
1D7B
100
AcDbEntity
  8
0
100
AcDbBlockBegin
  2
*D23
 70
    65
 10
0.0
 20
0.0
 30
0.0
  3
*D23
  1

  0
LINE
  5
1D7C
100
AcDbEntity
  8
0
  6
BYBLOCK
 62
     0
100
AcDbLine
 10
-1793.096673
 20
-1450.020768
 30
0.0
 11
-1775.714603
 21
-1450.020768
 31
0.0
  0
LINE
  5
1D7D
100
AcDbEntity
  8
0
  6
BYBLOCK
 62
     0
100
AcDbLine
 10
-1794.229077
 20
-1505.020768
 30
0.0
 11
-1775.714603
 21
-1505.020768
 31
0.0
  0
LINE
  5
1D7E
100
AcDbEntity
  8
0
  6
BYBLOCK
 62
     0
100
AcDbLine
 10
-1776.964603
 20
-1452.520768
 30
0.0
 11
-1776.964603
 21
-1502.520768
 31
0.0
  0
SOLID
  5
1D7F
100
AcDbEntity
  8
0
  6
BYBLOCK
 62
     0
100
AcDbTrace
 10
-1777.38127
 20
-1452.520768
 30
0.0
 11
-1776.547937
 21
-1452.520768
 31
0.0
 12
-1776.964603
 22
-1450.020768
 32
0.0
 13
-1776.964603
 23
-1450.020768
 33
0.0
  0
SOLID
  5
1D80
100
AcDbEntity
  8
0
  6
BYBLOCK
 62
     0
100
AcDbTrace
 10
-1777.38127
 20
-1502.520768
 30
0.0
 11
-1776.547937
 21
-1502.520768
 31
0.0
 12
-1776.964603
 22
-1505.020768
 32
0.0
 13
-1776.964603
 23
-1505.020768
 33
0.0
  0
MTEXT
  5
1D81
100
AcDbEntity
  8
0
  6
BYBLOCK
 62
     0
100
AcDbMText
 10
-1779.339603
 20
-1476.004215
 30
0.0
 40
3.5
 41
0.0
 71
     5
 72
     1
  1
\A2;55{\H2.800000;±0.01}
 11
0.0
 21
1.0
 31
0.0
  0
POINT
  5
1D82
100
AcDbEntity
  8
DEFPOINTS
  6
BYBLOCK
 62
     0
100
AcDbPoint
 10
-1793.721673
 20
-1450.020768
 30
0.0
  0
POINT
  5
1D83
100
AcDbEntity
  8
DEFPOINTS
  6
BYBLOCK
 62
     0
100
AcDbPoint
 10
-1794.854077
 20
-1505.020768
 30
0.0
  0
POINT
  5
1D84
100
AcDbEntity
  8
DEFPOINTS
  6
BYBLOCK
 62
     0
100
AcDbPoint
 10
-1776.964603
 20
-1505.020768
 30
0.0
  0
ENDBLK
  5
1D85
100
AcDbEntity
  8
0
100
AcDbBlockEnd
  0
BLOCK
  5
27BF
100
AcDbEntity
  8
0
100
AcDbBlockBegin
  2
*D24
 70
    65
 10
0.0
 20
0.0
 30
0.0
  3
*D24
  1

  0
LINE
  5
27C0
100
AcDbEntity
  8
0
  6
BYBLOCK
 62
     0
100
AcDbLine
 10
-1793.096673
 20
-1450.020768
 30
0.0
 11
-1762.22349
 21
-1450.020768
 31
0.0
  0
LINE
  5
27C1
100
AcDbEntity
  8
0
  6
BYBLOCK
 62
     0
100
AcDbLine
 10
-1806.596673
 20
-1525.020768
 30
0.0
 11
-1762.22349
 21
-1525.020768
 31
0.0
  0
LINE
  5
27C2
100
AcDbEntity
  8
0
  6
BYBLOCK
 62
     0
100
AcDbLine
 10
-1763.47349
 20
-1452.520768
 30
0.0
 11
-1763.47349
 21
-1522.520768
 31
0.0
  0
SOLID
  5
27C3
100
AcDbEntity
  8
0
  6
BYBLOCK
 62
     0
100
AcDbTrace
 10
-1763.890156
 20
-1452.520768
 30
0.0
 11
-1763.056823
 21
-1452.520768
 31
0.0
 12
-1763.47349
 22
-1450.020768
 32
0.0
 13
-1763.47349
 23
-1450.020768
 33
0.0
  0
SOLID
  5
27C4
100
AcDbEntity
  8
0
  6
BYBLOCK
 62
     0
100
AcDbTrace
 10
-1763.890156
 20
-1522.520768
 30
0.0
 11
-1763.056823
 21
-1522.520768
 31
0.0
 12
-1763.47349
 22
-1525.020768
 32
0.0
 13
-1763.47349
 23
-1525.020768
 33
0.0
  0
MTEXT
  5
27C5
100
AcDbEntity
  8
0
  6
BYBLOCK
 62
     0
100
AcDbMText
 10
-1767.226259
 20
-1487.520768
 30
0.0
 40
3.5
 41
0.0
 71
     5
 72
     1
  1
\A2;75{\H2.800000;\S-0.1^  0;}
 11
0.0
 21
1.0
 31
0.0
  0
POINT
  5
27C6
100
AcDbEntity
  8
DEFPOINTS
  6
BYBLOCK
 62
     0
100
AcDbPoint
 10
-1793.721673
 20
-1450.020768
 30
0.0
  0
POINT
  5
27C7
100
AcDbEntity
  8
DEFPOINTS
  6
BYBLOCK
 62
     0
100
AcDbPoint
 10
-1807.221673
 20
-1525.020768
 30
0.0
  0
POINT
  5
27C8
100
AcDbEntity
  8
DEFPOINTS
  6
BYBLOCK
 62
     0
100
AcDbPoint
 10
-1763.47349
 20
-1525.020768
 30
0.0
  0
ENDBLK
  5
27C9
100
AcDbEntity
  8
0
100
AcDbBlockEnd
  0
BLOCK
  5
1734
100
AcDbEntity
  8
0
100
AcDbBlockBegin
  2
*D25
 70
    65
 10
0.0
 20
0.0
 30
0.0
  3
*D25
  1

  0
LINE
  5
1735
100
AcDbEntity
  8
0
  6
BYBLOCK
 62
     0
100
AcDbLine
 10
-1561.875628
 20
-1449.520768
 30
0.0
 11
-1541.148873
 21
-1449.520768
 31
0.0
  0
LINE
  5
1736
100
AcDbEntity
  8
0
  6
BYBLOCK
 62
     0
100
AcDbLine
 10
-1562.625628
 20
-1505.320768
 30
0.0
 11
-1541.148873
 21
-1505.320768
 31
0.0
  0
LINE
  5
1737
100
AcDbEntity
  8
0
  6
BYBLOCK
 62
     0
100
AcDbLine
 10
-1542.398873
 20
-1452.020768
 30
0.0
 11
-1542.398873
 21
-1502.820768
 31
0.0
  0
SOLID
  5
1738
100
AcDbEntity
  8
0
  6
BYBLOCK
 62
     0
100
AcDbTrace
 10
-1542.81554
 20
-1452.020768
 30
0.0
 11
-1541.982206
 21
-1452.020768
 31
0.0
 12
-1542.398873
 22
-1449.520768
 32
0.0
 13
-1542.398873
 23
-1449.520768
 33
0.0
  0
SOLID
  5
1739
100
AcDbEntity
  8
0
  6
BYBLOCK
 62
     0
100
AcDbTrace
 10
-1542.81554
 20
-1502.820768
 30
0.0
 11
-1541.982206
 21
-1502.820768
 31
0.0
 12
-1542.398873
 22
-1505.320768
 32
0.0
 13
-1542.398873
 23
-1505.320768
 33
0.0
  0
MTEXT
  5
173A
100
AcDbEntity
  8
0
  6
BYBLOCK
 62
     0
100
AcDbMText
 10
-1546.151642
 20
-1477.420768
 30
0.0
 40
3.5
 41
0.0
 71
     5
 72
     1
  1
\A2;55.8{\H2.800000;\S+0.1^  0;}
 11
0.0
 21
1.0
 31
0.0
  0
POINT
  5
173B
100
AcDbEntity
  8
DEFPOINTS
  6
BYBLOCK
 62
     0
100
AcDbPoint
 10
-1562.500628
 20
-1449.520768
 30
0.0
  0
POINT
  5
173C
100
AcDbEntity
  8
DEFPOINTS
  6
BYBLOCK
 62
     0
100
AcDbPoint
 10
-1563.250628
 20
-1505.320768
 30
0.0
  0
POINT
  5
173D
100
AcDbEntity
  8
DEFPOINTS
  6
BYBLOCK
 62
     0
100
AcDbPoint
 10
-1542.398873
 20
-1505.320768
 30
0.0
  0
ENDBLK
  5
173E
100
AcDbEntity
  8
0
100
AcDbBlockEnd
  0
BLOCK
  5
27A9
100
AcDbEntity
  8
0
100
AcDbBlockBegin
  2
*D26
 70
    65
 10
0.0
 20
0.0
 30
0.0
  3
*D26
  1

  0
LINE
  5
27AA
100
AcDbEntity
  8
0
  6
BYBLOCK
 62
     0
100
AcDbLine
 10
-1554.375628
 20
-1449.520768
 30
0.0
 11
-1524.102756
 21
-1449.520768
 31
0.0
  0
LINE
  5
27AB
100
AcDbEntity
  8
0
  6
BYBLOCK
 62
     0
100
AcDbLine
 10
-1568.325628
 20
-1525.020768
 30
0.0
 11
-1524.102756
 21
-1525.020768
 31
0.0
  0
LINE
  5
27AC
100
AcDbEntity
  8
0
  6
BYBLOCK
 62
     0
100
AcDbLine
 10
-1525.352756
 20
-1452.020768
 30
0.0
 11
-1525.352756
 21
-1522.520768
 31
0.0
  0
SOLID
  5
27AD
100
AcDbEntity
  8
0
  6
BYBLOCK
 62
     0
100
AcDbTrace
 10
-1525.769422
 20
-1452.020768
 30
0.0
 11
-1524.936089
 21
-1452.020768
 31
0.0
 12
-1525.352756
 22
-1449.520768
 32
0.0
 13
-1525.352756
 23
-1449.520768
 33
0.0
  0
SOLID
  5
27AE
100
AcDbEntity
  8
0
  6
BYBLOCK
 62
     0
100
AcDbTrace
 10
-1525.769422
 20
-1522.520768
 30
0.0
 11
-1524.936089
 21
-1522.520768
 31
0.0
 12
-1525.352756
 22
-1525.020768
 32
0.0
 13
-1525.352756
 23
-1525.020768
 33
0.0
  0
MTEXT
  5
27AF
100
AcDbEntity
  8
0
  6
BYBLOCK
 62
     0
100
AcDbMText
 10
-1529.105525
 20
-1487.270768
 30
0.0
 40
3.5
 41
0.0
 71
     5
 72
     1
  1
\A2;75.5{\H2.800000;\S-0.1^  0;}
 11
0.0
 21
1.0
 31
0.0
  0
POINT
  5
27B0
100
AcDbEntity
  8
DEFPOINTS
  6
BYBLOCK
 62
     0
100
AcDbPoint
 10
-1555.000628
 20
-1449.520768
 30
0.0
  0
POINT
  5
27B1
100
AcDbEntity
  8
DEFPOINTS
  6
BYBLOCK
 62
     0
100
AcDbPoint
 10
-1568.950628
 20
-1525.020768
 30
0.0
  0
POINT
  5
27B2
100
AcDbEntity
  8
DEFPOINTS
  6
BYBLOCK
 62
     0
100
AcDbPoint
 10
-1525.352756
 20
-1525.020768
 30
0.0
  0
ENDBLK
  5
27B3
100
AcDbEntity
  8
0
100
AcDbBlockEnd
  0
BLOCK
  5
1D87
100
AcDbEntity
  8
0
100
AcDbBlockBegin
  2
*D27
 70
    65
 10
0.0
 20
0.0
 30
0.0
  3
*D27
  1

  0
LINE
  5
1D88
100
AcDbEntity
  8
0
  6
BYBLOCK
 62
     0
100
AcDbLine
 10
-1828.163615
 20
-1495.078826
 30
0.0
 11
-1846.813636
 21
-1476.428805
 31
0.0
  0
LINE
  5
1D89
100
AcDbEntity
  8
0
  6
BYBLOCK
 62
     0
100
AcDbLine
 10
-1828.163615
 20
-1498.962709
 30
0.0
 11
-1846.813636
 21
-1517.61273
 31
0.0
  0
ARC
  5
1D8A
100
AcDbEntity
  8
0
  6
BYBLOCK
 62
     0
100
AcDbCircle
 10
-1826.221673
 20
-1497.020768
 30
0.0
 40
27.871433
100
AcDbArc
 50
140.141017
 51
219.858983
  0
SOLID
  5
1D8B
100
AcDbEntity
  8
0
  6
BYBLOCK
 62
     0
100
AcDbTrace
 10
-1847.924004
 20
-1478.876841
 30
0.0
 11
-1847.308914
 21
-1479.439076
 31
0.0
 12
-1845.929753
 22
-1477.312688
 32
0.0
 13
-1845.929753
 23
-1477.312688
 33
0.0
  0
SOLID
  5
1D8C
100
AcDbEntity
  8
0
  6
BYBLOCK
 62
     0
100
AcDbTrace
 10
-1847.308914
 20
-1514.602459
 30
0.0
 11
-1847.924004
 21
-1515.164694
 31
0.0
 12
-1845.929753
 22
-1516.728847
 32
0.0
 13
-1845.929753
 23
-1516.728847
 33
0.0
  0
MTEXT
  5
1D8D
100
AcDbEntity
  8
0
  6
BYBLOCK
 62
     0
100
AcDbMText
 10
-1856.468106
 20
-1497.020768
 30
0.0
 40
3.5
 41
0.0
 71
     5
 72
     1
  1
\A1;90°
 11
0.0
 21
1.0
 31
0.0
  0
POINT
  5
1D8E
100
AcDbEntity
  8
DEFPOINTS
  6
BYBLOCK
 62
     0
100
AcDbPoint
 10
-1853.14341
 20
-1489.80711
 30
0.0
  0
POINT
  5
1D8F
100
AcDbEntity
  8
DEFPOINTS
  6
BYBLOCK
 62
     0
100
AcDbPoint
 10
-1827.721673
 20
-1495.520768
 30
0.0
  0
POINT
  5
1D90
100
AcDbEntity
  8
DEFPOINTS
  6
BYBLOCK
 62
     0
100
AcDbPoint
 10
-1827.721673
 20
-1498.520768
 30
0.0
  0
POINT
  5
1D91
100
AcDbEntity
  8
DEFPOINTS
  6
BYBLOCK
 62
     0
100
AcDbPoint
 10
-1826.221673
 20
-1497.020768
 30
0.0
  0
POINT
  5
1D92
100
AcDbEntity
  8
DEFPOINTS
  6
BYBLOCK
 62
     0
100
AcDbPoint
 10
-1826.221673
 20
-1497.020768
 30
0.0
  0
ENDBLK
  5
1D93
100
AcDbEntity
  8
0
100
AcDbBlockEnd
  0
BLOCK
  5
2766
100
AcDbEntity
  8
0
100
AcDbBlockBegin
  2
*D28
 70
    65
 10
0.0
 20
0.0
 30
0.0
  3
*D28
  1

  0
LINE
  5
2767
100
AcDbEntity
  8
0
  6
BYBLOCK
 62
     0
100
AcDbLine
 10
-1792.721673
 20
-1504.645768
 30
0.0
 11
-1792.721673
 21
-1559.721688
 31
0.0
  0
LINE
  5
2768
100
AcDbEntity
  8
0
  6
BYBLOCK
 62
     0
100
AcDbLine
 10
-1832.721673
 20
-1504.645768
 30
0.0
 11
-1832.721673
 21
-1559.721688
 31
0.0
  0
LINE
  5
2769
100
AcDbEntity
  8
0
  6
BYBLOCK
 62
     0
100
AcDbLine
 10
-1795.221673
 20
-1558.471688
 30
0.0
 11
-1830.221673
 21
-1558.471688
 31
0.0
  0
SOLID
  5
276A
100
AcDbEntity
  8
0
  6
BYBLOCK
 62
     0
100
AcDbTrace
 10
-1795.221673
 20
-1558.055021
 30
0.0
 11
-1795.221673
 21
-1558.888354
 31
0.0
 12
-1792.721673
 22
-1558.471688
 32
0.0
 13
-1792.721673
 23
-1558.471688
 33
0.0
  0
SOLID
  5
276B
100
AcDbEntity
  8
0
  6
BYBLOCK
 62
     0
100
AcDbTrace
 10
-1830.221673
 20
-1558.055021
 30
0.0
 11
-1830.221673
 21
-1558.888354
 31
0.0
 12
-1832.721673
 22
-1558.471688
 32
0.0
 13
-1832.721673
 23
-1558.471688
 33
0.0
  0
MTEXT
  5
276C
100
AcDbEntity
  8
0
  6
BYBLOCK
 62
     0
100
AcDbMText
 10
-1812.721673
 20
-1556.096688
 30
0.0
 40
3.5
 41
0.0
 71
     5
 72
     1
  1
\A2;40{\H2.800000;±0.05}
  0
POINT
  5
276D
100
AcDbEntity
  8
DEFPOINTS
  6
BYBLOCK
 62
     0
100
AcDbPoint
 10
-1792.721673
 20
-1504.020768
 30
0.0
  0
POINT
  5
276E
100
AcDbEntity
  8
DEFPOINTS
  6
BYBLOCK
 62
     0
100
AcDbPoint
 10
-1832.721673
 20
-1504.020768
 30
0.0
  0
POINT
  5
276F
100
AcDbEntity
  8
DEFPOINTS
  6
BYBLOCK
 62
     0
100
AcDbPoint
 10
-1832.721673
 20
-1558.471688
 30
0.0
  0
ENDBLK
  5
2770
100
AcDbEntity
  8
0
100
AcDbBlockEnd
  0
BLOCK
  5
2648
100
AcDbEntity
  8
0
100
AcDbBlockBegin
  2
*D29
 70
    65
 10
0.0
 20
0.0
 30
0.0
  3
*D29
  1

  0
LINE
  5
2649
100
AcDbEntity
  8
0
  6
BYBLOCK
 62
     0
100
AcDbLine
 10
-1554.450628
 20
-1504.645768
 30
0.0
 11
-1554.450628
 21
-1561.295332
 31
0.0
  0
LINE
  5
264A
100
AcDbEntity
  8
0
  6
BYBLOCK
 62
     0
100
AcDbLine
 10
-1594.450628
 20
-1504.645768
 30
0.0
 11
-1594.450628
 21
-1561.295332
 31
0.0
  0
LINE
  5
264B
100
AcDbEntity
  8
0
  6
BYBLOCK
 62
     0
100
AcDbLine
 10
-1556.950628
 20
-1560.045332
 30
0.0
 11
-1591.950628
 21
-1560.045332
 31
0.0
  0
SOLID
  5
264C
100
AcDbEntity
  8
0
  6
BYBLOCK
 62
     0
100
AcDbTrace
 10
-1556.950628
 20
-1559.628665
 30
0.0
 11
-1556.950628
 21
-1560.461999
 31
0.0
 12
-1554.450628
 22
-1560.045332
 32
0.0
 13
-1554.450628
 23
-1560.045332
 33
0.0
  0
SOLID
  5
264D
100
AcDbEntity
  8
0
  6
BYBLOCK
 62
     0
100
AcDbTrace
 10
-1591.950628
 20
-1559.628665
 30
0.0
 11
-1591.950628
 21
-1560.461999
 31
0.0
 12
-1594.450628
 22
-1560.045332
 32
0.0
 13
-1594.450628
 23
-1560.045332
 33
0.0
  0
MTEXT
  5
264E
100
AcDbEntity
  8
0
  6
BYBLOCK
 62
     0
100
AcDbMText
 10
-1574.450628
 20
-1557.670332
 30
0.0
 40
3.5
 41
0.0
 71
     5
 72
     1
  1
\A2;40{\H2.800000;±0.05}
  0
POINT
  5
264F
100
AcDbEntity
  8
DEFPOINTS
  6
BYBLOCK
 62
     0
100
AcDbPoint
 10
-1554.450628
 20
-1504.020768
 30
0.0
  0
POINT
  5
2650
100
AcDbEntity
  8
DEFPOINTS
  6
BYBLOCK
 62
     0
100
AcDbPoint
 10
-1594.450628
 20
-1504.020768
 30
0.0
  0
POINT
  5
2651
100
AcDbEntity
  8
DEFPOINTS
  6
BYBLOCK
 62
     0
100
AcDbPoint
 10
-1594.450628
 20
-1560.045332
 30
0.0
  0
ENDBLK
  5
2652
100
AcDbEntity
  8
0
100
AcDbBlockEnd
  0
BLOCK
  5
21F0
100
AcDbEntity
  8
0
100
AcDbBlockBegin
  2
*D30
 70
    65
 10
0.0
 20
0.0
 30
0.0
  3
*D30
  1

  0
LINE
  5
21F1
100
AcDbEntity
  8
0
  6
BYBLOCK
 62
     0
100
AcDbLine
 10
-1812.721673
 20
-1474.71412
 30
0.0
 11
-1811.787482
 21
-1477.247357
 31
0.0
  0
LINE
  5
21F2
100
AcDbEntity
  8
0
  6
BYBLOCK
 62
     0
100
AcDbLine
 10
-1810.92249
 20
-1479.592946
 30
0.0
 11
-1806.580579
 21
-1491.366859
 31
0.0
  0
SOLID
  5
21F3
100
AcDbEntity
  8
0
  6
BYBLOCK
 62
     0
100
AcDbTrace
 10
-1811.39655
 20
-1477.103191
 30
0.0
 11
-1812.178413
 21
-1477.391522
 31
0.0
 12
-1810.92249
 22
-1479.592946
 32
0.0
 13
-1810.92249
 23
-1479.592946
 33
0.0
  0
MTEXT
  5
21F4
100
AcDbEntity
  8
0
  6
BYBLOCK
 62
     0
100
AcDbMText
 10
-1806.090405
 20
-1485.830836
 30
0.0
 40
3.5
 41
0.0
 71
     5
 72
     1
  1
\A1;R5.2
 11
0.345997
 21
-0.938236
 31
0.0
  0
POINT
  5
21F5
100
AcDbEntity
  8
DEFPOINTS
  6
BYBLOCK
 62
     0
100
AcDbPoint
 10
-1810.92249
 20
-1479.592946
 30
0.0
  0
POINT
  5
21F6
100
AcDbEntity
  8
DEFPOINTS
  6
BYBLOCK
 62
     0
100
AcDbPoint
 10
-1812.721673
 20
-1474.71412
 30
0.0
  0
ENDBLK
  5
21F7
100
AcDbEntity
  8
0
100
AcDbBlockEnd
  0
BLOCK
  5
2220
100
AcDbEntity
  8
0
100
AcDbBlockBegin
  2
*D31
 70
    65
 10
0.0
 20
0.0
 30
0.0
  3
*D31
  1

  0
LINE
  5
2221
100
AcDbEntity
  8
0
  6
BYBLOCK
 62
     0
100
AcDbLine
 10
-1800.721673
 20
-1449.395768
 30
0.0
 11
-1800.721673
 21
-1429.104666
 31
0.0
  0
LINE
  5
2222
100
AcDbEntity
  8
0
  6
BYBLOCK
 62
     0
100
AcDbLine
 10
-1824.721673
 20
-1449.395768
 30
0.0
 11
-1824.721673
 21
-1429.104666
 31
0.0
  0
LINE
  5
2223
100
AcDbEntity
  8
0
  6
BYBLOCK
 62
     0
100
AcDbLine
 10
-1803.221673
 20
-1430.354666
 30
0.0
 11
-1822.221673
 21
-1430.354666
 31
0.0
  0
SOLID
  5
2224
100
AcDbEntity
  8
0
  6
BYBLOCK
 62
     0
100
AcDbTrace
 10
-1803.221673
 20
-1429.938
 30
0.0
 11
-1803.221673
 21
-1430.771333
 31
0.0
 12
-1800.721673
 22
-1430.354666
 32
0.0
 13
-1800.721673
 23
-1430.354666
 33
0.0
  0
SOLID
  5
2225
100
AcDbEntity
  8
0
  6
BYBLOCK
 62
     0
100
AcDbTrace
 10
-1822.221673
 20
-1429.938
 30
0.0
 11
-1822.221673
 21
-1430.771333
 31
0.0
 12
-1824.721673
 22
-1430.354666
 32
0.0
 13
-1824.721673
 23
-1430.354666
 33
0.0
  0
MTEXT
  5
2226
100
AcDbEntity
  8
0
  6
BYBLOCK
 62
     0
100
AcDbMText
 10
-1812.721673
 20
-1427.979666
 30
0.0
 40
3.5
 41
0.0
 71
     5
 72
     1
  1
\A2;24{\H2.800000;±0.01}
  0
POINT
  5
2227
100
AcDbEntity
  8
DEFPOINTS
  6
BYBLOCK
 62
     0
100
AcDbPoint
 10
-1800.721673
 20
-1450.020768
 30
0.0
  0
POINT
  5
2228
100
AcDbEntity
  8
DEFPOINTS
  6
BYBLOCK
 62
     0
100
AcDbPoint
 10
-1824.721673
 20
-1450.020768
 30
0.0
  0
POINT
  5
2229
100
AcDbEntity
  8
DEFPOINTS
  6
BYBLOCK
 62
     0
100
AcDbPoint
 10
-1824.721673
 20
-1430.354666
 30
0.0
  0
ENDBLK
  5
222A
100
AcDbEntity
  8
0
100
AcDbBlockEnd
  0
BLOCK
  5
2238
100
AcDbEntity
  8
0
100
AcDbBlockBegin
  2
*D32
 70
    65
 10
0.0
 20
0.0
 30
0.0
  3
*D32
  1

  0
LINE
  5
2239
100
AcDbEntity
  8
0
  6
BYBLOCK
 62
     0
100
AcDbLine
 10
-1800.559911
 20
-1449.417064
 30
0.0
 11
-1793.369319
 21
-1422.581406
 31
0.0
  0
LINE
  5
223A
100
AcDbEntity
  8
0
  6
BYBLOCK
 62
     0
100
AcDbLine
 10
-1824.883435
 20
-1449.417064
 30
0.0
 11
-1832.074028
 21
-1422.581406
 31
0.0
  0
ARC
  5
223B
100
AcDbEntity
  8
0
  6
BYBLOCK
 62
     0
100
AcDbCircle
 10
-1812.721673
 20
-1494.805377
 30
0.0
 40
73.521757
100
AcDbArc
 50
76.948354
 51
103.051647
  0
SOLID
  5
223C
100
AcDbEntity
  8
0
  6
BYBLOCK
 62
     0
100
AcDbTrace
 10
-1796.017326
 20
-1422.778671
 30
0.0
 11
-1796.219292
 21
-1423.58716
 31
0.0
 12
-1793.692842
 22
-1423.788813
 32
0.0
 13
-1793.692842
 23
-1423.788813
 33
0.0
  0
SOLID
  5
223D
100
AcDbEntity
  8
0
  6
BYBLOCK
 62
     0
100
AcDbTrace
 10
-1829.224055
 20
-1423.58716
 30
0.0
 11
-1829.426021
 21
-1422.778671
 31
0.0
 12
-1831.750504
 22
-1423.788813
 32
0.0
 13
-1831.750504
 23
-1423.788813
 33
0.0
  0
MTEXT
  5
223E
100
AcDbEntity
  8
0
  6
BYBLOCK
 62
     0
100
AcDbMText
 10
-1812.721673
 20
-1418.90862
 30
0.0
 40
3.5
 41
0.0
 71
     5
 72
     1
  1
\A2;30°{\H2.800000;±0°5'}
  0
POINT
  5
223F
100
AcDbEntity
  8
DEFPOINTS
  6
BYBLOCK
 62
     0
100
AcDbPoint
 10
-1819.129517
 20
-1421.563393
 30
0.0
  0
POINT
  5
2240
100
AcDbEntity
  8
DEFPOINTS
  6
BYBLOCK
 62
     0
100
AcDbPoint
 10
-1800.721673
 20
-1450.020768
 30
0.0
  0
POINT
  5
2241
100
AcDbEntity
  8
DEFPOINTS
  6
BYBLOCK
 62
     0
100
AcDbPoint
 10
-1824.721673
 20
-1450.020768
 30
0.0
  0
POINT
  5
2242
100
AcDbEntity
  8
DEFPOINTS
  6
BYBLOCK
 62
     0
100
AcDbPoint
 10
-1817.744487
 20
-1476.059979
 30
0.0
  0
POINT
  5
2243
100
AcDbEntity
  8
DEFPOINTS
  6
BYBLOCK
 62
     0
100
AcDbPoint
 10
-1807.698859
 20
-1476.059979
 30
0.0
  0
ENDBLK
  5
2244
100
AcDbEntity
  8
0
100
AcDbBlockEnd
  0
BLOCK
  5
2258
100
AcDbEntity
  8
0
100
AcDbBlockBegin
  2
*D33
 70
    65
 10
0.0
 20
0.0
 30
0.0
  3
*D33
  1

  0
LINE
  5
2259
100
AcDbEntity
  8
0
  6
BYBLOCK
 62
     0
100
AcDbLine
 10
-1822.510178
 20
-1449.877754
 30
0.0
 11
-1807.400542
 21
-1439.355976
 31
0.0
  0
SOLID
  5
225A
100
AcDbEntity
  8
0
  6
BYBLOCK
 62
     0
100
AcDbTrace
 10
-1822.748285
 20
-1449.535824
 30
0.0
 11
-1822.272071
 21
-1450.219684
 31
0.0
 12
-1824.561758
 22
-1451.306397
 32
0.0
 13
-1824.561758
 23
-1451.306397
 33
0.0
  0
MTEXT
  5
225B
100
AcDbEntity
  8
0
  6
BYBLOCK
 62
     0
100
AcDbMText
 10
-1815.286781
 20
-1441.953543
 30
0.0
 40
3.5
 41
0.0
 71
     5
 72
     1
  1
\A2;R3{\H2.800000;±0.02}
 11
0.820632
 21
0.571457
 31
0.0
  0
POINT
  5
225C
100
AcDbEntity
  8
DEFPOINTS
  6
BYBLOCK
 62
     0
100
AcDbPoint
 10
-1824.561758
 20
-1451.306397
 30
0.0
  0
POINT
  5
225D
100
AcDbEntity
  8
DEFPOINTS
  6
BYBLOCK
 62
     0
100
AcDbPoint
 10
-1827.023654
 20
-1453.020768
 30
0.0
  0
ENDBLK
  5
225E
100
AcDbEntity
  8
0
100
AcDbBlockEnd
  0
BLOCK
  5
2282
100
AcDbEntity
  8
0
100
AcDbBlockBegin
  2
*X34
 70
    65
 10
0.0
 20
0.0
 30
0.0
  3
*X34
  1

  0
LINE
  5
2284
100
AcDbEntity
  8
0
 62
     0
100
AcDbLine
 10
-1820.610137
 20
-1466.877848
 30
0.0
 11
-1820.290483
 21
-1466.558194
 31
0.0
  0
LINE
  5
2285
100
AcDbEntity
  8
0
 62
     0
100
AcDbLine
 10
-1820.736006
 20
-1466.73431
 30
0.0
 11
-1820.347416
 21
-1466.345719
 31
0.0
  0
LINE
  5
2286
100
AcDbEntity
  8
0
 62
     0
100
AcDbLine
 10
-1820.861009
 20
-1466.589905
 30
0.0
 11
-1820.404348
 21
-1466.133244
 31
0.0
  0
LINE
  5
2287
100
AcDbEntity
  8
0
 62
     0
100
AcDbLine
 10
-1820.985088
 20
-1466.444577
 30
0.0
 11
-1820.461281
 21
-1465.920769
 31
0.0
  0
LINE
  5
2288
100
AcDbEntity
  8
0
 62
     0
100
AcDbLine
 10
-1821.108163
 20
-1466.298244
 30
0.0
 11
-1820.518213
 21
-1465.708294
 31
0.0
  0
LINE
  5
2289
100
AcDbEntity
  8
0
 62
     0
100
AcDbLine
 10
-1821.230152
 20
-1466.150825
 30
0.0
 11
-1820.575146
 21
-1465.495819
 31
0.0
  0
LINE
  5
228A
100
AcDbEntity
  8
0
 62
     0
100
AcDbLine
 10
-1821.350972
 20
-1466.002237
 30
0.0
 11
-1820.632078
 21
-1465.283344
 31
0.0
  0
LINE
  5
228B
100
AcDbEntity
  8
0
 62
     0
100
AcDbLine
 10
-1821.470541
 20
-1465.852398
 30
0.0
 11
-1820.689011
 21
-1465.070868
 31
0.0
  0
LINE
  5
228C
100
AcDbEntity
  8
0
 62
     0
100
AcDbLine
 10
-1821.588773
 20
-1465.701223
 30
0.0
 11
-1820.745943
 21
-1464.858393
 31
0.0
  0
LINE
  5
228D
100
AcDbEntity
  8
0
 62
     0
100
AcDbLine
 10
-1821.705583
 20
-1465.548625
 30
0.0
 11
-1820.802876
 21
-1464.645918
 31
0.0
  0
LINE
  5
228E
100
AcDbEntity
  8
0
 62
     0
100
AcDbLine
 10
-1821.820882
 20
-1465.394517
 30
0.0
 11
-1820.859808
 21
-1464.433443
 31
0.0
  0
LINE
  5
228F
100
AcDbEntity
  8
0
 62
     0
100
AcDbLine
 10
-1821.934582
 20
-1465.238809
 30
0.0
 11
-1820.916741
 21
-1464.220968
 31
0.0
  0
LINE
  5
2290
100
AcDbEntity
  8
0
 62
     0
100
AcDbLine
 10
-1822.046592
 20
-1465.081411
 30
0.0
 11
-1820.973674
 21
-1464.008493
 31
0.0
  0
LINE
  5
2291
100
AcDbEntity
  8
0
 62
     0
100
AcDbLine
 10
-1822.156818
 20
-1464.922229
 30
0.0
 11
-1821.030606
 21
-1463.796018
 31
0.0
  0
LINE
  5
2292
100
AcDbEntity
  8
0
 62
     0
100
AcDbLine
 10
-1822.265165
 20
-1464.761169
 30
0.0
 11
-1821.087539
 21
-1463.583542
 31
0.0
  0
LINE
  5
2293
100
AcDbEntity
  8
0
 62
     0
100
AcDbLine
 10
-1822.371537
 20
-1464.598133
 30
0.0
 11
-1821.144471
 21
-1463.371067
 31
0.0
  0
LINE
  5
2294
100
AcDbEntity
  8
0
 62
     0
100
AcDbLine
 10
-1822.475833
 20
-1464.433021
 30
0.0
 11
-1821.201404
 21
-1463.158592
 31
0.0
  0
LINE
  5
2295
100
AcDbEntity
  8
0
 62
     0
100
AcDbLine
 10
-1822.57795
 20
-1464.265731
 30
0.0
 11
-1821.258336
 21
-1462.946117
 31
0.0
  0
LINE
  5
2296
100
AcDbEntity
  8
0
 62
     0
100
AcDbLine
 10
-1822.677785
 20
-1464.096158
 30
0.0
 11
-1821.315269
 21
-1462.733642
 31
0.0
  0
LINE
  5
2297
100
AcDbEntity
  8
0
 62
     0
100
AcDbLine
 10
-1822.775227
 20
-1463.924192
 30
0.0
 11
-1821.372201
 21
-1462.521167
 31
0.0
  0
LINE
  5
2298
100
AcDbEntity
  8
0
 62
     0
100
AcDbLine
 10
-1822.870166
 20
-1463.749723
 30
0.0
 11
-1821.429134
 21
-1462.308692
 31
0.0
  0
LINE
  5
2299
100
AcDbEntity
  8
0
 62
     0
100
AcDbLine
 10
-1822.962486
 20
-1463.572636
 30
0.0
 11
-1821.486066
 21
-1462.096216
 31
0.0
  0
LINE
  5
229A
100
AcDbEntity
  8
0
 62
     0
100
AcDbLine
 10
-1823.052068
 20
-1463.39281
 30
0.0
 11
-1821.542999
 21
-1461.883741
 31
0.0
  0
LINE
  5
229B
100
AcDbEntity
  8
0
 62
     0
100
AcDbLine
 10
-1823.138789
 20
-1463.210124
 30
0.0
 11
-1821.599932
 21
-1461.671266
 31
0.0
  0
LINE
  5
229C
100
AcDbEntity
  8
0
 62
     0
100
AcDbLine
 10
-1823.222522
 20
-1463.024449
 30
0.0
 11
-1821.656864
 21
-1461.458791
 31
0.0
  0
LINE
  5
229D
100
AcDbEntity
  8
0
 62
     0
100
AcDbLine
 10
-1823.303134
 20
-1462.835654
 30
0.0
 11
-1821.713797
 21
-1461.246316
 31
0.0
  0
LINE
  5
229E
100
AcDbEntity
  8
0
 62
     0
100
AcDbLine
 10
-1823.380489
 20
-1462.6436
 30
0.0
 11
-1821.770729
 21
-1461.033841
 31
0.0
  0
LINE
  5
229F
100
AcDbEntity
  8
0
 62
     0
100
AcDbLine
 10
-1823.454442
 20
-1462.448146
 30
0.0
 11
-1821.827662
 21
-1460.821366
 31
0.0
  0
LINE
  5
22A0
100
AcDbEntity
  8
0
 62
     0
100
AcDbLine
 10
-1823.524906
 20
-1462.249202
 30
0.0
 11
-1821.884594
 21
-1460.60889
 31
0.0
  0
LINE
  5
22A1
100
AcDbEntity
  8
0
 62
     0
100
AcDbLine
 10
-1823.592051
 20
-1462.04694
 30
0.0
 11
-1821.941527
 21
-1460.396415
 31
0.0
  0
LINE
  5
22A2
100
AcDbEntity
  8
0
 62
     0
100
AcDbLine
 10
-1823.656133
 20
-1461.841614
 30
0.0
 11
-1821.998459
 21
-1460.18394
 31
0.0
  0
LINE
  5
22A3
100
AcDbEntity
  8
0
 62
     0
100
AcDbLine
 10
-1823.717414
 20
-1461.633487
 30
0.0
 11
-1822.055392
 21
-1459.971465
 31
0.0
  0
LINE
  5
22A4
100
AcDbEntity
  8
0
 62
     0
100
AcDbLine
 10
-1823.776165
 20
-1461.42283
 30
0.0
 11
-1822.112324
 21
-1459.75899
 31
0.0
  0
LINE
  5
22A5
100
AcDbEntity
  8
0
 62
     0
100
AcDbLine
 10
-1823.832666
 20
-1461.209923
 30
0.0
 11
-1822.169257
 21
-1459.546515
 31
0.0
  0
LINE
  5
22A6
100
AcDbEntity
  8
0
 62
     0
100
AcDbLine
 10
-1823.887205
 20
-1460.995055
 30
0.0
 11
-1822.22619
 21
-1459.33404
 31
0.0
  0
LINE
  5
22A7
100
AcDbEntity
  8
0
 62
     0
100
AcDbLine
 10
-1823.940079
 20
-1460.778522
 30
0.0
 11
-1822.283122
 21
-1459.121565
 31
0.0
  0
LINE
  5
22A8
100
AcDbEntity
  8
0
 62
     0
100
AcDbLine
 10
-1823.991593
 20
-1460.560627
 30
0.0
 11
-1822.340055
 21
-1458.909089
 31
0.0
  0
LINE
  5
22A9
100
AcDbEntity
  8
0
 62
     0
100
AcDbLine
 10
-1824.042057
 20
-1460.341684
 30
0.0
 11
-1822.396987
 21
-1458.696614
 31
0.0
  0
LINE
  5
22AA
100
AcDbEntity
  8
0
 62
     0
100
AcDbLine
 10
-1824.09179
 20
-1460.12201
 30
0.0
 11
-1822.45392
 21
-1458.484139
 31
0.0
  0
LINE
  5
22AB
100
AcDbEntity
  8
0
 62
     0
100
AcDbLine
 10
-1824.141119
 20
-1459.901931
 30
0.0
 11
-1822.510852
 21
-1458.271664
 31
0.0
  0
LINE
  5
22AC
100
AcDbEntity
  8
0
 62
     0
100
AcDbLine
 10
-1824.190374
 20
-1459.681778
 30
0.0
 11
-1822.567785
 21
-1458.059189
 31
0.0
  0
LINE
  5
22AD
100
AcDbEntity
  8
0
 62
     0
100
AcDbLine
 10
-1824.239892
 20
-1459.461889
 30
0.0
 11
-1822.624717
 21
-1457.846714
 31
0.0
  0
LINE
  5
22AE
100
AcDbEntity
  8
0
 62
     0
100
AcDbLine
 10
-1824.290017
 20
-1459.242606
 30
0.0
 11
-1822.68165
 21
-1457.634239
 31
0.0
  0
LINE
  5
22AF
100
AcDbEntity
  8
0
 62
     0
100
AcDbLine
 10
-1824.341095
 20
-1459.024276
 30
0.0
 11
-1822.738582
 21
-1457.421763
 31
0.0
  0
LINE
  5
22B0
100
AcDbEntity
  8
0
 62
     0
100
AcDbLine
 10
-1824.393478
 20
-1458.807252
 30
0.0
 11
-1822.795515
 21
-1457.209288
 31
0.0
  0
LINE
  5
22B1
100
AcDbEntity
  8
0
 62
     0
100
AcDbLine
 10
-1824.447521
 20
-1458.591886
 30
0.0
 11
-1822.852447
 21
-1456.996813
 31
0.0
  0
LINE
  5
22B2
100
AcDbEntity
  8
0
 62
     0
100
AcDbLine
 10
-1824.50358
 20
-1458.378538
 30
0.0
 11
-1822.90938
 21
-1456.784338
 31
0.0
  0
LINE
  5
22B3
100
AcDbEntity
  8
0
 62
     0
100
AcDbLine
 10
-1824.562016
 20
-1458.167566
 30
0.0
 11
-1822.966313
 21
-1456.571863
 31
0.0
  0
LINE
  5
22B4
100
AcDbEntity
  8
0
 62
     0
100
AcDbLine
 10
-1824.62319
 20
-1457.959333
 30
0.0
 11
-1823.023245
 21
-1456.359388
 31
0.0
  0
LINE
  5
22B5
100
AcDbEntity
  8
0
 62
     0
100
AcDbLine
 10
-1824.687465
 20
-1457.7542
 30
0.0
 11
-1823.080178
 21
-1456.146913
 31
0.0
  0
LINE
  5
22B6
100
AcDbEntity
  8
0
 62
     0
100
AcDbLine
 10
-1824.755202
 20
-1457.552529
 30
0.0
 11
-1823.13711
 21
-1455.934437
 31
0.0
  0
LINE
  5
22B7
100
AcDbEntity
  8
0
 62
     0
100
AcDbLine
 10
-1824.826763
 20
-1457.354682
 30
0.0
 11
-1823.194043
 21
-1455.721962
 31
0.0
  0
LINE
  5
22B8
100
AcDbEntity
  8
0
 62
     0
100
AcDbLine
 10
-1824.902509
 20
-1457.16102
 30
0.0
 11
-1823.250975
 21
-1455.509487
 31
0.0
  0
LINE
  5
22B9
100
AcDbEntity
  8
0
 62
     0
100
AcDbLine
 10
-1824.982797
 20
-1456.971901
 30
0.0
 11
-1823.307908
 21
-1455.297012
 31
0.0
  0
LINE
  5
22BA
100
AcDbEntity
  8
0
 62
     0
100
AcDbLine
 10
-1825.067984
 20
-1456.787681
 30
0.0
 11
-1823.36484
 21
-1455.084537
 31
0.0
  0
LINE
  5
22BB
100
AcDbEntity
  8
0
 62
     0
100
AcDbLine
 10
-1825.158422
 20
-1456.60871
 30
0.0
 11
-1823.421773
 21
-1454.872062
 31
0.0
  0
LINE
  5
22BC
100
AcDbEntity
  8
0
 62
     0
100
AcDbLine
 10
-1825.254458
 20
-1456.435339
 30
0.0
 11
-1823.478705
 21
-1454.659587
 31
0.0
  0
LINE
  5
22BD
100
AcDbEntity
  8
0
 62
     0
100
AcDbLine
 10
-1825.356436
 20
-1456.267909
 30
0.0
 11
-1823.535638
 21
-1454.447111
 31
0.0
  0
LINE
  5
22BE
100
AcDbEntity
  8
0
 62
     0
100
AcDbLine
 10
-1825.464693
 20
-1456.106758
 30
0.0
 11
-1823.592571
 21
-1454.234636
 31
0.0
  0
LINE
  5
22BF
100
AcDbEntity
  8
0
 62
     0
100
AcDbLine
 10
-1825.579561
 20
-1455.952219
 30
0.0
 11
-1823.649503
 21
-1454.022161
 31
0.0
  0
LINE
  5
22C0
100
AcDbEntity
  8
0
 62
     0
100
AcDbLine
 10
-1825.701358
 20
-1455.804608
 30
0.0
 11
-1823.706436
 21
-1453.809686
 31
0.0
  0
LINE
  5
22C1
100
AcDbEntity
  8
0
 62
     0
100
AcDbLine
 10
-1825.830171
 20
-1455.664014
 30
0.0
 11
-1823.763368
 21
-1453.597211
 31
0.0
  0
LINE
  5
22C2
100
AcDbEntity
  8
0
 62
     0
100
AcDbLine
 10
-1825.96579
 20
-1455.530225
 30
0.0
 11
-1823.820301
 21
-1453.384736
 31
0.0
  0
LINE
  5
22C3
100
AcDbEntity
  8
0
 62
     0
100
AcDbLine
 10
-1826.107989
 20
-1455.403016
 30
0.0
 11
-1823.877233
 21
-1453.172261
 31
0.0
  0
LINE
  5
22C4
100
AcDbEntity
  8
0
 62
     0
100
AcDbLine
 10
-1826.256544
 20
-1455.282163
 30
0.0
 11
-1823.934166
 21
-1452.959785
 31
0.0
  0
LINE
  5
22C5
100
AcDbEntity
  8
0
 62
     0
100
AcDbLine
 10
-1826.411232
 20
-1455.167444
 30
0.0
 11
-1823.991098
 21
-1452.74731
 31
0.0
  0
LINE
  5
22C6
100
AcDbEntity
  8
0
 62
     0
100
AcDbLine
 10
-1826.571833
 20
-1455.058637
 30
0.0
 11
-1824.048031
 21
-1452.534835
 31
0.0
  0
LINE
  5
22C7
100
AcDbEntity
  8
0
 62
     0
100
AcDbLine
 10
-1826.73813
 20
-1454.955526
 30
0.0
 11
-1824.104963
 21
-1452.32236
 31
0.0
  0
LINE
  5
22C8
100
AcDbEntity
  8
0
 62
     0
100
AcDbLine
 10
-1826.909905
 20
-1454.857893
 30
0.0
 11
-1824.164465
 21
-1452.112453
 31
0.0
  0
LINE
  5
22C9
100
AcDbEntity
  8
0
 62
     0
100
AcDbLine
 10
-1827.086944
 20
-1454.765525
 30
0.0
 11
-1824.235315
 21
-1451.913896
 31
0.0
  0
LINE
  5
22CA
100
AcDbEntity
  8
0
 62
     0
100
AcDbLine
 10
-1827.269034
 20
-1454.678208
 30
0.0
 11
-1824.317244
 21
-1451.726417
 31
0.0
  0
LINE
  5
22CB
100
AcDbEntity
  8
0
 62
     0
100
AcDbLine
 10
-1827.455964
 20
-1454.59573
 30
0.0
 11
-1824.409392
 21
-1451.549158
 31
0.0
  0
LINE
  5
22CC
100
AcDbEntity
  8
0
 62
     0
100
AcDbLine
 10
-1827.647525
 20
-1454.517883
 30
0.0
 11
-1824.511132
 21
-1451.38149
 31
0.0
  0
LINE
  5
22CD
100
AcDbEntity
  8
0
 62
     0
100
AcDbLine
 10
-1827.843507
 20
-1454.444458
 30
0.0
 11
-1824.622011
 21
-1451.222961
 31
0.0
  0
LINE
  5
22CE
100
AcDbEntity
  8
0
 62
     0
100
AcDbLine
 10
-1828.043705
 20
-1454.375248
 30
0.0
 11
-1824.74172
 21
-1451.073263
 31
0.0
  0
LINE
  5
22CF
100
AcDbEntity
  8
0
 62
     0
100
AcDbLine
 10
-1828.247912
 20
-1454.310047
 30
0.0
 11
-1824.870072
 21
-1450.932207
 31
0.0
  0
LINE
  5
22D0
100
AcDbEntity
  8
0
 62
     0
100
AcDbLine
 10
-1828.455924
 20
-1454.248652
 30
0.0
 11
-1825.00699
 21
-1450.799717
 31
0.0
  0
LINE
  5
22D1
100
AcDbEntity
  8
0
 62
     0
100
AcDbLine
 10
-1828.667539
 20
-1454.190859
 30
0.0
 11
-1825.1525
 21
-1450.67582
 31
0.0
  0
LINE
  5
22D2
100
AcDbEntity
  8
0
 62
     0
100
AcDbLine
 10
-1828.882554
 20
-1454.136466
 30
0.0
 11
-1825.306736
 21
-1450.560648
 31
0.0
  0
LINE
  5
22D3
100
AcDbEntity
  8
0
 62
     0
100
AcDbLine
 10
-1829.100768
 20
-1454.085273
 30
0.0
 11
-1825.469945
 21
-1450.45445
 31
0.0
  0
LINE
  5
22D4
100
AcDbEntity
  8
0
 62
     0
100
AcDbLine
 10
-1829.321982
 20
-1454.037079
 30
0.0
 11
-1825.642508
 21
-1450.357605
 31
0.0
  0
LINE
  5
22D5
100
AcDbEntity
  8
0
 62
     0
100
AcDbLine
 10
-1829.545997
 20
-1453.991686
 30
0.0
 11
-1825.824963
 21
-1450.270652
 31
0.0
  0
LINE
  5
22D6
100
AcDbEntity
  8
0
 62
     0
100
AcDbLine
 10
-1829.772613
 20
-1453.948895
 30
0.0
 11
-1826.018048
 21
-1450.194329
 31
0.0
  0
LINE
  5
22D7
100
AcDbEntity
  8
0
 62
     0
100
AcDbLine
 10
-1830.001635
 20
-1453.908509
 30
0.0
 11
-1826.222772
 21
-1450.129645
 31
0.0
  0
LINE
  5
22D8
100
AcDbEntity
  8
0
 62
     0
100
AcDbLine
 10
-1830.232866
 20
-1453.870332
 30
0.0
 11
-1826.440521
 21
-1450.077987
 31
0.0
  0
LINE
  5
22D9
100
AcDbEntity
  8
0
 62
     0
100
AcDbLine
 10
-1830.466109
 20
-1453.834167
 30
0.0
 11
-1826.673244
 21
-1450.041302
 31
0.0
  0
LINE
  5
22DA
100
AcDbEntity
  8
0
 62
     0
100
AcDbLine
 10
-1830.701169
 20
-1453.79982
 30
0.0
 11
-1826.92378
 21
-1450.022431
 31
0.0
  0
LINE
  5
22DB
100
AcDbEntity
  8
0
 62
     0
100
AcDbLine
 10
-1830.937852
 20
-1453.767095
 30
0.0
 11
-1827.191525
 21
-1450.020768
 31
0.0
  0
LINE
  5
22DC
100
AcDbEntity
  8
0
 62
     0
100
AcDbLine
 10
-1831.175963
 20
-1453.735799
 30
0.0
 11
-1827.460932
 21
-1450.020768
 31
0.0
  0
LINE
  5
22DD
100
AcDbEntity
  8
0
 62
     0
100
AcDbLine
 10
-1831.415309
 20
-1453.705737
 30
0.0
 11
-1827.73034
 21
-1450.020768
 31
0.0
  0
LINE
  5
22DE
100
AcDbEntity
  8
0
 62
     0
100
AcDbLine
 10
-1831.655697
 20
-1453.676716
 30
0.0
 11
-1827.999748
 21
-1450.020768
 31
0.0
  0
LINE
  5
22DF
100
AcDbEntity
  8
0
 62
     0
100
AcDbLine
 10
-1831.896932
 20
-1453.648544
 30
0.0
 11
-1828.269155
 21
-1450.020768
 31
0.0
  0
LINE
  5
22E0
100
AcDbEntity
  8
0
 62
     0
100
AcDbLine
 10
-1832.138822
 20
-1453.621027
 30
0.0
 11
-1828.538563
 21
-1450.020768
 31
0.0
  0
LINE
  5
22E1
100
AcDbEntity
  8
0
 62
     0
100
AcDbLine
 10
-1832.381175
 20
-1453.593972
 30
0.0
 11
-1828.807971
 21
-1450.020768
 31
0.0
  0
LINE
  5
22E2
100
AcDbEntity
  8
0
 62
     0
100
AcDbLine
 10
-1832.623798
 20
-1453.567187
 30
0.0
 11
-1829.077379
 21
-1450.020768
 31
0.0
  0
LINE
  5
22E3
100
AcDbEntity
  8
0
 62
     0
100
AcDbLine
 10
-1832.721673
 20
-1453.395655
 30
0.0
 11
-1829.346786
 21
-1450.020768
 31
0.0
  0
LINE
  5
22E4
100
AcDbEntity
  8
0
 62
     0
100
AcDbLine
 10
-1832.721673
 20
-1453.126247
 30
0.0
 11
-1829.616194
 21
-1450.020768
 31
0.0
  0
LINE
  5
22E5
100
AcDbEntity
  8
0
 62
     0
100
AcDbLine
 10
-1832.721673
 20
-1452.856839
 30
0.0
 11
-1829.885602
 21
-1450.020768
 31
0.0
  0
LINE
  5
22E6
100
AcDbEntity
  8
0
 62
     0
100
AcDbLine
 10
-1832.721673
 20
-1452.587432
 30
0.0
 11
-1830.155009
 21
-1450.020768
 31
0.0
  0
LINE
  5
22E7
100
AcDbEntity
  8
0
 62
     0
100
AcDbLine
 10
-1832.721673
 20
-1452.318024
 30
0.0
 11
-1830.424417
 21
-1450.020768
 31
0.0
  0
LINE
  5
22E8
100
AcDbEntity
  8
0
 62
     0
100
AcDbLine
 10
-1832.721673
 20
-1452.048616
 30
0.0
 11
-1830.693825
 21
-1450.020768
 31
0.0
  0
LINE
  5
22E9
100
AcDbEntity
  8
0
 62
     0
100
AcDbLine
 10
-1832.721673
 20
-1451.779209
 30
0.0
 11
-1830.963232
 21
-1450.020768
 31
0.0
  0
LINE
  5
22EA
100
AcDbEntity
  8
0
 62
     0
100
AcDbLine
 10
-1832.721673
 20
-1451.509801
 30
0.0
 11
-1831.23264
 21
-1450.020768
 31
0.0
  0
LINE
  5
22EB
100
AcDbEntity
  8
0
 62
     0
100
AcDbLine
 10
-1832.721673
 20
-1451.240393
 30
0.0
 11
-1831.502048
 21
-1450.020768
 31
0.0
  0
LINE
  5
22EC
100
AcDbEntity
  8
0
 62
     0
100
AcDbLine
 10
-1820.483438
 20
-1467.020557
 30
0.0
 11
-1820.23355
 21
-1466.77067
 31
0.0
  0
LINE
  5
22ED
100
AcDbEntity
  8
0
 62
     0
100
AcDbLine
 10
-1820.355944
 20
-1467.162471
 30
0.0
 11
-1820.176618
 21
-1466.983145
 31
0.0
  0
LINE
  5
22EE
100
AcDbEntity
  8
0
 62
     0
100
AcDbLine
 10
-1820.227689
 20
-1467.303623
 30
0.0
 11
-1820.119685
 21
-1467.19562
 31
0.0
  0
LINE
  5
22EF
100
AcDbEntity
  8
0
 62
     0
100
AcDbLine
 10
-1820.098706
 20
-1467.444048
 30
0.0
 11
-1820.062753
 21
-1467.408095
 31
0.0
  0
LINE
  5
22F0
100
AcDbEntity
  8
0
 62
     0
100
AcDbLine
 10
-1801.105047
 20
-1451.683282
 30
0.0
 11
-1799.757178
 21
-1450.335413
 31
0.0
  0
LINE
  5
22F1
100
AcDbEntity
  8
0
 62
     0
100
AcDbLine
 10
-1801.285315
 20
-1452.132957
 30
0.0
 11
-1799.307503
 21
-1450.155145
 31
0.0
  0
LINE
  5
22F2
100
AcDbEntity
  8
0
 62
     0
100
AcDbLine
 10
-1801.387091
 20
-1452.504141
 30
0.0
 11
-1798.951172
 21
-1450.068221
 31
0.0
  0
LINE
  5
22F3
100
AcDbEntity
  8
0
 62
     0
100
AcDbLine
 10
-1801.485701
 20
-1452.872159
 30
0.0
 11
-1798.642603
 21
-1450.029061
 31
0.0
  0
LINE
  5
22F4
100
AcDbEntity
  8
0
 62
     0
100
AcDbLine
 10
-1801.584311
 20
-1453.240176
 30
0.0
 11
-1798.364903
 21
-1450.020768
 31
0.0
  0
LINE
  5
22F5
100
AcDbEntity
  8
0
 62
     0
100
AcDbLine
 10
-1801.682921
 20
-1453.608194
 30
0.0
 11
-1798.095495
 21
-1450.020768
 31
0.0
  0
LINE
  5
22F6
100
AcDbEntity
  8
0
 62
     0
100
AcDbLine
 10
-1801.781531
 20
-1453.976212
 30
0.0
 11
-1797.826087
 21
-1450.020768
 31
0.0
  0
LINE
  5
22F7
100
AcDbEntity
  8
0
 62
     0
100
AcDbLine
 10
-1801.880141
 20
-1454.344229
 30
0.0
 11
-1797.55668
 21
-1450.020768
 31
0.0
  0
LINE
  5
22F8
100
AcDbEntity
  8
0
 62
     0
100
AcDbLine
 10
-1801.978751
 20
-1454.712247
 30
0.0
 11
-1797.287272
 21
-1450.020768
 31
0.0
  0
LINE
  5
22F9
100
AcDbEntity
  8
0
 62
     0
100
AcDbLine
 10
-1802.077361
 20
-1455.080265
 30
0.0
 11
-1797.017864
 21
-1450.020768
 31
0.0
  0
LINE
  5
22FA
100
AcDbEntity
  8
0
 62
     0
100
AcDbLine
 10
-1802.175972
 20
-1455.448283
 30
0.0
 11
-1796.748456
 21
-1450.020768
 31
0.0
  0
LINE
  5
22FB
100
AcDbEntity
  8
0
 62
     0
100
AcDbLine
 10
-1802.274582
 20
-1455.8163
 30
0.0
 11
-1796.479049
 21
-1450.020768
 31
0.0
  0
LINE
  5
22FC
100
AcDbEntity
  8
0
 62
     0
100
AcDbLine
 10
-1802.373192
 20
-1456.184318
 30
0.0
 11
-1796.209641
 21
-1450.020768
 31
0.0
  0
LINE
  5
22FD
100
AcDbEntity
  8
0
 62
     0
100
AcDbLine
 10
-1802.471802
 20
-1456.552336
 30
0.0
 11
-1795.940233
 21
-1450.020768
 31
0.0
  0
LINE
  5
22FE
100
AcDbEntity
  8
0
 62
     0
100
AcDbLine
 10
-1802.570412
 20
-1456.920354
 30
0.0
 11
-1795.670826
 21
-1450.020768
 31
0.0
  0
LINE
  5
22FF
100
AcDbEntity
  8
0
 62
     0
100
AcDbLine
 10
-1802.669022
 20
-1457.288371
 30
0.0
 11
-1795.401418
 21
-1450.020768
 31
0.0
  0
LINE
  5
2300
100
AcDbEntity
  8
0
 62
     0
100
AcDbLine
 10
-1802.767632
 20
-1457.656389
 30
0.0
 11
-1795.13201
 21
-1450.020768
 31
0.0
  0
LINE
  5
2301
100
AcDbEntity
  8
0
 62
     0
100
AcDbLine
 10
-1802.866242
 20
-1458.024407
 30
0.0
 11
-1794.862603
 21
-1450.020768
 31
0.0
  0
LINE
  5
2302
100
AcDbEntity
  8
0
 62
     0
100
AcDbLine
 10
-1802.964852
 20
-1458.392425
 30
0.0
 11
-1794.593195
 21
-1450.020768
 31
0.0
  0
LINE
  5
2303
100
AcDbEntity
  8
0
 62
     0
100
AcDbLine
 10
-1803.063462
 20
-1458.760442
 30
0.0
 11
-1794.323787
 21
-1450.020768
 31
0.0
  0
LINE
  5
2304
100
AcDbEntity
  8
0
 62
     0
100
AcDbLine
 10
-1803.162072
 20
-1459.12846
 30
0.0
 11
-1794.05438
 21
-1450.020768
 31
0.0
  0
LINE
  5
2305
100
AcDbEntity
  8
0
 62
     0
100
AcDbLine
 10
-1803.260682
 20
-1459.496478
 30
0.0
 11
-1800.246674
 21
-1456.482469
 31
0.0
  0
LINE
  5
2306
100
AcDbEntity
  8
0
 62
     0
100
AcDbLine
 10
-1799.001608
 20
-1455.237404
 30
0.0
 11
-1793.784972
 21
-1450.020768
 31
0.0
  0
LINE
  5
2307
100
AcDbEntity
  8
0
 62
     0
100
AcDbLine
 10
-1803.359292
 20
-1459.864496
 30
0.0
 11
-1800.522638
 21
-1457.027842
 31
0.0
  0
LINE
  5
2308
100
AcDbEntity
  8
0
 62
     0
100
AcDbLine
 10
-1798.470096
 20
-1454.975299
 30
0.0
 11
-1793.618619
 21
-1450.123822
 31
0.0
  0
LINE
  5
2309
100
AcDbEntity
  8
0
 62
     0
100
AcDbLine
 10
-1803.457902
 20
-1460.232513
 30
0.0
 11
-1800.698107
 21
-1457.472718
 31
0.0
  0
LINE
  5
230A
100
AcDbEntity
  8
0
 62
     0
100
AcDbLine
 10
-1798.044563
 20
-1454.819174
 30
0.0
 11
-1793.483915
 21
-1450.258526
 31
0.0
  0
LINE
  5
230B
100
AcDbEntity
  8
0
 62
     0
100
AcDbLine
 10
-1803.556512
 20
-1460.600531
 30
0.0
 11
-1800.831147
 21
-1457.875166
 31
0.0
  0
LINE
  5
230C
100
AcDbEntity
  8
0
 62
     0
100
AcDbLine
 10
-1797.665446
 20
-1454.709465
 30
0.0
 11
-1793.349211
 21
-1450.39323
 31
0.0
  0
LINE
  5
230D
100
AcDbEntity
  8
0
 62
     0
100
AcDbLine
 10
-1803.655122
 20
-1460.968549
 30
0.0
 11
-1800.940342
 21
-1458.253769
 31
0.0
  0
LINE
  5
230E
100
AcDbEntity
  8
0
 62
     0
100
AcDbLine
 10
-1797.313822
 20
-1454.627248
 30
0.0
 11
-1793.214507
 21
-1450.527934
 31
0.0
  0
LINE
  5
230F
100
AcDbEntity
  8
0
 62
     0
100
AcDbLine
 10
-1803.753732
 20
-1461.336566
 30
0.0
 11
-1801.034641
 21
-1458.617475
 31
0.0
  0
LINE
  5
2310
100
AcDbEntity
  8
0
 62
     0
100
AcDbLine
 10
-1796.980744
 20
-1454.563578
 30
0.0
 11
-1793.079803
 21
-1450.662638
 31
0.0
  0
LINE
  5
2311
100
AcDbEntity
  8
0
 62
     0
100
AcDbLine
 10
-1803.852342
 20
-1461.704584
 30
0.0
 11
-1801.119309
 21
-1458.971551
 31
0.0
  0
LINE
  5
2312
100
AcDbEntity
  8
0
 62
     0
100
AcDbLine
 10
-1796.661135
 20
-1454.513377
 30
0.0
 11
-1792.9451
 21
-1450.797341
 31
0.0
  0
LINE
  5
2313
100
AcDbEntity
  8
0
 62
     0
100
AcDbLine
 10
-1803.950952
 20
-1462.072602
 30
0.0
 11
-1801.197892
 21
-1459.319541
 31
0.0
  0
LINE
  5
2314
100
AcDbEntity
  8
0
 62
     0
100
AcDbLine
 10
-1796.351777
 20
-1454.473427
 30
0.0
 11
-1792.810396
 21
-1450.932045
 31
0.0
  0
LINE
  5
2315
100
AcDbEntity
  8
0
 62
     0
100
AcDbLine
 10
-1804.049563
 20
-1462.44062
 30
0.0
 11
-1801.273054
 21
-1459.664111
 31
0.0
  0
LINE
  5
2316
100
AcDbEntity
  8
0
 62
     0
100
AcDbLine
 10
-1796.05047
 20
-1454.441527
 30
0.0
 11
-1792.721673
 21
-1451.11273
 31
0.0
  0
LINE
  5
2317
100
AcDbEntity
  8
0
 62
     0
100
AcDbLine
 10
-1804.148173
 20
-1462.808637
 30
0.0
 11
-1801.34701
 21
-1460.007475
 31
0.0
  0
LINE
  5
2318
100
AcDbEntity
  8
0
 62
     0
100
AcDbLine
 10
-1795.755627
 20
-1454.416091
 30
0.0
 11
-1792.721673
 21
-1451.382138
 31
0.0
  0
LINE
  5
2319
100
AcDbEntity
  8
0
 62
     0
100
AcDbLine
 10
-1804.246783
 20
-1463.176655
 30
0.0
 11
-1801.421789
 21
-1460.351661
 31
0.0
  0
LINE
  5
231A
100
AcDbEntity
  8
0
 62
     0
100
AcDbLine
 10
-1795.46605
 20
-1454.395923
 30
0.0
 11
-1792.721673
 21
-1451.651546
 31
0.0
  0
LINE
  5
231B
100
AcDbEntity
  8
0
 62
     0
100
AcDbLine
 10
-1804.345393
 20
-1463.544673
 30
0.0
 11
-1801.499435
 21
-1460.698715
 31
0.0
  0
LINE
  5
231C
100
AcDbEntity
  8
0
 62
     0
100
AcDbLine
 10
-1795.180807
 20
-1454.380087
 30
0.0
 11
-1792.721673
 21
-1451.920953
 31
0.0
  0
LINE
  5
231D
100
AcDbEntity
  8
0
 62
     0
100
AcDbLine
 10
-1804.444003
 20
-1463.912691
 30
0.0
 11
-1801.582216
 21
-1461.050904
 31
0.0
  0
LINE
  5
231E
100
AcDbEntity
  8
0
 62
     0
100
AcDbLine
 10
-1794.899147
 20
-1454.367834
 30
0.0
 11
-1792.721673
 21
-1452.190361
 31
0.0
  0
LINE
  5
231F
100
AcDbEntity
  8
0
 62
     0
100
AcDbLine
 10
-1804.542613
 20
-1464.280708
 30
0.0
 11
-1801.672886
 21
-1461.410981
 31
0.0
  0
LINE
  5
2320
100
AcDbEntity
  8
0
 62
     0
100
AcDbLine
 10
-1794.620449
 20
-1454.358545
 30
0.0
 11
-1792.721673
 21
-1452.459769
 31
0.0
  0
LINE
  5
2321
100
AcDbEntity
  8
0
 62
     0
100
AcDbLine
 10
-1804.641223
 20
-1464.648726
 30
0.0
 11
-1801.775111
 21
-1461.782615
 31
0.0
  0
LINE
  5
2322
100
AcDbEntity
  8
0
 62
     0
100
AcDbLine
 10
-1794.344192
 20
-1454.351695
 30
0.0
 11
-1792.721673
 21
-1452.729177
 31
0.0
  0
LINE
  5
2323
100
AcDbEntity
  8
0
 62
     0
100
AcDbLine
 10
-1804.739833
 20
-1465.016744
 30
0.0
 11
-1801.894281
 21
-1462.171191
 31
0.0
  0
LINE
  5
2324
100
AcDbEntity
  8
0
 62
     0
100
AcDbLine
 10
-1794.069921
 20
-1454.346832
 30
0.0
 11
-1792.721673
 21
-1452.998584
 31
0.0
  0
LINE
  5
2325
100
AcDbEntity
  8
0
 62
     0
100
AcDbLine
 10
-1804.838443
 20
-1465.384762
 30
0.0
 11
-1802.039262
 21
-1462.58558
 31
0.0
  0
LINE
  5
2326
100
AcDbEntity
  8
0
 62
     0
100
AcDbLine
 10
-1793.797238
 20
-1454.343557
 30
0.0
 11
-1792.721673
 21
-1453.267992
 31
0.0
  0
LINE
  5
2327
100
AcDbEntity
  8
0
 62
     0
100
AcDbLine
 10
-1804.937053
 20
-1465.752779
 30
0.0
 11
-1802.22256
 21
-1463.038287
 31
0.0
  0
LINE
  5
2328
100
AcDbEntity
  8
0
 62
     0
100
AcDbLine
 10
-1793.525783
 20
-1454.341509
 30
0.0
 11
-1792.721673
 21
-1453.5374
 31
0.0
  0
LINE
  5
2329
100
AcDbEntity
  8
0
 62
     0
100
AcDbLine
 10
-1805.035663
 20
-1466.120797
 30
0.0
 11
-1802.459578
 21
-1463.544712
 31
0.0
  0
LINE
  5
232A
100
AcDbEntity
  8
0
 62
     0
100
AcDbLine
 10
-1793.255224
 20
-1454.340358
 30
0.0
 11
-1792.721673
 21
-1453.806807
 31
0.0
  0
LINE
  5
232B
100
AcDbEntity
  8
0
 62
     0
100
AcDbLine
 10
-1805.134273
 20
-1466.488815
 30
0.0
 11
-1802.777495
 21
-1464.132037
 31
0.0
  0
LINE
  5
232C
100
AcDbEntity
  8
0
 62
     0
100
AcDbLine
 10
-1792.985249
 20
-1454.339791
 30
0.0
 11
-1792.721673
 21
-1454.076215
 31
0.0
  0
LINE
  5
232D
100
AcDbEntity
  8
0
 62
     0
100
AcDbLine
 10
-1805.232883
 20
-1466.856833
 30
0.0
 11
-1803.234548
 21
-1464.858497
 31
0.0
  0
LINE
  5
232E
100
AcDbEntity
  8
0
 62
     0
100
AcDbLine
 10
-1805.331493
 20
-1467.22485
 30
0.0
 11
-1804.004043
 21
-1465.8974
 31
0.0
  0
ENDBLK
  5
232F
100
AcDbEntity
  8
0
100
AcDbBlockEnd
  0
BLOCK
  5
2365
100
AcDbEntity
  8
0
100
AcDbBlockBegin
  2
*D35
 70
    65
 10
0.0
 20
0.0
 30
0.0
  3
*D35
  1

  0
LINE
  5
2366
100
AcDbEntity
  8
0
  6
BYBLOCK
 62
     0
100
AcDbLine
 10
-1906.147649
 20
-1410.48965
 30
0.0
 11
-1930.606829
 21
-1410.48965
 31
0.0
  0
LINE
  5
2367
100
AcDbEntity
  8
0
  6
BYBLOCK
 62
     0
100
AcDbLine
 10
-1925.147649
 20
-1433.419121
 30
0.0
 11
-1930.606829
 21
-1433.419121
 31
0.0
  0
LINE
  5
2368
100
AcDbEntity
  8
0
  6
BYBLOCK
 62
     0
100
AcDbLine
 10
-1929.356829
 20
-1407.98965
 30
0.0
 11
-1929.356829
 21
-1405.48965
 31
0.0
  0
LINE
  5
2369
100
AcDbEntity
  8
0
  6
BYBLOCK
 62
     0
100
AcDbLine
 10
-1929.356829
 20
-1435.919121
 30
0.0
 11
-1929.356829
 21
-1438.419121
 31
0.0
  0
SOLID
  5
236A
100
AcDbEntity
  8
0
  6
BYBLOCK
 62
     0
100
AcDbTrace
 10
-1929.773495
 20
-1407.98965
 30
0.0
 11
-1928.940162
 21
-1407.98965
 31
0.0
 12
-1929.356829
 22
-1410.48965
 32
0.0
 13
-1929.356829
 23
-1410.48965
 33
0.0
  0
SOLID
  5
236B
100
AcDbEntity
  8
0
  6
BYBLOCK
 62
     0
100
AcDbTrace
 10
-1929.773495
 20
-1435.919121
 30
0.0
 11
-1928.940162
 21
-1435.919121
 31
0.0
 12
-1929.356829
 22
-1433.419121
 32
0.0
 13
-1929.356829
 23
-1433.419121
 33
0.0
  0
MTEXT
  5
236C
100
AcDbEntity
  8
0
  6
BYBLOCK
 62
     0
100
AcDbMText
 10
-1931.731829
 20
-1421.954385
 30
0.0
 40
3.5
 41
0.0
 71
     5
 72
     1
  1
\A2;22.93{\H2.800000;±0.01}
 11
0.0
 21
1.0
 31
0.0
  0
POINT
  5
236D
100
AcDbEntity
  8
DEFPOINTS
  6
BYBLOCK
 62
     0
100
AcDbPoint
 10
-1905.522649
 20
-1410.48965
 30
0.0
  0
POINT
  5
236E
100
AcDbEntity
  8
DEFPOINTS
  6
BYBLOCK
 62
     0
100
AcDbPoint
 10
-1924.522649
 20
-1433.419121
 30
0.0
  0
POINT
  5
236F
100
AcDbEntity
  8
DEFPOINTS
  6
BYBLOCK
 62
     0
100
AcDbPoint
 10
-1929.356829
 20
-1433.419121
 30
0.0
  0
ENDBLK
  5
2370
100
AcDbEntity
  8
0
100
AcDbBlockEnd
  0
BLOCK
  5
238B
100
AcDbEntity
  8
0
100
AcDbBlockBegin
  2
*D36
 70
    65
 10
0.0
 20
0.0
 30
0.0
  3
*D36
  1

  0
LINE
  5
238C
100
AcDbEntity
  8
0
  6
BYBLOCK
 62
     0
100
AcDbLine
 10
-1916.875435
 20
-1430.720733
 30
0.0
 11
-1894.169862
 21
-1420.258567
 31
0.0
  0
SOLID
  5
238D
100
AcDbEntity
  8
0
  6
BYBLOCK
 62
     0
100
AcDbTrace
 10
-1917.049805
 20
-1430.342307
 30
0.0
 11
-1916.701066
 21
-1431.099159
 31
0.0
 12
-1919.145993
 22
-1431.76695
 32
0.0
 13
-1919.145993
 23
-1431.76695
 33
0.0
  0
SOLID
  5
238E
100
AcDbEntity
  8
0
  6
BYBLOCK
 62
     0
100
AcDbTrace
 10
-1894.344231
 20
-1419.88014
 30
0.0
 11
-1893.995492
 21
-1420.636993
 31
0.0
 12
-1891.899305
 22
-1419.21235
 32
0.0
 13
-1891.899305
 23
-1419.21235
 33
0.0
  0
MTEXT
  5
238F
100
AcDbEntity
  8
0
  6
BYBLOCK
 62
     0
100
AcDbMText
 10
-1906.516554
 20
-1423.33262
 30
0.0
 40
3.5
 41
0.0
 71
     5
 72
     1
  1
\A1;{\U+220530h7}
 11
0.908223
 21
0.418487
 31
0.0
  0
POINT
  5
2390
100
AcDbEntity
  8
DEFPOINTS
  6
BYBLOCK
 62
     0
100
AcDbPoint
 10
-1891.899305
 20
-1419.21235
 30
0.0
  0
POINT
  5
2391
100
AcDbEntity
  8
DEFPOINTS
  6
BYBLOCK
 62
     0
100
AcDbPoint
 10
-1919.145993
 20
-1431.76695
 30
0.0
  0
ENDBLK
  5
2392
100
AcDbEntity
  8
0
100
AcDbBlockEnd
  0
BLOCK
  5
2427
100
AcDbEntity
  8
0
100
AcDbBlockBegin
  2
*D37
 70
    65
 10
0.0
 20
0.0
 30
0.0
  3
*D37
  1

  0
LINE
  5
2428
100
AcDbEntity
  8
0
  6
BYBLOCK
 62
     0
100
AcDbLine
 10
-1586.118728
 20
-1448.895768
 30
0.0
 11
-1586.118728
 21
-1433.63762
 31
0.0
  0
LINE
  5
2429
100
AcDbEntity
  8
0
  6
BYBLOCK
 62
     0
100
AcDbLine
 10
-1562.782528
 20
-1448.895768
 30
0.0
 11
-1562.782528
 21
-1433.63762
 31
0.0
  0
LINE
  5
242A
100
AcDbEntity
  8
0
  6
BYBLOCK
 62
     0
100
AcDbLine
 10
-1588.618728
 20
-1434.88762
 30
0.0
 11
-1591.118728
 21
-1434.88762
 31
0.0
  0
LINE
  5
242B
100
AcDbEntity
  8
0
  6
BYBLOCK
 62
     0
100
AcDbLine
 10
-1560.282528
 20
-1434.88762
 30
0.0
 11
-1557.782528
 21
-1434.88762
 31
0.0
  0
SOLID
  5
242C
100
AcDbEntity
  8
0
  6
BYBLOCK
 62
     0
100
AcDbTrace
 10
-1588.618728
 20
-1434.470953
 30
0.0
 11
-1588.618728
 21
-1435.304287
 31
0.0
 12
-1586.118728
 22
-1434.88762
 32
0.0
 13
-1586.118728
 23
-1434.88762
 33
0.0
  0
SOLID
  5
242D
100
AcDbEntity
  8
0
  6
BYBLOCK
 62
     0
100
AcDbTrace
 10
-1560.282528
 20
-1434.470953
 30
0.0
 11
-1560.282528
 21
-1435.304287
 31
0.0
 12
-1562.782528
 22
-1434.88762
 32
0.0
 13
-1562.782528
 23
-1434.88762
 33
0.0
  0
MTEXT
  5
242E
100
AcDbEntity
  8
0
  6
BYBLOCK
 62
     0
100
AcDbMText
 10
-1574.450628
 20
-1431.134851
 30
0.0
 40
3.5
 41
0.0
 71
     5
 72
     1
  1
\A2;23.34{\H2.800000;\S-0.1^  0;}
  0
POINT
  5
242F
100
AcDbEntity
  8
DEFPOINTS
  6
BYBLOCK
 62
     0
100
AcDbPoint
 10
-1586.118728
 20
-1449.520768
 30
0.0
  0
POINT
  5
2430
100
AcDbEntity
  8
DEFPOINTS
  6
BYBLOCK
 62
     0
100
AcDbPoint
 10
-1562.782528
 20
-1449.520768
 30
0.0
  0
POINT
  5
2431
100
AcDbEntity
  8
DEFPOINTS
  6
BYBLOCK
 62
     0
100
AcDbPoint
 10
-1562.782528
 20
-1434.88762
 30
0.0
  0
ENDBLK
  5
2432
100
AcDbEntity
  8
0
100
AcDbBlockEnd
  0
BLOCK
  5
23F3
100
AcDbEntity
  8
0
100
AcDbBlockBegin
  2
*D38
 70
    65
 10
0.0
 20
0.0
 30
0.0
  3
*D38
  1

  0
LINE
  5
23F4
100
AcDbEntity
  8
0
  6
BYBLOCK
 62
     0
100
AcDbLine
 10
-1562.620766
 20
-1448.917064
 30
0.0
 11
-1555.305899
 21
-1421.617611
 31
0.0
  0
LINE
  5
23F5
100
AcDbEntity
  8
0
  6
BYBLOCK
 62
     0
100
AcDbLine
 10
-1586.28049
 20
-1448.917064
 30
0.0
 11
-1593.595357
 21
-1421.617611
 31
0.0
  0
ARC
  5
23F6
100
AcDbEntity
  8
0
  6
BYBLOCK
 62
     0
100
AcDbCircle
 10
-1574.450628
 20
-1493.066711
 30
0.0
 40
72.719551
100
AcDbArc
 50
76.969849
 51
103.030152
  0
SOLID
  5
23F7
100
AcDbEntity
  8
0
  6
BYBLOCK
 62
     0
100
AcDbTrace
 10
-1557.954096
 20
-1421.815312
 30
0.0
 11
-1558.155911
 21
-1422.623839
 31
0.0
 12
-1555.629423
 22
-1422.825018
 32
0.0
 13
-1555.629423
 23
-1422.825018
 33
0.0
  0
SOLID
  5
23F8
100
AcDbEntity
  8
0
  6
BYBLOCK
 62
     0
100
AcDbTrace
 10
-1590.745345
 20
-1422.623839
 30
0.0
 11
-1590.94716
 21
-1421.815312
 31
0.0
 12
-1593.271833
 22
-1422.825019
 32
0.0
 13
-1593.271833
 23
-1422.825019
 33
0.0
  0
MTEXT
  5
23F9
100
AcDbEntity
  8
0
  6
BYBLOCK
 62
     0
100
AcDbMText
 10
-1574.450628
 20
-1417.97216
 30
0.0
 40
3.5
 41
0.0
 71
     5
 72
     1
  1
\A1;30°
  0
POINT
  5
23FA
100
AcDbEntity
  8
DEFPOINTS
  6
BYBLOCK
 62
     0
100
AcDbPoint
 10
-1580.788554
 20
-1420.62388
 30
0.0
  0
POINT
  5
23FB
100
AcDbEntity
  8
DEFPOINTS
  6
BYBLOCK
 62
     0
100
AcDbPoint
 10
-1586.118728
 20
-1449.520768
 30
0.0
  0
POINT
  5
23FC
100
AcDbEntity
  8
DEFPOINTS
  6
BYBLOCK
 62
     0
100
AcDbPoint
 10
-1562.782528
 20
-1449.520768
 30
0.0
  0
POINT
  5
23FD
100
AcDbEntity
  8
DEFPOINTS
  6
BYBLOCK
 62
     0
100
AcDbPoint
 10
-1569.620999
 20
-1475.04229
 30
0.0
  0
POINT
  5
23FE
100
AcDbEntity
  8
DEFPOINTS
  6
BYBLOCK
 62
     0
100
AcDbPoint
 10
-1579.280257
 20
-1475.04229
 30
0.0
  0
ENDBLK
  5
23FF
100
AcDbEntity
  8
0
100
AcDbBlockEnd
  0
BLOCK
  5
2402
100
AcDbEntity
  8
0
100
AcDbBlockBegin
  2
*D39
 70
    65
 10
0.0
 20
0.0
 30
0.0
  3
*D39
  1

  0
LINE
  5
2403
100
AcDbEntity
  8
0
  6
BYBLOCK
 62
     0
100
AcDbLine
 10
-1574.450628
 20
-1473.748194
 30
0.0
 11
-1573.30663
 21
-1475.971091
 31
0.0
  0
LINE
  5
2404
100
AcDbEntity
  8
0
  6
BYBLOCK
 62
     0
100
AcDbLine
 10
-1572.162632
 20
-1478.193987
 30
0.0
 11
-1568.259552
 21
-1485.77804
 31
0.0
  0
SOLID
  5
2405
100
AcDbEntity
  8
0
  6
BYBLOCK
 62
     0
100
AcDbTrace
 10
-1572.936147
 20
-1475.780424
 30
0.0
 11
-1573.677112
 21
-1476.161757
 31
0.0
 12
-1572.162632
 22
-1478.193987
 32
0.0
 13
-1572.162632
 23
-1478.193987
 33
0.0
  0
MTEXT
  5
2406
100
AcDbEntity
  8
0
  6
BYBLOCK
 62
     0
100
AcDbMText
 10
-1567.527341
 20
-1482.010664
 30
0.0
 40
3.5
 41
0.0
 71
     5
 72
     1
  1
\A1;R5
 11
0.457599
 21
-0.889159
 31
0.0
  0
POINT
  5
2407
100
AcDbEntity
  8
DEFPOINTS
  6
BYBLOCK
 62
     0
100
AcDbPoint
 10
-1572.162632
 20
-1478.193987
 30
0.0
  0
POINT
  5
2408
100
AcDbEntity
  8
DEFPOINTS
  6
BYBLOCK
 62
     0
100
AcDbPoint
 10
-1574.450628
 20
-1473.748194
 30
0.0
  0
ENDBLK
  5
2409
100
AcDbEntity
  8
0
100
AcDbBlockEnd
  0
BLOCK
  5
255D
100
AcDbEntity
  8
0
100
AcDbBlockBegin
  2
*D40
 70
    65
 10
0.0
 20
0.0
 30
0.0
  3
*D40
  1

  0
LINE
  5
255E
100
AcDbEntity
  8
0
  6
BYBLOCK
 62
     0
100
AcDbLine
 10
-1670.222395
 20
-1471.116735
 30
0.0
 11
-1658.666951
 21
-1461.55265
 31
0.0
  0
SOLID
  5
255F
100
AcDbEntity
  8
0
  6
BYBLOCK
 62
     0
100
AcDbTrace
 10
-1670.488064
 20
-1470.79575
 30
0.0
 11
-1669.956726
 21
-1471.437719
 31
0.0
 12
-1672.148302
 22
-1472.710749
 32
0.0
 13
-1672.148302
 23
-1472.710749
 33
0.0
  0
SOLID
  5
2560
100
AcDbEntity
  8
0
  6
BYBLOCK
 62
     0
100
AcDbTrace
 10
-1658.93262
 20
-1461.231665
 30
0.0
 11
-1658.401282
 21
-1461.873635
 31
0.0
 12
-1656.741044
 22
-1459.958636
 32
0.0
 13
-1656.741044
 23
-1459.958636
 33
0.0
  0
MTEXT
  5
2561
100
AcDbEntity
  8
0
  6
BYBLOCK
 62
     0
100
AcDbMText
 10
-1665.958986
 20
-1464.505081
 30
0.0
 40
3.5
 41
0.0
 71
     5
 72
     1
  1
\A1;{\U+220520h7}
 11
0.770363
 21
0.637606
 31
0.0
  0
POINT
  5
2562
100
AcDbEntity
  8
DEFPOINTS
  6
BYBLOCK
 62
     0
100
AcDbPoint
 10
-1656.741044
 20
-1459.958636
 30
0.0
  0
POINT
  5
2563
100
AcDbEntity
  8
DEFPOINTS
  6
BYBLOCK
 62
     0
100
AcDbPoint
 10
-1672.148302
 20
-1472.710749
 30
0.0
  0
ENDBLK
  5
2564
100
AcDbEntity
  8
0
100
AcDbBlockEnd
  0
BLOCK
  5
258E
100
AcDbEntity
  8
0
100
AcDbBlockBegin
  2
*D41
 70
    65
 10
0.0
 20
0.0
 30
0.0
  3
*D41
  1

  0
LINE
  5
258F
100
AcDbEntity
  8
0
  6
BYBLOCK
 62
     0
100
AcDbLine
 10
-1684.319673
 20
-1461.425782
 30
0.0
 11
-1686.117341
 21
-1461.425782
 31
0.0
  0
LINE
  5
2590
100
AcDbEntity
  8
0
  6
BYBLOCK
 62
     0
100
AcDbLine
 10
-1665.069673
 20
-1456.334692
 30
0.0
 11
-1686.117341
 21
-1456.334692
 31
0.0
  0
LINE
  5
2591
100
AcDbEntity
  8
0
  6
BYBLOCK
 62
     0
100
AcDbLine
 10
-1684.867341
 20
-1463.925782
 30
0.0
 11
-1684.867341
 21
-1466.425782
 31
0.0
  0
LINE
  5
2592
100
AcDbEntity
  8
0
  6
BYBLOCK
 62
     0
100
AcDbLine
 10
-1684.867341
 20
-1453.834692
 30
0.0
 11
-1684.867341
 21
-1434.055239
 31
0.0
  0
SOLID
  5
2593
100
AcDbEntity
  8
0
  6
BYBLOCK
 62
     0
100
AcDbTrace
 10
-1685.284008
 20
-1463.925782
 30
0.0
 11
-1684.450675
 21
-1463.925782
 31
0.0
 12
-1684.867341
 22
-1461.425782
 32
0.0
 13
-1684.867341
 23
-1461.425782
 33
0.0
  0
SOLID
  5
2594
100
AcDbEntity
  8
0
  6
BYBLOCK
 62
     0
100
AcDbTrace
 10
-1685.284008
 20
-1453.834692
 30
0.0
 11
-1684.450675
 21
-1453.834692
 31
0.0
 12
-1684.867341
 22
-1456.334692
 32
0.0
 13
-1684.867341
 23
-1456.334692
 33
0.0
  0
MTEXT
  5
2595
100
AcDbEntity
  8
0
  6
BYBLOCK
 62
     0
100
AcDbMText
 10
-1688.62011
 20
-1442.694966
 30
0.0
 40
3.5
 41
0.0
 71
     5
 72
     1
  1
\A2;5.09{\H2.800000;\S+0.1^  0;}
 11
0.0
 21
1.0
 31
0.0
  0
POINT
  5
2596
100
AcDbEntity
  8
DEFPOINTS
  6
BYBLOCK
 62
     0
100
AcDbPoint
 10
-1683.694673
 20
-1461.425782
 30
0.0
  0
POINT
  5
2597
100
AcDbEntity
  8
DEFPOINTS
  6
BYBLOCK
 62
     0
100
AcDbPoint
 10
-1664.444673
 20
-1456.334692
 30
0.0
  0
POINT
  5
2598
100
AcDbEntity
  8
DEFPOINTS
  6
BYBLOCK
 62
     0
100
AcDbPoint
 10
-1684.867341
 20
-1456.334692
 30
0.0
  0
ENDBLK
  5
2599
100
AcDbEntity
  8
0
100
AcDbBlockEnd
  0
BLOCK
  5
25BE
100
AcDbEntity
  8
0
100
AcDbBlockBegin
  2
*D42
 70
    65
 10
0.0
 20
0.0
 30
0.0
  3
*D42
  1

  0
LINE
  5
25BF
100
AcDbEntity
  8
0
  6
BYBLOCK
 62
     0
100
AcDbLine
 10
-1554.575628
 20
-1449.520768
 30
0.0
 11
-1543.585164
 21
-1449.520768
 31
0.0
  0
LINE
  5
25C0
100
AcDbEntity
  8
0
  6
BYBLOCK
 62
     0
100
AcDbLine
 10
-1573.825628
 20
-1478.748194
 30
0.0
 11
-1543.585164
 21
-1478.748194
 31
0.0
  0
LINE
  5
25C1
100
AcDbEntity
  8
0
  6
BYBLOCK
 62
     0
100
AcDbLine
 10
-1544.835164
 20
-1452.020768
 30
0.0
 11
-1544.835164
 21
-1476.248194
 31
0.0
  0
SOLID
  5
25C2
100
AcDbEntity
  8
0
  6
BYBLOCK
 62
     0
100
AcDbTrace
 10
-1545.25183
 20
-1452.020768
 30
0.0
 11
-1544.418497
 21
-1452.020768
 31
0.0
 12
-1544.835164
 22
-1449.520768
 32
0.0
 13
-1544.835164
 23
-1449.520768
 33
0.0
  0
SOLID
  5
25C3
100
AcDbEntity
  8
0
  6
BYBLOCK
 62
     0
100
AcDbTrace
 10
-1545.25183
 20
-1476.248194
 30
0.0
 11
-1544.418497
 21
-1476.248194
 31
0.0
 12
-1544.835164
 22
-1478.748194
 32
0.0
 13
-1544.835164
 23
-1478.748194
 33
0.0
  0
MTEXT
  5
25C4
100
AcDbEntity
  8
0
  6
BYBLOCK
 62
     0
100
AcDbMText
 10
-1548.587933
 20
-1464.134481
 30
0.0
 40
3.5
 41
0.0
 71
     5
 72
     1
  1
\A2;29.23{\H2.800000;\S+0.1^  0;}
 11
0.0
 21
1.0
 31
0.0
  0
POINT
  5
25C5
100
AcDbEntity
  8
DEFPOINTS
  6
BYBLOCK
 62
     0
100
AcDbPoint
 10
-1555.200628
 20
-1449.520768
 30
0.0
  0
POINT
  5
25C6
100
AcDbEntity
  8
DEFPOINTS
  6
BYBLOCK
 62
     0
100
AcDbPoint
 10
-1574.450628
 20
-1478.748194
 30
0.0
  0
POINT
  5
25C7
100
AcDbEntity
  8
DEFPOINTS
  6
BYBLOCK
 62
     0
100
AcDbPoint
 10
-1544.835164
 20
-1478.748194
 30
0.0
  0
ENDBLK
  5
25C8
100
AcDbEntity
  8
0
100
AcDbBlockEnd
  0
BLOCK
  5
2619
100
AcDbEntity
  8
0
100
AcDbBlockBegin
  2
*D43
 70
    65
 10
0.0
 20
0.0
 30
0.0
  3
*D43
  1

  0
LINE
  5
261A
100
AcDbEntity
  8
0
  6
BYBLOCK
 62
     0
100
AcDbLine
 10
-1594.89257
 20
-1495.078826
 30
0.0
 11
-1608.827363
 21
-1481.144032
 31
0.0
  0
LINE
  5
261B
100
AcDbEntity
  8
0
  6
BYBLOCK
 62
     0
100
AcDbLine
 10
-1594.89257
 20
-1498.962709
 30
0.0
 11
-1608.827363
 21
-1512.897503
 31
0.0
  0
ARC
  5
261C
100
AcDbEntity
  8
0
  6
BYBLOCK
 62
     0
100
AcDbCircle
 10
-1592.950628
 20
-1497.020768
 30
0.0
 40
21.203095
100
AcDbArc
 50
141.759511
 51
218.240489
  0
SOLID
  5
261D
100
AcDbEntity
  8
0
  6
BYBLOCK
 62
     0
100
AcDbTrace
 10
-1609.915441
 20
-1483.620078
 30
0.0
 11
-1609.292471
 21
-1484.17357
 31
0.0
 12
-1607.94348
 22
-1482.027916
 32
0.0
 13
-1607.94348
 23
-1482.027916
 33
0.0
  0
SOLID
  5
261E
100
AcDbEntity
  8
0
  6
BYBLOCK
 62
     0
100
AcDbTrace
 10
-1609.292471
 20
-1509.867965
 30
0.0
 11
-1609.915441
 21
-1510.421457
 31
0.0
 12
-1607.94348
 22
-1512.01362
 32
0.0
 13
-1607.94348
 23
-1512.01362
 33
0.0
  0
MTEXT
  5
261F
100
AcDbEntity
  8
0
  6
BYBLOCK
 62
     0
100
AcDbMText
 10
-1616.528723
 20
-1497.020768
 30
0.0
 40
3.5
 41
0.0
 71
     5
 72
     1
  1
\A1;90°
 11
0.0
 21
1.0
 31
0.0
  0
POINT
  5
2620
100
AcDbEntity
  8
DEFPOINTS
  6
BYBLOCK
 62
     0
100
AcDbPoint
 10
-1613.431245
 20
-1491.533003
 30
0.0
  0
POINT
  5
2621
100
AcDbEntity
  8
DEFPOINTS
  6
BYBLOCK
 62
     0
100
AcDbPoint
 10
-1594.450628
 20
-1495.520768
 30
0.0
  0
POINT
  5
2622
100
AcDbEntity
  8
DEFPOINTS
  6
BYBLOCK
 62
     0
100
AcDbPoint
 10
-1594.450628
 20
-1498.520768
 30
0.0
  0
POINT
  5
2623
100
AcDbEntity
  8
DEFPOINTS
  6
BYBLOCK
 62
     0
100
AcDbPoint
 10
-1592.950628
 20
-1497.020768
 30
0.0
  0
POINT
  5
2624
100
AcDbEntity
  8
DEFPOINTS
  6
BYBLOCK
 62
     0
100
AcDbPoint
 10
-1592.950628
 20
-1497.020768
 30
0.0
  0
ENDBLK
  5
2625
100
AcDbEntity
  8
0
100
AcDbBlockEnd
  0
BLOCK
  5
2681
100
AcDbEntity
  8
0
100
AcDbBlockBegin
  2
*X44
 70
    65
 10
0.0
 20
0.0
 30
0.0
  3
*X44
  1

  0
LINE
  5
2683
100
AcDbEntity
  8
0
 62
     0
100
AcDbLine
 10
-1583.280017
 20
-1469.320567
 30
0.0
 11
-1581.334648
 21
-1467.375198
 31
0.0
  0
LINE
  5
2684
100
AcDbEntity
  8
0
 62
     0
100
AcDbLine
 10
-1583.401936
 20
-1469.173078
 30
0.0
 11
-1581.391581
 21
-1467.162723
 31
0.0
  0
LINE
  5
2685
100
AcDbEntity
  8
0
 62
     0
100
AcDbLine
 10
-1583.518109
 20
-1469.019843
 30
0.0
 11
-1581.448513
 21
-1466.950248
 31
0.0
  0
LINE
  5
2686
100
AcDbEntity
  8
0
 62
     0
100
AcDbLine
 10
-1583.628177
 20
-1468.860504
 30
0.0
 11
-1581.505446
 21
-1466.737772
 31
0.0
  0
LINE
  5
2687
100
AcDbEntity
  8
0
 62
     0
100
AcDbLine
 10
-1583.731755
 20
-1468.694674
 30
0.0
 11
-1581.562378
 21
-1466.525297
 31
0.0
  0
LINE
  5
2688
100
AcDbEntity
  8
0
 62
     0
100
AcDbLine
 10
-1583.828427
 20
-1468.521939
 30
0.0
 11
-1581.619311
 21
-1466.312822
 31
0.0
  0
LINE
  5
2689
100
AcDbEntity
  8
0
 62
     0
100
AcDbLine
 10
-1583.917745
 20
-1468.341848
 30
0.0
 11
-1581.676243
 21
-1466.100347
 31
0.0
  0
LINE
  5
268A
100
AcDbEntity
  8
0
 62
     0
100
AcDbLine
 10
-1583.999221
 20
-1468.153917
 30
0.0
 11
-1581.733176
 21
-1465.887872
 31
0.0
  0
LINE
  5
268B
100
AcDbEntity
  8
0
 62
     0
100
AcDbLine
 10
-1584.072329
 20
-1467.957618
 30
0.0
 11
-1581.790108
 21
-1465.675397
 31
0.0
  0
LINE
  5
268C
100
AcDbEntity
  8
0
 62
     0
100
AcDbLine
 10
-1584.136709
 20
-1467.75259
 30
0.0
 11
-1581.847041
 21
-1465.462922
 31
0.0
  0
LINE
  5
268D
100
AcDbEntity
  8
0
 62
     0
100
AcDbLine
 10
-1584.192637
 20
-1467.53911
 30
0.0
 11
-1581.903973
 21
-1465.250446
 31
0.0
  0
LINE
  5
268E
100
AcDbEntity
  8
0
 62
     0
100
AcDbLine
 10
-1584.240569
 20
-1467.317634
 30
0.0
 11
-1581.960906
 21
-1465.037971
 31
0.0
  0
LINE
  5
268F
100
AcDbEntity
  8
0
 62
     0
100
AcDbLine
 10
-1584.281026
 20
-1467.088684
 30
0.0
 11
-1582.017839
 21
-1464.825496
 31
0.0
  0
LINE
  5
2690
100
AcDbEntity
  8
0
 62
     0
100
AcDbLine
 10
-1584.314597
 20
-1466.852847
 30
0.0
 11
-1582.074771
 21
-1464.613021
 31
0.0
  0
LINE
  5
2691
100
AcDbEntity
  8
0
 62
     0
100
AcDbLine
 10
-1584.341939
 20
-1466.610782
 30
0.0
 11
-1582.131704
 21
-1464.400546
 31
0.0
  0
LINE
  5
2692
100
AcDbEntity
  8
0
 62
     0
100
AcDbLine
 10
-1584.363771
 20
-1466.363206
 30
0.0
 11
-1582.188636
 21
-1464.188071
 31
0.0
  0
LINE
  5
2693
100
AcDbEntity
  8
0
 62
     0
100
AcDbLine
 10
-1584.38087
 20
-1466.110897
 30
0.0
 11
-1582.245569
 21
-1463.975596
 31
0.0
  0
LINE
  5
2694
100
AcDbEntity
  8
0
 62
     0
100
AcDbLine
 10
-1584.394069
 20
-1465.854689
 30
0.0
 11
-1582.302501
 21
-1463.76312
 31
0.0
  0
LINE
  5
2695
100
AcDbEntity
  8
0
 62
     0
100
AcDbLine
 10
-1584.404245
 20
-1465.595457
 30
0.0
 11
-1582.359434
 21
-1463.550645
 31
0.0
  0
LINE
  5
2696
100
AcDbEntity
  8
0
 62
     0
100
AcDbLine
 10
-1584.412312
 20
-1465.334116
 30
0.0
 11
-1582.416366
 21
-1463.33817
 31
0.0
  0
LINE
  5
2697
100
AcDbEntity
  8
0
 62
     0
100
AcDbLine
 10
-1584.419211
 20
-1465.071607
 30
0.0
 11
-1582.473299
 21
-1463.125695
 31
0.0
  0
LINE
  5
2698
100
AcDbEntity
  8
0
 62
     0
100
AcDbLine
 10
-1584.425899
 20
-1464.808887
 30
0.0
 11
-1582.530231
 21
-1462.91322
 31
0.0
  0
LINE
  5
2699
100
AcDbEntity
  8
0
 62
     0
100
AcDbLine
 10
-1584.433338
 20
-1464.546919
 30
0.0
 11
-1582.587164
 21
-1462.700745
 31
0.0
  0
LINE
  5
269A
100
AcDbEntity
  8
0
 62
     0
100
AcDbLine
 10
-1584.442482
 20
-1464.286656
 30
0.0
 11
-1582.644096
 21
-1462.48827
 31
0.0
  0
LINE
  5
269B
100
AcDbEntity
  8
0
 62
     0
100
AcDbLine
 10
-1584.454268
 20
-1464.029034
 30
0.0
 11
-1582.701029
 21
-1462.275794
 31
0.0
  0
LINE
  5
269C
100
AcDbEntity
  8
0
 62
     0
100
AcDbLine
 10
-1584.469602
 20
-1463.77496
 30
0.0
 11
-1582.757962
 21
-1462.063319
 31
0.0
  0
LINE
  5
269D
100
AcDbEntity
  8
0
 62
     0
100
AcDbLine
 10
-1584.489351
 20
-1463.525301
 30
0.0
 11
-1582.814894
 21
-1461.850844
 31
0.0
  0
LINE
  5
269E
100
AcDbEntity
  8
0
 62
     0
100
AcDbLine
 10
-1584.514335
 20
-1463.280877
 30
0.0
 11
-1582.871827
 21
-1461.638369
 31
0.0
  0
LINE
  5
269F
100
AcDbEntity
  8
0
 62
     0
100
AcDbLine
 10
-1584.545317
 20
-1463.042452
 30
0.0
 11
-1582.928759
 21
-1461.425894
 31
0.0
  0
LINE
  5
26A0
100
AcDbEntity
  8
0
 62
     0
100
AcDbLine
 10
-1584.583002
 20
-1462.810729
 30
0.0
 11
-1582.985692
 21
-1461.213419
 31
0.0
  0
LINE
  5
26A1
100
AcDbEntity
  8
0
 62
     0
100
AcDbLine
 10
-1584.628028
 20
-1462.586347
 30
0.0
 11
-1583.042624
 21
-1461.000944
 31
0.0
  0
LINE
  5
26A2
100
AcDbEntity
  8
0
 62
     0
100
AcDbLine
 10
-1584.680966
 20
-1462.369878
 30
0.0
 11
-1583.099557
 21
-1460.788468
 31
0.0
  0
LINE
  5
26A3
100
AcDbEntity
  8
0
 62
     0
100
AcDbLine
 10
-1584.74232
 20
-1462.161824
 30
0.0
 11
-1583.156489
 21
-1460.575993
 31
0.0
  0
LINE
  5
26A4
100
AcDbEntity
  8
0
 62
     0
100
AcDbLine
 10
-1584.812523
 20
-1461.96262
 30
0.0
 11
-1583.213422
 21
-1460.363518
 31
0.0
  0
LINE
  5
26A5
100
AcDbEntity
  8
0
 62
     0
100
AcDbLine
 10
-1584.891946
 20
-1461.772634
 30
0.0
 11
-1583.270354
 21
-1460.151043
 31
0.0
  0
LINE
  5
26A6
100
AcDbEntity
  8
0
 62
     0
100
AcDbLine
 10
-1584.980892
 20
-1461.592173
 30
0.0
 11
-1583.327287
 21
-1459.938568
 31
0.0
  0
LINE
  5
26A7
100
AcDbEntity
  8
0
 62
     0
100
AcDbLine
 10
-1585.079605
 20
-1461.421479
 30
0.0
 11
-1583.38422
 21
-1459.726093
 31
0.0
  0
LINE
  5
26A8
100
AcDbEntity
  8
0
 62
     0
100
AcDbLine
 10
-1585.188274
 20
-1461.260739
 30
0.0
 11
-1583.441152
 21
-1459.513618
 31
0.0
  0
LINE
  5
26A9
100
AcDbEntity
  8
0
 62
     0
100
AcDbLine
 10
-1585.307031
 20
-1461.110089
 30
0.0
 11
-1583.498085
 21
-1459.301142
 31
0.0
  0
LINE
  5
26AA
100
AcDbEntity
  8
0
 62
     0
100
AcDbLine
 10
-1585.435964
 20
-1460.969614
 30
0.0
 11
-1583.555017
 21
-1459.088667
 31
0.0
  0
LINE
  5
26AB
100
AcDbEntity
  8
0
 62
     0
100
AcDbLine
 10
-1585.574999
 20
-1460.839242
 30
0.0
 11
-1583.61195
 21
-1458.876192
 31
0.0
  0
LINE
  5
26AC
100
AcDbEntity
  8
0
 62
     0
100
AcDbLine
 10
-1585.722897
 20
-1460.717732
 30
0.0
 11
-1583.668882
 21
-1458.663717
 31
0.0
  0
LINE
  5
26AD
100
AcDbEntity
  8
0
 62
     0
100
AcDbLine
 10
-1585.877884
 20
-1460.603311
 30
0.0
 11
-1583.725815
 21
-1458.451242
 31
0.0
  0
LINE
  5
26AE
100
AcDbEntity
  8
0
 62
     0
100
AcDbLine
 10
-1586.038343
 20
-1460.494363
 30
0.0
 11
-1583.782747
 21
-1458.238767
 31
0.0
  0
LINE
  5
26AF
100
AcDbEntity
  8
0
 62
     0
100
AcDbLine
 10
-1586.202783
 20
-1460.389394
 30
0.0
 11
-1583.83968
 21
-1458.026292
 31
0.0
  0
LINE
  5
26B0
100
AcDbEntity
  8
0
 62
     0
100
AcDbLine
 10
-1586.369804
 20
-1460.287008
 30
0.0
 11
-1583.896612
 21
-1457.813816
 31
0.0
  0
LINE
  5
26B1
100
AcDbEntity
  8
0
 62
     0
100
AcDbLine
 10
-1586.538077
 20
-1460.185873
 30
0.0
 11
-1583.953545
 21
-1457.601341
 31
0.0
  0
LINE
  5
26B2
100
AcDbEntity
  8
0
 62
     0
100
AcDbLine
 10
-1586.706317
 20
-1460.084706
 30
0.0
 11
-1584.010478
 21
-1457.388866
 31
0.0
  0
LINE
  5
26B3
100
AcDbEntity
  8
0
 62
     0
100
AcDbLine
 10
-1586.873265
 20
-1459.982246
 30
0.0
 11
-1584.06741
 21
-1457.176391
 31
0.0
  0
LINE
  5
26B4
100
AcDbEntity
  8
0
 62
     0
100
AcDbLine
 10
-1587.037666
 20
-1459.877239
 30
0.0
 11
-1584.124343
 21
-1456.963916
 31
0.0
  0
LINE
  5
26B5
100
AcDbEntity
  8
0
 62
     0
100
AcDbLine
 10
-1587.198251
 20
-1459.768416
 30
0.0
 11
-1584.181275
 21
-1456.751441
 31
0.0
  0
LINE
  5
26B6
100
AcDbEntity
  8
0
 62
     0
100
AcDbLine
 10
-1587.353721
 20
-1459.654478
 30
0.0
 11
-1584.238208
 21
-1456.538966
 31
0.0
  0
LINE
  5
26B7
100
AcDbEntity
  8
0
 62
     0
100
AcDbLine
 10
-1587.502723
 20
-1459.534073
 30
0.0
 11
-1584.29514
 21
-1456.326491
 31
0.0
  0
LINE
  5
26B8
100
AcDbEntity
  8
0
 62
     0
100
AcDbLine
 10
-1587.643831
 20
-1459.405774
 30
0.0
 11
-1584.352073
 21
-1456.114015
 31
0.0
  0
LINE
  5
26B9
100
AcDbEntity
  8
0
 62
     0
100
AcDbLine
 10
-1587.775519
 20
-1459.268054
 30
0.0
 11
-1584.409005
 21
-1455.90154
 31
0.0
  0
LINE
  5
26BA
100
AcDbEntity
  8
0
 62
     0
100
AcDbLine
 10
-1587.896206
 20
-1459.119333
 30
0.0
 11
-1584.465938
 21
-1455.689065
 31
0.0
  0
LINE
  5
26BB
100
AcDbEntity
  8
0
 62
     0
100
AcDbLine
 10
-1588.005381
 20
-1458.959101
 30
0.0
 11
-1584.52287
 21
-1455.47659
 31
0.0
  0
LINE
  5
26BC
100
AcDbEntity
  8
0
 62
     0
100
AcDbLine
 10
-1588.103496
 20
-1458.787808
 30
0.0
 11
-1584.579803
 21
-1455.264115
 31
0.0
  0
LINE
  5
26BD
100
AcDbEntity
  8
0
 62
     0
100
AcDbLine
 10
-1588.19107
 20
-1458.605974
 30
0.0
 11
-1584.636735
 21
-1455.05164
 31
0.0
  0
LINE
  5
26BE
100
AcDbEntity
  8
0
 62
     0
100
AcDbLine
 10
-1588.268666
 20
-1458.414162
 30
0.0
 11
-1584.693668
 21
-1454.839165
 31
0.0
  0
LINE
  5
26BF
100
AcDbEntity
  8
0
 62
     0
100
AcDbLine
 10
-1588.336893
 20
-1458.212982
 30
0.0
 11
-1584.750601
 21
-1454.626689
 31
0.0
  0
LINE
  5
26C0
100
AcDbEntity
  8
0
 62
     0
100
AcDbLine
 10
-1588.396408
 20
-1458.00309
 30
0.0
 11
-1584.807533
 21
-1454.414214
 31
0.0
  0
LINE
  5
26C1
100
AcDbEntity
  8
0
 62
     0
100
AcDbLine
 10
-1588.447921
 20
-1457.785194
 30
0.0
 11
-1584.864466
 21
-1454.201739
 31
0.0
  0
LINE
  5
26C2
100
AcDbEntity
  8
0
 62
     0
100
AcDbLine
 10
-1588.492192
 20
-1457.560057
 30
0.0
 11
-1584.921398
 21
-1453.989264
 31
0.0
  0
LINE
  5
26C3
100
AcDbEntity
  8
0
 62
     0
100
AcDbLine
 10
-1588.530037
 20
-1457.328495
 30
0.0
 11
-1584.978331
 21
-1453.776789
 31
0.0
  0
LINE
  5
26C4
100
AcDbEntity
  8
0
 62
     0
100
AcDbLine
 10
-1588.56233
 20
-1457.09138
 30
0.0
 11
-1585.035263
 21
-1453.564314
 31
0.0
  0
LINE
  5
26C5
100
AcDbEntity
  8
0
 62
     0
100
AcDbLine
 10
-1588.590006
 20
-1456.849648
 30
0.0
 11
-1585.092196
 21
-1453.351839
 31
0.0
  0
LINE
  5
26C6
100
AcDbEntity
  8
0
 62
     0
100
AcDbLine
 10
-1588.614059
 20
-1456.604294
 30
0.0
 11
-1585.149128
 21
-1453.139363
 31
0.0
  0
LINE
  5
26C7
100
AcDbEntity
  8
0
 62
     0
100
AcDbLine
 10
-1588.63555
 20
-1456.356377
 30
0.0
 11
-1585.206061
 21
-1452.926888
 31
0.0
  0
LINE
  5
26C8
100
AcDbEntity
  8
0
 62
     0
100
AcDbLine
 10
-1588.655604
 20
-1456.107023
 30
0.0
 11
-1585.262993
 21
-1452.714413
 31
0.0
  0
LINE
  5
26C9
100
AcDbEntity
  8
0
 62
     0
100
AcDbLine
 10
-1588.675413
 20
-1455.857425
 30
0.0
 11
-1585.319926
 21
-1452.501938
 31
0.0
  0
LINE
  5
26CA
100
AcDbEntity
  8
0
 62
     0
100
AcDbLine
 10
-1588.696241
 20
-1455.608845
 30
0.0
 11
-1585.376859
 21
-1452.289463
 31
0.0
  0
LINE
  5
26CB
100
AcDbEntity
  8
0
 62
     0
100
AcDbLine
 10
-1588.719418
 20
-1455.362615
 30
0.0
 11
-1585.433791
 21
-1452.076988
 31
0.0
  0
LINE
  5
26CC
100
AcDbEntity
  8
0
 62
     0
100
AcDbLine
 10
-1588.746349
 20
-1455.120138
 30
0.0
 11
-1585.490724
 21
-1451.864513
 31
0.0
  0
LINE
  5
26CD
100
AcDbEntity
  8
0
 62
     0
100
AcDbLine
 10
-1588.778508
 20
-1454.882889
 30
0.0
 11
-1585.547656
 21
-1451.652037
 31
0.0
  0
LINE
  5
26CE
100
AcDbEntity
  8
0
 62
     0
100
AcDbLine
 10
-1588.817442
 20
-1454.652416
 30
0.0
 11
-1585.604589
 21
-1451.439562
 31
0.0
  0
LINE
  5
26CF
100
AcDbEntity
  8
0
 62
     0
100
AcDbLine
 10
-1588.86477
 20
-1454.430336
 30
0.0
 11
-1585.661521
 21
-1451.227087
 31
0.0
  0
LINE
  5
26D0
100
AcDbEntity
  8
0
 62
     0
100
AcDbLine
 10
-1588.92218
 20
-1454.218338
 30
0.0
 11
-1585.718454
 21
-1451.014612
 31
0.0
  0
LINE
  5
26D1
100
AcDbEntity
  8
0
 62
     0
100
AcDbLine
 10
-1588.99143
 20
-1454.018181
 30
0.0
 11
-1585.775386
 21
-1450.802137
 31
0.0
  0
LINE
  5
26D2
100
AcDbEntity
  8
0
 62
     0
100
AcDbLine
 10
-1589.074348
 20
-1453.83169
 30
0.0
 11
-1585.832319
 21
-1450.589662
 31
0.0
  0
LINE
  5
26D3
100
AcDbEntity
  8
0
 62
     0
100
AcDbLine
 10
-1589.172822
 20
-1453.660757
 30
0.0
 11
-1585.889251
 21
-1450.377187
 31
0.0
  0
LINE
  5
26D4
100
AcDbEntity
  8
0
 62
     0
100
AcDbLine
 10
-1589.288777
 20
-1453.507304
 30
0.0
 11
-1585.946184
 21
-1450.164711
 31
0.0
  0
LINE
  5
26D5
100
AcDbEntity
  8
0
 62
     0
100
AcDbLine
 10
-1589.42313
 20
-1453.372249
 30
0.0
 11
-1586.003117
 21
-1449.952236
 31
0.0
  0
LINE
  5
26D6
100
AcDbEntity
  8
0
 62
     0
100
AcDbLine
 10
-1589.57547
 20
-1453.255182
 30
0.0
 11
-1586.060049
 21
-1449.739761
 31
0.0
  0
LINE
  5
26D7
100
AcDbEntity
  8
0
 62
     0
100
AcDbLine
 10
-1589.74526
 20
-1453.155564
 30
0.0
 11
-1586.116982
 21
-1449.527286
 31
0.0
  0
LINE
  5
26D8
100
AcDbEntity
  8
0
 62
     0
100
AcDbLine
 10
-1589.93191
 20
-1453.072807
 30
0.0
 11
-1586.379871
 21
-1449.520768
 31
0.0
  0
LINE
  5
26D9
100
AcDbEntity
  8
0
 62
     0
100
AcDbLine
 10
-1590.134786
 20
-1453.006275
 30
0.0
 11
-1586.649279
 21
-1449.520768
 31
0.0
  0
LINE
  5
26DA
100
AcDbEntity
  8
0
 62
     0
100
AcDbLine
 10
-1590.353202
 20
-1452.955283
 30
0.0
 11
-1586.918686
 21
-1449.520768
 31
0.0
  0
LINE
  5
26DB
100
AcDbEntity
  8
0
 62
     0
100
AcDbLine
 10
-1590.586425
 20
-1452.919099
 30
0.0
 11
-1587.188094
 21
-1449.520768
 31
0.0
  0
LINE
  5
26DC
100
AcDbEntity
  8
0
 62
     0
100
AcDbLine
 10
-1590.833675
 20
-1452.896941
 30
0.0
 11
-1587.457502
 21
-1449.520768
 31
0.0
  0
LINE
  5
26DD
100
AcDbEntity
  8
0
 62
     0
100
AcDbLine
 10
-1591.094125
 20
-1452.887984
 30
0.0
 11
-1587.726909
 21
-1449.520768
 31
0.0
  0
LINE
  5
26DE
100
AcDbEntity
  8
0
 62
     0
100
AcDbLine
 10
-1591.366902
 20
-1452.891353
 30
0.0
 11
-1587.996317
 21
-1449.520768
 31
0.0
  0
LINE
  5
26DF
100
AcDbEntity
  8
0
 62
     0
100
AcDbLine
 10
-1591.65109
 20
-1452.906133
 30
0.0
 11
-1588.265725
 21
-1449.520768
 31
0.0
  0
LINE
  5
26E0
100
AcDbEntity
  8
0
 62
     0
100
AcDbLine
 10
-1591.945732
 20
-1452.931367
 30
0.0
 11
-1588.535132
 21
-1449.520768
 31
0.0
  0
LINE
  5
26E1
100
AcDbEntity
  8
0
 62
     0
100
AcDbLine
 10
-1592.249831
 20
-1452.966058
 30
0.0
 11
-1588.80454
 21
-1449.520768
 31
0.0
  0
LINE
  5
26E2
100
AcDbEntity
  8
0
 62
     0
100
AcDbLine
 10
-1592.562355
 20
-1453.009175
 30
0.0
 11
-1589.073948
 21
-1449.520768
 31
0.0
  0
LINE
  5
26E3
100
AcDbEntity
  8
0
 62
     0
100
AcDbLine
 10
-1592.882239
 20
-1453.059651
 30
0.0
 11
-1589.343355
 21
-1449.520768
 31
0.0
  0
LINE
  5
26E4
100
AcDbEntity
  8
0
 62
     0
100
AcDbLine
 10
-1593.20839
 20
-1453.116394
 30
0.0
 11
-1589.612763
 21
-1449.520768
 31
0.0
  0
LINE
  5
26E5
100
AcDbEntity
  8
0
 62
     0
100
AcDbLine
 10
-1593.539689
 20
-1453.178286
 30
0.0
 11
-1589.882171
 21
-1449.520768
 31
0.0
  0
LINE
  5
26E6
100
AcDbEntity
  8
0
 62
     0
100
AcDbLine
 10
-1593.874996
 20
-1453.244185
 30
0.0
 11
-1590.151579
 21
-1449.520768
 31
0.0
  0
LINE
  5
26E7
100
AcDbEntity
  8
0
 62
     0
100
AcDbLine
 10
-1594.213156
 20
-1453.312938
 30
0.0
 11
-1590.420986
 21
-1449.520768
 31
0.0
  0
LINE
  5
26E8
100
AcDbEntity
  8
0
 62
     0
100
AcDbLine
 10
-1594.450628
 20
-1453.281002
 30
0.0
 11
-1590.690394
 21
-1449.520768
 31
0.0
  0
LINE
  5
26E9
100
AcDbEntity
  8
0
 62
     0
100
AcDbLine
 10
-1594.450628
 20
-1453.011594
 30
0.0
 11
-1590.959802
 21
-1449.520768
 31
0.0
  0
LINE
  5
26EA
100
AcDbEntity
  8
0
 62
     0
100
AcDbLine
 10
-1594.450628
 20
-1452.742186
 30
0.0
 11
-1591.229209
 21
-1449.520768
 31
0.0
  0
LINE
  5
26EB
100
AcDbEntity
  8
0
 62
     0
100
AcDbLine
 10
-1594.450628
 20
-1452.472779
 30
0.0
 11
-1591.498617
 21
-1449.520768
 31
0.0
  0
LINE
  5
26EC
100
AcDbEntity
  8
0
 62
     0
100
AcDbLine
 10
-1594.450628
 20
-1452.203371
 30
0.0
 11
-1591.768025
 21
-1449.520768
 31
0.0
  0
LINE
  5
26ED
100
AcDbEntity
  8
0
 62
     0
100
AcDbLine
 10
-1594.450628
 20
-1451.933963
 30
0.0
 11
-1592.037432
 21
-1449.520768
 31
0.0
  0
LINE
  5
26EE
100
AcDbEntity
  8
0
 62
     0
100
AcDbLine
 10
-1594.450628
 20
-1451.664556
 30
0.0
 11
-1592.30684
 21
-1449.520768
 31
0.0
  0
LINE
  5
26EF
100
AcDbEntity
  8
0
 62
     0
100
AcDbLine
 10
-1594.450628
 20
-1451.395148
 30
0.0
 11
-1592.576248
 21
-1449.520768
 31
0.0
  0
LINE
  5
26F0
100
AcDbEntity
  8
0
 62
     0
100
AcDbLine
 10
-1594.450628
 20
-1451.12574
 30
0.0
 11
-1592.845655
 21
-1449.520768
 31
0.0
  0
LINE
  5
26F1
100
AcDbEntity
  8
0
 62
     0
100
AcDbLine
 10
-1594.450628
 20
-1450.856333
 30
0.0
 11
-1593.115063
 21
-1449.520768
 31
0.0
  0
LINE
  5
26F2
100
AcDbEntity
  8
0
 62
     0
100
AcDbLine
 10
-1594.450628
 20
-1450.586925
 30
0.0
 11
-1593.384471
 21
-1449.520768
 31
0.0
  0
LINE
  5
26F3
100
AcDbEntity
  8
0
 62
     0
100
AcDbLine
 10
-1594.450628
 20
-1450.317517
 30
0.0
 11
-1593.653878
 21
-1449.520768
 31
0.0
  0
LINE
  5
26F4
100
AcDbEntity
  8
0
 62
     0
100
AcDbLine
 10
-1583.15269
 20
-1469.462647
 30
0.0
 11
-1581.277715
 21
-1467.587673
 31
0.0
  0
LINE
  5
26F5
100
AcDbEntity
  8
0
 62
     0
100
AcDbLine
 10
-1583.020267
 20
-1469.599632
 30
0.0
 11
-1581.220783
 21
-1467.800148
 31
0.0
  0
LINE
  5
26F6
100
AcDbEntity
  8
0
 62
     0
100
AcDbLine
 10
-1582.883045
 20
-1469.731817
 30
0.0
 11
-1581.16385
 21
-1468.012623
 31
0.0
  0
LINE
  5
26F7
100
AcDbEntity
  8
0
 62
     0
100
AcDbLine
 10
-1562.822985
 20
-1449.671758
 30
0.0
 11
-1562.671995
 21
-1449.520768
 31
0.0
  0
LINE
  5
26F8
100
AcDbEntity
  8
0
 62
     0
100
AcDbLine
 10
-1582.7413
 20
-1469.859481
 30
0.0
 11
-1581.106918
 21
-1468.225098
 31
0.0
  0
LINE
  5
26F9
100
AcDbEntity
  8
0
 62
     0
100
AcDbLine
 10
-1562.921595
 20
-1450.039776
 30
0.0
 11
-1562.402587
 21
-1449.520768
 31
0.0
  0
LINE
  5
26FA
100
AcDbEntity
  8
0
 62
     0
100
AcDbLine
 10
-1582.595297
 20
-1469.982885
 30
0.0
 11
-1581.049985
 21
-1468.437574
 31
0.0
  0
LINE
  5
26FB
100
AcDbEntity
  8
0
 62
     0
100
AcDbLine
 10
-1563.020206
 20
-1450.407794
 30
0.0
 11
-1562.133179
 21
-1449.520768
 31
0.0
  0
LINE
  5
26FC
100
AcDbEntity
  8
0
 62
     0
100
AcDbLine
 10
-1582.445281
 20
-1470.102277
 30
0.0
 11
-1580.993053
 21
-1468.650049
 31
0.0
  0
LINE
  5
26FD
100
AcDbEntity
  8
0
 62
     0
100
AcDbLine
 10
-1563.118816
 20
-1450.775811
 30
0.0
 11
-1561.863772
 21
-1449.520768
 31
0.0
  0
LINE
  5
26FE
100
AcDbEntity
  8
0
 62
     0
100
AcDbLine
 10
-1582.291489
 20
-1470.217892
 30
0.0
 11
-1580.93612
 21
-1468.862524
 31
0.0
  0
LINE
  5
26FF
100
AcDbEntity
  8
0
 62
     0
100
AcDbLine
 10
-1563.217426
 20
-1451.143829
 30
0.0
 11
-1561.594364
 21
-1449.520768
 31
0.0
  0
LINE
  5
2700
100
AcDbEntity
  8
0
 62
     0
100
AcDbLine
 10
-1582.134143
 20
-1470.329955
 30
0.0
 11
-1580.879188
 21
-1469.074999
 31
0.0
  0
LINE
  5
2701
100
AcDbEntity
  8
0
 62
     0
100
AcDbLine
 10
-1563.316036
 20
-1451.511847
 30
0.0
 11
-1561.324956
 21
-1449.520768
 31
0.0
  0
LINE
  5
2702
100
AcDbEntity
  8
0
 62
     0
100
AcDbLine
 10
-1581.973457
 20
-1470.438676
 30
0.0
 11
-1580.822255
 21
-1469.287474
 31
0.0
  0
LINE
  5
2703
100
AcDbEntity
  8
0
 62
     0
100
AcDbLine
 10
-1563.414646
 20
-1451.879865
 30
0.0
 11
-1561.055549
 21
-1449.520768
 31
0.0
  0
LINE
  5
2704
100
AcDbEntity
  8
0
 62
     0
100
AcDbLine
 10
-1581.809634
 20
-1470.54426
 30
0.0
 11
-1580.765323
 21
-1469.499949
 31
0.0
  0
LINE
  5
2705
100
AcDbEntity
  8
0
 62
     0
100
AcDbLine
 10
-1563.513256
 20
-1452.247882
 30
0.0
 11
-1560.786141
 21
-1449.520768
 31
0.0
  0
LINE
  5
2706
100
AcDbEntity
  8
0
 62
     0
100
AcDbLine
 10
-1581.642866
 20
-1470.646901
 30
0.0
 11
-1580.70839
 21
-1469.712424
 31
0.0
  0
LINE
  5
2707
100
AcDbEntity
  8
0
 62
     0
100
AcDbLine
 10
-1563.611866
 20
-1452.6159
 30
0.0
 11
-1560.516733
 21
-1449.520768
 31
0.0
  0
LINE
  5
2708
100
AcDbEntity
  8
0
 62
     0
100
AcDbLine
 10
-1581.473341
 20
-1470.746783
 30
0.0
 11
-1580.651457
 21
-1469.924899
 31
0.0
  0
LINE
  5
2709
100
AcDbEntity
  8
0
 62
     0
100
AcDbLine
 10
-1563.710476
 20
-1452.983918
 30
0.0
 11
-1560.247326
 21
-1449.520768
 31
0.0
  0
LINE
  5
270A
100
AcDbEntity
  8
0
 62
     0
100
AcDbLine
 10
-1581.301237
 20
-1470.844087
 30
0.0
 11
-1580.594525
 21
-1470.137375
 31
0.0
  0
LINE
  5
270B
100
AcDbEntity
  8
0
 62
     0
100
AcDbLine
 10
-1563.809086
 20
-1453.351936
 30
0.0
 11
-1559.977918
 21
-1449.520768
 31
0.0
  0
LINE
  5
270C
100
AcDbEntity
  8
0
 62
     0
100
AcDbLine
 10
-1581.126725
 20
-1470.938983
 30
0.0
 11
-1580.537592
 21
-1470.34985
 31
0.0
  0
LINE
  5
270D
100
AcDbEntity
  8
0
 62
     0
100
AcDbLine
 10
-1563.907696
 20
-1453.719953
 30
0.0
 11
-1559.70851
 21
-1449.520768
 31
0.0
  0
LINE
  5
270E
100
AcDbEntity
  8
0
 62
     0
100
AcDbLine
 10
-1580.949972
 20
-1471.031637
 30
0.0
 11
-1580.48066
 21
-1470.562325
 31
0.0
  0
LINE
  5
270F
100
AcDbEntity
  8
0
 62
     0
100
AcDbLine
 10
-1564.006306
 20
-1454.087971
 30
0.0
 11
-1559.439103
 21
-1449.520768
 31
0.0
  0
LINE
  5
2710
100
AcDbEntity
  8
0
 62
     0
100
AcDbLine
 10
-1580.771138
 20
-1471.12221
 30
0.0
 11
-1580.423727
 21
-1470.7748
 31
0.0
  0
LINE
  5
2711
100
AcDbEntity
  8
0
 62
     0
100
AcDbLine
 10
-1564.104916
 20
-1454.455989
 30
0.0
 11
-1559.169695
 21
-1449.520768
 31
0.0
  0
LINE
  5
2712
100
AcDbEntity
  8
0
 62
     0
100
AcDbLine
 10
-1580.590377
 20
-1471.210857
 30
0.0
 11
-1580.366795
 21
-1470.987275
 31
0.0
  0
LINE
  5
2713
100
AcDbEntity
  8
0
 62
     0
100
AcDbLine
 10
-1564.203526
 20
-1454.824007
 30
0.0
 11
-1558.900287
 21
-1449.520768
 31
0.0
  0
LINE
  5
2714
100
AcDbEntity
  8
0
 62
     0
100
AcDbLine
 10
-1580.40784
 20
-1471.297728
 30
0.0
 11
-1580.309862
 21
-1471.19975
 31
0.0
  0
LINE
  5
2715
100
AcDbEntity
  8
0
 62
     0
100
AcDbLine
 10
-1564.302136
 20
-1455.192024
 30
0.0
 11
-1558.63088
 21
-1449.520768
 31
0.0
  0
LINE
  5
2716
100
AcDbEntity
  8
0
 62
     0
100
AcDbLine
 10
-1564.400746
 20
-1455.560042
 30
0.0
 11
-1558.361472
 21
-1449.520768
 31
0.0
  0
LINE
  5
2717
100
AcDbEntity
  8
0
 62
     0
100
AcDbLine
 10
-1564.499356
 20
-1455.92806
 30
0.0
 11
-1558.092064
 21
-1449.520768
 31
0.0
  0
LINE
  5
2718
100
AcDbEntity
  8
0
 62
     0
100
AcDbLine
 10
-1564.597966
 20
-1456.296078
 30
0.0
 11
-1557.822656
 21
-1449.520768
 31
0.0
  0
LINE
  5
2719
100
AcDbEntity
  8
0
 62
     0
100
AcDbLine
 10
-1564.696576
 20
-1456.664095
 30
0.0
 11
-1557.553249
 21
-1449.520768
 31
0.0
  0
LINE
  5
271A
100
AcDbEntity
  8
0
 62
     0
100
AcDbLine
 10
-1564.795186
 20
-1457.032113
 30
0.0
 11
-1557.283841
 21
-1449.520768
 31
0.0
  0
LINE
  5
271B
100
AcDbEntity
  8
0
 62
     0
100
AcDbLine
 10
-1564.893797
 20
-1457.400131
 30
0.0
 11
-1557.014433
 21
-1449.520768
 31
0.0
  0
LINE
  5
271C
100
AcDbEntity
  8
0
 62
     0
100
AcDbLine
 10
-1564.992407
 20
-1457.768149
 30
0.0
 11
-1556.745026
 21
-1449.520768
 31
0.0
  0
LINE
  5
271D
100
AcDbEntity
  8
0
 62
     0
100
AcDbLine
 10
-1565.091017
 20
-1458.136166
 30
0.0
 11
-1556.475618
 21
-1449.520768
 31
0.0
  0
LINE
  5
271E
100
AcDbEntity
  8
0
 62
     0
100
AcDbLine
 10
-1565.189627
 20
-1458.504184
 30
0.0
 11
-1556.20621
 21
-1449.520768
 31
0.0
  0
LINE
  5
271F
100
AcDbEntity
  8
0
 62
     0
100
AcDbLine
 10
-1565.288237
 20
-1458.872202
 30
0.0
 11
-1555.936803
 21
-1449.520768
 31
0.0
  0
LINE
  5
2720
100
AcDbEntity
  8
0
 62
     0
100
AcDbLine
 10
-1565.386847
 20
-1459.240219
 30
0.0
 11
-1559.53846
 21
-1453.391833
 31
0.0
  0
LINE
  5
2721
100
AcDbEntity
  8
0
 62
     0
100
AcDbLine
 10
-1559.197018
 20
-1453.05039
 30
0.0
 11
-1555.667395
 21
-1449.520768
 31
0.0
  0
LINE
  5
2722
100
AcDbEntity
  8
0
 62
     0
100
AcDbLine
 10
-1565.485457
 20
-1459.608237
 30
0.0
 11
-1559.867955
 21
-1453.990735
 31
0.0
  0
LINE
  5
2723
100
AcDbEntity
  8
0
 62
     0
100
AcDbLine
 10
-1558.549423
 20
-1452.672203
 30
0.0
 11
-1555.397987
 21
-1449.520768
 31
0.0
  0
LINE
  5
2724
100
AcDbEntity
  8
0
 62
     0
100
AcDbLine
 10
-1565.584067
 20
-1459.976255
 30
0.0
 11
-1559.98797
 21
-1454.380158
 31
0.0
  0
LINE
  5
2725
100
AcDbEntity
  8
0
 62
     0
100
AcDbLine
 10
-1558.127636
 20
-1452.519824
 30
0.0
 11
-1555.164604
 21
-1449.556792
 31
0.0
  0
LINE
  5
2726
100
AcDbEntity
  8
0
 62
     0
100
AcDbLine
 10
-1565.682677
 20
-1460.344273
 30
0.0
 11
-1560.060911
 21
-1454.722507
 31
0.0
  0
LINE
  5
2727
100
AcDbEntity
  8
0
 62
     0
100
AcDbLine
 10
-1557.761402
 20
-1452.422998
 30
0.0
 11
-1555.0299
 21
-1449.691496
 31
0.0
  0
LINE
  5
2728
100
AcDbEntity
  8
0
 62
     0
100
AcDbLine
 10
-1565.781287
 20
-1460.71229
 30
0.0
 11
-1560.111088
 21
-1455.042092
 31
0.0
  0
LINE
  5
2729
100
AcDbEntity
  8
0
 62
     0
100
AcDbLine
 10
-1557.423926
 20
-1452.35493
 30
0.0
 11
-1554.895196
 21
-1449.826199
 31
0.0
  0
LINE
  5
272A
100
AcDbEntity
  8
0
 62
     0
100
AcDbLine
 10
-1565.879897
 20
-1461.080308
 30
0.0
 11
-1560.148351
 21
-1455.348762
 31
0.0
  0
LINE
  5
272B
100
AcDbEntity
  8
0
 62
     0
100
AcDbLine
 10
-1557.104512
 20
-1452.304923
 30
0.0
 11
-1554.760492
 21
-1449.960903
 31
0.0
  0
LINE
  5
272C
100
AcDbEntity
  8
0
 62
     0
100
AcDbLine
 10
-1565.978507
 20
-1461.448326
 30
0.0
 11
-1560.178085
 21
-1455.647903
 31
0.0
  0
LINE
  5
272D
100
AcDbEntity
  8
0
 62
     0
100
AcDbLine
 10
-1556.797577
 20
-1452.267396
 30
0.0
 11
-1554.625788
 21
-1450.095607
 31
0.0
  0
LINE
  5
272E
100
AcDbEntity
  8
0
 62
     0
100
AcDbLine
 10
-1566.077117
 20
-1461.816344
 30
0.0
 11
-1560.203847
 21
-1455.943074
 31
0.0
  0
LINE
  5
272F
100
AcDbEntity
  8
0
 62
     0
100
AcDbLine
 10
-1556.499751
 20
-1452.238977
 30
0.0
 11
-1554.491085
 21
-1450.230311
 31
0.0
  0
LINE
  5
2730
100
AcDbEntity
  8
0
 62
     0
100
AcDbLine
 10
-1566.175727
 20
-1462.184361
 30
0.0
 11
-1560.228387
 21
-1456.237021
 31
0.0
  0
LINE
  5
2731
100
AcDbEntity
  8
0
 62
     0
100
AcDbLine
 10
-1556.2088
 20
-1452.217434
 30
0.0
 11
-1554.450628
 21
-1450.459262
 31
0.0
  0
LINE
  5
2732
100
AcDbEntity
  8
0
 62
     0
100
AcDbLine
 10
-1566.274337
 20
-1462.552379
 30
0.0
 11
-1560.254166
 21
-1456.532207
 31
0.0
  0
LINE
  5
2733
100
AcDbEntity
  8
0
 62
     0
100
AcDbLine
 10
-1555.923136
 20
-1452.201178
 30
0.0
 11
-1554.450628
 21
-1450.72867
 31
0.0
  0
LINE
  5
2734
100
AcDbEntity
  8
0
 62
     0
100
AcDbLine
 10
-1566.372947
 20
-1462.920397
 30
0.0
 11
-1560.283729
 21
-1456.831178
 31
0.0
  0
LINE
  5
2735
100
AcDbEntity
  8
0
 62
     0
100
AcDbLine
 10
-1555.641566
 20
-1452.189016
 30
0.0
 11
-1554.450628
 21
-1450.998077
 31
0.0
  0
LINE
  5
2736
100
AcDbEntity
  8
0
 62
     0
100
AcDbLine
 10
-1566.471557
 20
-1463.288415
 30
0.0
 11
-1560.320108
 21
-1457.136966
 31
0.0
  0
LINE
  5
2737
100
AcDbEntity
  8
0
 62
     0
100
AcDbLine
 10
-1555.363154
 20
-1452.180012
 30
0.0
 11
-1554.450628
 21
-1451.267485
 31
0.0
  0
LINE
  5
2738
100
AcDbEntity
  8
0
 62
     0
100
AcDbLine
 10
-1566.570167
 20
-1463.656432
 30
0.0
 11
-1560.367448
 21
-1457.453713
 31
0.0
  0
LINE
  5
2739
100
AcDbEntity
  8
0
 62
     0
100
AcDbLine
 10
-1555.087133
 20
-1452.173398
 30
0.0
 11
-1554.450628
 21
-1451.536893
 31
0.0
  0
LINE
  5
273A
100
AcDbEntity
  8
0
 62
     0
100
AcDbLine
 10
-1566.668778
 20
-1464.02445
 30
0.0
 11
-1560.432305
 21
-1457.787977
 31
0.0
  0
LINE
  5
273B
100
AcDbEntity
  8
0
 62
     0
100
AcDbLine
 10
-1554.812848
 20
-1452.16852
 30
0.0
 11
-1554.450628
 21
-1451.8063
 31
0.0
  0
LINE
  5
273C
100
AcDbEntity
  8
0
 62
     0
100
AcDbLine
 10
-1566.767388
 20
-1464.392468
 30
0.0
 11
-1563.851202
 21
-1461.476282
 31
0.0
  0
LINE
  5
273D
100
AcDbEntity
  8
0
 62
     0
100
AcDbLine
 10
-1554.539722
 20
-1452.164802
 30
0.0
 11
-1554.450628
 21
-1452.075708
 31
0.0
  0
LINE
  5
273E
100
AcDbEntity
  8
0
 62
     0
100
AcDbLine
 10
-1562.861266
 20
-1460.486346
 30
0.0
 11
-1560.527183
 21
-1458.152263
 31
0.0
  0
LINE
  5
273F
100
AcDbEntity
  8
0
 62
     0
100
AcDbLine
 10
-1566.865998
 20
-1464.760486
 30
0.0
 11
-1564.094411
 21
-1461.988899
 31
0.0
  0
LINE
  5
2740
100
AcDbEntity
  8
0
 62
     0
100
AcDbLine
 10
-1562.152098
 20
-1460.046586
 30
0.0
 11
-1560.684934
 21
-1458.579422
 31
0.0
  0
LINE
  5
2741
100
AcDbEntity
  8
0
 62
     0
100
AcDbLine
 10
-1566.964608
 20
-1465.128503
 30
0.0
 11
-1564.219991
 21
-1462.383887
 31
0.0
  0
LINE
  5
2742
100
AcDbEntity
  8
0
 62
     0
100
AcDbLine
 10
-1567.063218
 20
-1465.496521
 30
0.0
 11
-1564.300086
 21
-1462.733389
 31
0.0
  0
LINE
  5
2743
100
AcDbEntity
  8
0
 62
     0
100
AcDbLine
 10
-1567.161828
 20
-1465.864539
 30
0.0
 11
-1564.354806
 21
-1463.057517
 31
0.0
  0
LINE
  5
2744
100
AcDbEntity
  8
0
 62
     0
100
AcDbLine
 10
-1567.260438
 20
-1466.232556
 30
0.0
 11
-1564.393296
 21
-1463.365415
 31
0.0
  0
LINE
  5
2745
100
AcDbEntity
  8
0
 62
     0
100
AcDbLine
 10
-1567.359048
 20
-1466.600574
 30
0.0
 11
-1564.4207
 21
-1463.662226
 31
0.0
  0
LINE
  5
2746
100
AcDbEntity
  8
0
 62
     0
100
AcDbLine
 10
-1567.457658
 20
-1466.968592
 30
0.0
 11
-1564.44031
 21
-1463.951244
 31
0.0
  0
LINE
  5
2747
100
AcDbEntity
  8
0
 62
     0
100
AcDbLine
 10
-1567.556268
 20
-1467.33661
 30
0.0
 11
-1564.454447
 21
-1464.234789
 31
0.0
  0
LINE
  5
2748
100
AcDbEntity
  8
0
 62
     0
100
AcDbLine
 10
-1567.654878
 20
-1467.704627
 30
0.0
 11
-1564.464879
 21
-1464.514628
 31
0.0
  0
LINE
  5
2749
100
AcDbEntity
  8
0
 62
     0
100
AcDbLine
 10
-1567.753488
 20
-1468.072645
 30
0.0
 11
-1564.473054
 21
-1464.792211
 31
0.0
  0
LINE
  5
274A
100
AcDbEntity
  8
0
 62
     0
100
AcDbLine
 10
-1567.852098
 20
-1468.440663
 30
0.0
 11
-1564.480246
 21
-1465.068811
 31
0.0
  0
LINE
  5
274B
100
AcDbEntity
  8
0
 62
     0
100
AcDbLine
 10
-1567.950708
 20
-1468.808681
 30
0.0
 11
-1564.487655
 21
-1465.345628
 31
0.0
  0
LINE
  5
274C
100
AcDbEntity
  8
0
 62
     0
100
AcDbLine
 10
-1568.049318
 20
-1469.176698
 30
0.0
 11
-1564.496496
 21
-1465.623876
 31
0.0
  0
LINE
  5
274D
100
AcDbEntity
  8
0
 62
     0
100
AcDbLine
 10
-1568.147928
 20
-1469.544716
 30
0.0
 11
-1564.508087
 21
-1465.904874
 31
0.0
  0
LINE
  5
274E
100
AcDbEntity
  8
0
 62
     0
100
AcDbLine
 10
-1568.246538
 20
-1469.912734
 30
0.0
 11
-1564.523964
 21
-1466.190159
 31
0.0
  0
LINE
  5
274F
100
AcDbEntity
  8
0
 62
     0
100
AcDbLine
 10
-1568.345148
 20
-1470.280752
 30
0.0
 11
-1564.546046
 21
-1466.48165
 31
0.0
  0
LINE
  5
2750
100
AcDbEntity
  8
0
 62
     0
100
AcDbLine
 10
-1568.443758
 20
-1470.648769
 30
0.0
 11
-1564.576914
 21
-1466.781925
 31
0.0
  0
LINE
  5
2751
100
AcDbEntity
  8
0
 62
     0
100
AcDbLine
 10
-1568.542369
 20
-1471.016787
 30
0.0
 11
-1564.620333
 21
-1467.094751
 31
0.0
  0
LINE
  5
2752
100
AcDbEntity
  8
0
 62
     0
100
AcDbLine
 10
-1568.601913
 20
-1471.345739
 30
0.0
 11
-1564.682401
 21
-1467.426227
 31
0.0
  0
LINE
  5
2753
100
AcDbEntity
  8
0
 62
     0
100
AcDbLine
 10
-1568.081913
 20
-1471.095147
 30
0.0
 11
-1564.774566
 21
-1467.7878
 31
0.0
  0
LINE
  5
2754
100
AcDbEntity
  8
0
 62
     0
100
AcDbLine
 10
-1567.504633
 20
-1470.787275
 30
0.0
 11
-1564.924122
 21
-1468.206764
 31
0.0
  0
LINE
  5
2755
100
AcDbEntity
  8
0
 62
     0
100
AcDbLine
 10
-1566.79013
 20
-1470.342179
 30
0.0
 11
-1565.214457
 21
-1468.766506
 31
0.0
  0
ENDBLK
  5
2756
100
AcDbEntity
  8
0
100
AcDbBlockEnd
  0
ENDSEC
  0
SECTION
  2
ENTITIES
  0
LINE
  5
677
100
AcDbEntity
  8
DISEGNO
100
AcDbLine
 10
-1798.419692
 20
-1450.020768
 30
0.0
 11
-1793.721673
 21
-1450.020768
 31
0.0
1001
ACAD
1000
ASC_BOUNDS
1002
{
1070
    19
1002
}
  0
LINE
  5
67A
100
AcDbEntity
  8
DISEGNO
100
AcDbLine
 10
-1831.721673
 20
-1450.020768
 30
0.0
 11
-1827.023654
 21
-1450.020768
 31
0.0
1001
ACAD
1000
ASC_BOUNDS
1002
{
1070
    19
1002
}
  0
LINE
  5
681
100
AcDbEntity
  8
DISEGNO
100
AcDbLine
 10
-1832.721673
 20
-1504.020768
 30
0.0
 11
-1831.721673
 21
-1505.020768
 31
0.0
  0
LINE
  5
682
100
AcDbEntity
  8
DISEGNO
100
AcDbLine
 10
-1793.721673
 20
-1505.020768
 30
0.0
 11
-1792.721673
 21
-1504.020768
 31
0.0
  0
LINE
  5
683
100
AcDbEntity
  8
DISEGNO
100
AcDbLine
 10
-1807.221673
 20
-1525.020768
 30
0.0
 11
-1806.221673
 21
-1524.020768
 31
0.0
  0
LINE
  5
684
100
AcDbEntity
  8
DISEGNO
100
AcDbLine
 10
-1819.221673
 20
-1524.020768
 30
0.0
 11
-1818.221673
 21
-1525.020768
 31
0.0
  0
LINE
  5
686
100
AcDbEntity
  8
DISEGNO
100
AcDbLine
 10
-1832.721673
 20
-1498.520768
 30
0.0
 11
-1832.721673
 21
-1504.020768
 31
0.0
  0
LINE
  5
687
100
AcDbEntity
  8
DISEGNO
100
AcDbLine
 10
-1832.721673
 20
-1498.520768
 30
0.0
 11
-1831.221673
 21
-1497.020768
 31
0.0
  0
LINE
  5
688
100
AcDbEntity
  8
DISEGNO
100
AcDbLine
 10
-1832.721673
 20
-1495.520768
 30
0.0
 11
-1831.221673
 21
-1497.020768
 31
0.0
  0
LINE
  5
68A
100
AcDbEntity
  8
DISEGNO
100
AcDbLine
 10
-1807.282333
 20
-1505.374321
 30
0.0
 11
-1805.86812
 21
-1503.960107
 31
0.0
  0
LINE
  5
68B
100
AcDbEntity
  8
DISEGNO
100
AcDbLine
 10
-1804.80746
 20
-1505.020768
 30
0.0
 11
-1805.86812
 21
-1503.960107
 31
0.0
  0
LINE
  5
68C
100
AcDbEntity
  8
DISEGNO
100
AcDbLine
 10
-1806.221673
 20
-1506.434981
 30
0.0
 11
-1807.282333
 21
-1505.374321
 31
0.0
  0
LINE
  5
68D
100
AcDbEntity
  8
DISEGNO
100
AcDbLine
 10
-1818.161013
 20
-1505.374321
 30
0.0
 11
-1819.575227
 21
-1503.960107
 31
0.0
  0
LINE
  5
68E
100
AcDbEntity
  8
DISEGNO
100
AcDbLine
 10
-1819.221673
 20
-1506.434981
 30
0.0
 11
-1818.161013
 21
-1505.374321
 31
0.0
  0
LINE
  5
68F
100
AcDbEntity
  8
DISEGNO
100
AcDbLine
 10
-1820.635887
 20
-1505.020768
 30
0.0
 11
-1819.575227
 21
-1503.960107
 31
0.0
  0
LINE
  5
691
100
AcDbEntity
  8
DISEGNO
100
AcDbLine
 10
-1819.221673
 20
-1506.434981
 30
0.0
 11
-1819.221673
 21
-1524.020768
 31
0.0
  0
LINE
  5
692
100
AcDbEntity
  8
DISEGNO
100
AcDbLine
 10
-1831.721673
 20
-1505.020768
 30
0.0
 11
-1820.635887
 21
-1505.020768
 31
0.0
  0
LINE
  5
695
100
AcDbEntity
  8
DISEGNO
100
AcDbLine
 10
-1804.80746
 20
-1505.020768
 30
0.0
 11
-1793.721673
 21
-1505.020768
 31
0.0
  0
LINE
  5
696
100
AcDbEntity
  8
DISEGNO
100
AcDbLine
 10
-1806.221673
 20
-1524.020768
 30
0.0
 11
-1806.221673
 21
-1506.434981
 31
0.0
  0
LINE
  5
697
100
AcDbEntity
  8
DISEGNO
100
AcDbLine
 10
-1818.221673
 20
-1525.020768
 30
0.0
 11
-1807.221673
 21
-1525.020768
 31
0.0
  0
LINE
  5
1143
100
AcDbEntity
  8
DISEGNO
100
AcDbLine
 10
-1801.31747
 20
-1452.244311
 30
0.0
 11
-1807.698859
 21
-1476.059979
 31
0.0
1001
ACAD
1000
ASC_BOUNDS
1002
{
1070
    19
1002
}
  0
LINE
  5
1144
100
AcDbEntity
  8
DISEGNO
100
AcDbLine
 10
-1824.125877
 20
-1452.24431
 30
0.0
 11
-1817.744487
 21
-1476.059979
 31
0.0
1001
ACAD
1000
ASC_BOUNDS
1002
{
1070
    19
1002
}
  0
LINE
  5
17F4
100
AcDbEntity
  8
DISEGNO
100
AcDbLine
 10
-1792.721673
 20
-1504.020768
 30
0.0
 11
-1792.721673
 21
-1451.020768
 31
0.0
1001
ACAD
1000
ASC_BOUNDS
1002
{
1070
    19
1002
}
  0
LINE
  5
19A9
100
AcDbEntity
  8
DISEGNO
100
AcDbLine
 10
-1831.721673
 20
-1450.020768
 30
0.0
 11
-1832.721673
 21
-1451.020768
 31
0.0
1001
ACAD
1000
ASC_BOUNDS
1002
{
1070
    19
1002
}
  0
LINE
  5
19AA
100
AcDbEntity
  8
DISEGNO
100
AcDbLine
 10
-1793.721673
 20
-1450.020768
 30
0.0
 11
-1793.721673
 21
-1450.020768
 31
0.0
1001
ACAD
1000
ASC_BOUNDS
1002
{
1070
    19
1002
}
  0
LINE
  5
1D9B
100
AcDbEntity
  8
DISEGNO
100
AcDbLine
 10
-1832.721673
 20
-1451.020768
 30
0.0
 11
-1832.721673
 21
-1495.520768
 31
0.0
1001
ACAD
1000
ASC_BOUNDS
1002
{
1070
    19
1002
}
  0
LINE
  5
21D2
100
AcDbEntity
  8
DISEGNO
100
AcDbLine
 10
-1793.721673
 20
-1450.020768
 30
0.0
 11
-1792.721673
 21
-1451.020768
 31
0.0
1001
ACAD
1000
ASC_BOUNDS
1002
{
1070
    19
1002
}
  0
ARC
  5
21ED
100
AcDbEntity
  8
DISEGNO
100
AcDbCircle
 10
-1812.721673
 20
-1474.71412
 30
0.0
 40
5.2
100
AcDbArc
 50
195.0
 51
345.0
1001
ACAD
1000
ASC_BOUNDS
1002
{
1070
    19
1002
}
  0
ARC
  5
2246
100
AcDbEntity
  8
DISEGNO
100
AcDbCircle
 10
-1827.023654
 20
-1453.020768
 30
0.0
 40
3.0
100
AcDbArc
 50
15.0
 51
90.0
1001
ACAD
1000
ASC_BOUNDS
1002
{
1070
    19
1002
}
  0
ARC
  5
2247
100
AcDbEntity
  8
DISEGNO
100
AcDbCircle
 10
-1798.419692
 20
-1453.020768
 30
0.0
 40
3.0
100
AcDbArc
 50
90.0
 51
165.0
1001
ACAD
1000
ASC_BOUNDS
1002
{
1070
    19
1002
}
  0
ENDSEC
  0
SECTION
  2
OBJECTS
  0
DICTIONARY
  5
C
100
AcDbDictionary
  3
ACAD_GROUP
350
D
  3
ACAD_MLINESTYLE
350
E
  0
DICTIONARY
  5
D
102
{ACAD_REACTORS
330
C
102
}
100
AcDbDictionary
  0
DICTIONARY
  5
E
102
{ACAD_REACTORS
330
C
102
}
100
AcDbDictionary
  3
STANDARD
350
1C
  0
MLINESTYLE
  5
1C
102
{ACAD_REACTORS
330
E
102
}
100
AcDbMlineStyle
  2
STANDARD
 70
     0
  3

 62
     0
 51
90.0
 52
90.0
 71
     2
 49
0.5
 62
   256
  6
BYLAYER
 49
-0.5
 62
   256
  6
BYLAYER
  0
ENDSEC
  0
EOF
