  0
SECTION
  2
HEADER
  9
$ACADVER
  1
AC1012
  9
$DWGCODEPAGE
  3
iso8859-1
  9
$INSBASE
 10
0.0
 20
0.0
 30
0.0
  9
$EXTMIN
 10
-1940.234365
 20
-1659.251698
 30
0.0
  9
$EXTMAX
 10
135.021227
 20
241.21119
 30
0.0
  9
$LIMMIN
 10
0.0
 20
0.0
  9
$LIMMAX
 10
210.0
 20
297.0
  9
$ORTHOMODE
 70
     1
  9
$REGENMODE
 70
     1
  9
$FILLMODE
 70
     1
  9
$QTEXTMODE
 70
     0
  9
$MIRRTEXT
 70
     1
  9
$DRAGMODE
 70
     2
  9
$LTSCALE
 40
1.0
  9
$OSMODE
 70
     0
  9
$ATTMODE
 70
     1
  9
$TEXTSIZE
 40
4.0
  9
$TRACEWID
 40
0.05
  9
$TEXTSTYLE
  7
STYLE3
  9
$CLAYER
  8
DISEGNO
  9
$CELTYPE
  6
BYLAYER
  9
$CECOLOR
 62
   256
  9
$CELTSCALE
 40
1.0
  9
$DELOBJ
 70
     1
  9
$DISPSILH
 70
     0
  9
$DIMSCALE
 40
1.0
  9
$DIMASZ
 40
2.5
  9
$DIMEXO
 40
0.625
  9
$DIMDLI
 40
3.75
  9
$DIMRND
 40
0.0
  9
$DIMDLE
 40
0.0
  9
$DIMEXE
 40
1.25
  9
$DIMTP
 40
0.0
  9
$DIMTM
 40
0.0
  9
$DIMTXT
 40
3.5
  9
$DIMCEN
 40
2.5
  9
$DIMTSZ
 40
0.0
  9
$DIMTOL
 70
     0
  9
$DIMLIM
 70
     0
  9
$DIMTIH
 70
     0
  9
$DIMTOH
 70
     0
  9
$DIMSE1
 70
     0
  9
$DIMSE2
 70
     0
  9
$DIMTAD
 70
     1
  9
$DIMZIN
 70
     8
  9
$DIMBLK
  1

  9
$DIMASO
 70
     1
  9
$DIMSHO
 70
     1
  9
$DIMPOST
  1

  9
$DIMAPOST
  1

  9
$DIMALT
 70
     0
  9
$DIMALTD
 70
     2
  9
$DIMALTF
 40
0.03937
  9
$DIMLFAC
 40
1.0
  9
$DIMTOFL
 70
     0
  9
$DIMTVP
 40
0.0
  9
$DIMTIX
 70
     0
  9
$DIMSOXD
 70
     0
  9
$DIMSAH
 70
     0
  9
$DIMBLK1
  1

  9
$DIMBLK2
  1

  9
$DIMSTYLE
  2
STANDARD
  9
$DIMCLRD
 70
     0
  9
$DIMCLRE
 70
     0
  9
$DIMCLRT
 70
     0
  9
$DIMTFAC
 40
1.0
  9
$DIMGAP
 40
0.625
  9
$DIMJUST
 70
     0
  9
$DIMSD1
 70
     0
  9
$DIMSD2
 70
     0
  9
$DIMTOLJ
 70
     1
  9
$DIMTZIN
 70
     8
  9
$DIMALTZ
 70
     0
  9
$DIMALTTZ
 70
     0
  9
$DIMFIT
 70
     3
  9
$DIMUPT
 70
     0
  9
$DIMUNIT
 70
     2
  9
$DIMDEC
 70
     2
  9
$DIMTDEC
 70
     2
  9
$DIMALTU
 70
     2
  9
$DIMALTTD
 70
     2
  9
$DIMTXSTY
  7
STANDARD
  9
$DIMAUNIT
 70
     0
  9
$LUNITS
 70
     2
  9
$LUPREC
 70
     4
  9
$SKETCHINC
 40
0.1
  9
$FILLETRAD
 40
1.5
  9
$AUNITS
 70
     0
  9
$AUPREC
 70
     0
  9
$MENU
  1
acad
  9
$ELEVATION
 40
0.0
  9
$PELEVATION
 40
0.0
  9
$THICKNESS
 40
0.0
  9
$LIMCHECK
 70
     0
  9
$BLIPMODE
 70
     1
  9
$CHAMFERA
 40
0.0
  9
$CHAMFERB
 40
0.0
  9
$CHAMFERC
 40
20.0
  9
$CHAMFERD
 40
0.0
  9
$SKPOLY
 70
     0
  9
$TDCREATE
 40
2453336.495829051
  9
$TDUPDATE
 40
2453336.495829051
  9
$TDINDWG
 40
0.0000000000
  9
$TDUSRTIMER
 40
0.0000000000
  9
$USRTIMER
 70
     1
  9
$ANGBASE
 50
0.0
  9
$ANGDIR
 70
     0
  9
$PDMODE
 70
     0
  9
$PDSIZE
 40
0.0
  9
$PLINEWID
 40
0.0
  9
$COORDS
 70
     1
  9
$SPLFRAME
 70
     0
  9
$SPLINETYPE
 70
     6
  9
$SPLINESEGS
 70
     8
  9
$ATTDIA
 70
     0
  9
$ATTREQ
 70
     1
  9
$HANDLING
 70
     1
  9
$HANDSEED
  5
693
  9
$SURFTAB1
 70
     6
  9
$SURFTAB2
 70
     6
  9
$SURFTYPE
 70
     6
  9
$SURFU
 70
     6
  9
$SURFV
 70
     6
  9
$UCSNAME
  2

  9
$UCSORG
 10
0.0
 20
0.0
 30
0.0
  9
$UCSXDIR
 10
1.0
 20
0.0
 30
0.0
  9
$UCSYDIR
 10
0.0
 20
1.0
 30
0.0
  9
$PUCSNAME
  2

  9
$PUCSORG
 10
0.0
 20
0.0
 30
0.0
  9
$PUCSXDIR
 10
1.0
 20
0.0
 30
0.0
  9
$PUCSYDIR
 10
0.0
 20
1.0
 30
0.0
  9
$USERI1
 70
     0
  9
$USERI2
 70
     0
  9
$USERI3
 70
     0
  9
$USERI4
 70
     0
  9
$USERI5
 70
     0
  9
$USERR1
 40
0.0
  9
$USERR2
 40
0.0
  9
$USERR3
 40
0.0
  9
$USERR4
 40
0.0
  9
$USERR5
 40
0.0
  9
$WORLDVIEW
 70
     1
  9
$SHADEDGE
 70
     3
  9
$SHADEDIF
 70
    70
  9
$TILEMODE
 70
     1
  9
$MAXACTVP
 70
    16
  9
$PINSBASE
 10
0.0
 20
0.0
 30
0.0
  9
$PLIMCHECK
 70
     0
  9
$PEXTMIN
 10
1.000000E+20
 20
1.000000E+20
 30
1.000000E+20
  9
$PEXTMAX
 10
-1.000000E+20
 20
-1.000000E+20
 30
-1.000000E+20
  9
$PLIMMIN
 10
0.0
 20
0.0
  9
$PLIMMAX
 10
12.0
 20
9.0
  9
$UNITMODE
 70
     0
  9
$VISRETAIN
 70
     0
  9
$PLINEGEN
 70
     0
  9
$PSLTSCALE
 70
     1
  9
$TREEDEPTH
 70
  3020
  9
$PICKSTYLE
 70
     1
  9
$CMLSTYLE
  2
STANDARD
  9
$CMLJUST
 70
     0
  9
$CMLSCALE
 40
20.0
  9
$SAVEIMAGES
 70
     0
  0
ENDSEC
  0
SECTION
  2
CLASSES
  0
ENDSEC
  0
SECTION
  2
TABLES
  0
TABLE
  2
VPORT
  5
8
100
AcDbSymbolTable
 70
     8
  0
VPORT
  5
692
100
AcDbSymbolTableRecord
100
AcDbViewportTableRecord
  2
*ACTIVE
 70
     0
 10
0.0
 20
0.0
 11
1.0
 21
1.0
 12
101.822605
 22
-937.883688
 13
0.0
 23
0.0
 14
10.0
 24
10.0
 15
10.0
 25
10.0
 16
0.0
 26
0.0
 36
1.0
 17
0.0
 27
0.0
 37
0.0
 40
295.016025
 41
1.563011
 42
50.0
 43
0.0
 44
0.0
 50
0.0
 51
0.0
 71
     0
 72
   100
 73
     1
 74
     0
 75
     0
 76
     0
 77
     0
 78
     0
  0
ENDTAB
  0
TABLE
  2
LTYPE
  5
5
100
AcDbSymbolTable
 70
     4
  0
LTYPE
  5
13
100
AcDbSymbolTableRecord
100
AcDbLinetypeTableRecord
  2
BYBLOCK
 70
     0
  3

 72
    65
 73
     0
 40
0.0
  0
LTYPE
  5
14
100
AcDbSymbolTableRecord
100
AcDbLinetypeTableRecord
  2
BYLAYER
 70
     0
  3

 72
    65
 73
     0
 40
0.0
  0
LTYPE
  5
15
100
AcDbSymbolTableRecord
100
AcDbLinetypeTableRecord
  2
CONTINUOUS
 70
    64
  3
Solid line
 72
    65
 73
     0
 40
0.0
  0
LTYPE
  5
94
100
AcDbSymbolTableRecord
100
AcDbLinetypeTableRecord
  2
ACAD_ISO04W100
 70
    64
  3
____ . ____ . ____ . ____ . ____ . ____ . ____ 
 72
    65
 73
     4
 40
30.5
 49
24.0
 74
     0
 49
-3.0
 74
     0
 49
0.5
 74
     0
 49
-3.0
 74
     0
  0
LTYPE
  5
225
100
AcDbSymbolTableRecord
100
AcDbLinetypeTableRecord
  2
TRATTEGGIATAX2
 70
    64
  3
____  ____  ____  ____  ____  ____  ____  ____ 
 72
    65
 73
     2
 40
1.5
 49
1.0
 74
     0
 49
-0.5
 74
     0
  0
LTYPE
  5
226
100
AcDbSymbolTableRecord
100
AcDbLinetypeTableRecord
  2
NASCOSTA
 70
    64
  3
__ __ __ __ __ __ __ __ __ __ __ __ __ __ __ __
 72
    65
 73
     2
 40
0.375
 49
0.25
 74
     0
 49
-0.125
 74
     0
  0
ENDTAB
  0
TABLE
  2
LAYER
  5
2
100
AcDbSymbolTable
 70
    12
  0
LAYER
  5
F
100
AcDbSymbolTableRecord
100
AcDbLayerTableRecord
  2
0
 70
     0
 62
     7
  6
CONTINUOUS
  0
LAYER
  5
95
100
AcDbSymbolTableRecord
100
AcDbLayerTableRecord
  2
DISEGNO
 70
    64
 62
     7
  6
CONTINUOUS
  0
LAYER
  5
96
100
AcDbSymbolTableRecord
100
AcDbLayerTableRecord
  2
ASSI
 70
    64
 62
     1
  6
ACAD_ISO04W100
  0
LAYER
  5
97
100
AcDbSymbolTableRecord
100
AcDbLayerTableRecord
  2
SEZIONE
 70
    64
 62
     3
  6
CONTINUOUS
  0
LAYER
  5
98
100
AcDbSymbolTableRecord
100
AcDbLayerTableRecord
  2
TEMPRA
 70
    64
 62
     2
  6
CONTINUOUS
  0
LAYER
  5
99
100
AcDbSymbolTableRecord
100
AcDbLayerTableRecord
  2
QUOTE
 70
    64
 62
     5
  6
CONTINUOUS
  0
LAYER
  5
1A3
100
AcDbSymbolTableRecord
100
AcDbLayerTableRecord
  2
TRATTO
 70
    64
 62
     6
  6
NASCOSTA
  0
LAYER
  5
28A
100
AcDbSymbolTableRecord
100
AcDbLayerTableRecord
  2
DEFPOINTS
 70
    64
 62
     7
  6
CONTINUOUS
  0
LAYER
  5
4A6
100
AcDbSymbolTableRecord
100
AcDbLayerTableRecord
  2
TABELLA
 70
    64
 62
     8
  6
CONTINUOUS
  0
LAYER
  5
55B
100
AcDbSymbolTableRecord
100
AcDbLayerTableRecord
  2
MARCATURA
 70
    64
 62
   136
  6
CONTINUOUS
  0
LAYER
  5
55C
100
AcDbSymbolTableRecord
100
AcDbLayerTableRecord
  2
TESTO
 70
    64
 62
   140
  6
CONTINUOUS
  0
LAYER
  5
631
100
AcDbSymbolTableRecord
100
AcDbLayerTableRecord
  2
OGGETTI
 70
    64
 62
     7
  6
CONTINUOUS
  0
ENDTAB
  0
TABLE
  2
STYLE
  5
3
100
AcDbSymbolTable
 70
     2
  0
STYLE
  5
10
100
AcDbSymbolTableRecord
100
AcDbTextStyleTableRecord
  2
STANDARD
 70
    64
 40
0.0
 41
1.1
 50
0.0
 71
     0
 42
3.0
  3
D:\Programmi\AutoCAD LT\isocp.shx
  4

  0
STYLE
  5
B0
100
AcDbSymbolTableRecord
100
AcDbTextStyleTableRecord
  2
STYLE3
 70
    64
 40
0.0
 41
1.1
 50
0.0
 71
     0
 42
4.0
  3
D:\Programmi\AutoCAD LT\isocp.shx
  4

  0
ENDTAB
  0
TABLE
  2
VIEW
  5
6
100
AcDbSymbolTable
 70
     0
  0
ENDTAB
  0
TABLE
  2
UCS
  5
7
100
AcDbSymbolTable
 70
     0
  0
ENDTAB
  0
TABLE
  2
APPID
  5
9
100
AcDbSymbolTable
 70
     1
  0
APPID
  5
11
100
AcDbSymbolTableRecord
100
AcDbRegAppTableRecord
  2
ACAD
 70
     0
  0
ENDTAB
  0
TABLE
  2
DIMSTYLE
  5
A
100
AcDbSymbolTable
 70
    24
  0
DIMSTYLE
105
1D
100
AcDbSymbolTableRecord
100
AcDbDimStyleTableRecord
  2
STANDARD
 70
     0
  3

  4

  5

  6

  7

 40
1.0
 41
2.5
 42
0.625
 43
3.75
 44
1.25
 45
0.0
 46
0.0
 47
0.0
 48
0.0
140
3.5
141
2.5
142
0.0
143
0.03937
144
1.0
145
0.0
146
1.0
147
0.625
 71
     0
 72
     0
 73
     0
 74
     0
 75
     0
 76
     0
 77
     1
 78
     8
170
     0
171
     2
172
     0
173
     0
174
     0
175
     0
176
     0
177
     0
178
     0
270
     2
271
     2
272
     2
273
     2
274
     2
340
10
275
     0
280
     0
281
     0
282
     0
283
     1
284
     8
285
     0
286
     0
287
     3
288
     0
  0
DIMSTYLE
105
234
100
AcDbSymbolTableRecord
100
AcDbDimStyleTableRecord
  2
TOLL-04
 70
     0
  3

  4

  5

  6

  7

 40
1.0
 41
2.5
 42
0.625
 43
3.75
 44
1.25
 45
0.0
 46
0.0
 47
0.02
 48
0.02
140
3.5
141
2.5
142
0.0
143
0.03937
144
1.0
145
0.0
146
0.8
147
0.625
 71
     1
 72
     0
 73
     0
 74
     0
 75
     0
 76
     0
 77
     1
 78
     8
170
     0
171
     2
172
     0
173
     0
174
     0
175
     0
176
     0
177
     0
178
     0
270
     2
271
     2
272
     2
273
     2
274
     2
340
10
275
     0
280
     0
281
     0
282
     0
283
     2
284
     8
285
     0
286
     0
287
     3
288
     0
  0
DIMSTYLE
105
4A7
100
AcDbSymbolTableRecord
100
AcDbDimStyleTableRecord
  2
ISO-25
 70
     0
  3

  4

  5

  6

  7

 40
1.0
 41
2.5
 42
0.625
 43
3.75
 44
1.25
 45
0.0
 46
0.0
 47
0.0
 48
0.0
140
2.5
141
2.5
142
0.0
143
0.0394
144
1.0
145
1.0
146
1.0
147
0.625
 71
     0
 72
     0
 73
     1
 74
     0
 75
     0
 76
     0
 77
     1
 78
     8
170
     0
171
     2
172
     1
173
     0
174
     0
175
     0
176
     0
177
     0
178
     0
270
     2
271
     4
272
     4
273
     2
274
     2
340
10
275
     0
280
     0
281
     0
282
     0
283
     1
284
     0
285
     0
286
     0
287
     3
288
     0
  0
DIMSTYLE
105
574
100
AcDbSymbolTableRecord
100
AcDbDimStyleTableRecord
  2
TOLL-01
 70
     0
  3

  4

  5

  6

  7

 40
1.0
 41
2.5
 42
0.625
 43
3.75
 44
1.25
 45
0.0
 46
0.0
 47
0.01
 48
0.01
140
3.5
141
2.5
142
0.0
143
0.03937
144
1.0
145
0.0
146
0.8
147
0.625
 71
     1
 72
     0
 73
     0
 74
     0
 75
     0
 76
     0
 77
     1
 78
     8
170
     0
171
     2
172
     0
173
     0
174
     0
175
     0
176
     0
177
     0
178
     0
270
     2
271
     2
272
     2
273
     2
274
     2
340
10
275
     0
280
     0
281
     0
282
     0
283
     2
284
     8
285
     0
286
     0
287
     3
288
     0
  0
DIMSTYLE
105
575
100
AcDbSymbolTableRecord
100
AcDbDimStyleTableRecord
  2
TOLL-02
 70
     0
  3

  4

  5

  6

  7

 40
1.0
 41
2.5
 42
0.625
 43
3.75
 44
1.25
 45
0.0
 46
0.0
 47
0.01
 48
0.0
140
3.5
141
2.5
142
0.0
143
0.03937
144
1.0
145
0.0
146
0.8
147
0.625
 71
     1
 72
     0
 73
     0
 74
     0
 75
     0
 76
     0
 77
     1
 78
     8
170
     0
171
     2
172
     0
173
     0
174
     0
175
     0
176
     0
177
     0
178
     0
270
     2
271
     2
272
     2
273
     2
274
     2
340
10
275
     0
280
     0
281
     0
282
     0
283
     2
284
     8
285
     0
286
     0
287
     3
288
     0
  0
DIMSTYLE
105
576
100
AcDbSymbolTableRecord
100
AcDbDimStyleTableRecord
  2
TOLL-03
 70
     0
  3

  4

  5

  6

  7

 40
1.0
 41
2.5
 42
0.625
 43
3.75
 44
1.25
 45
0.0
 46
0.0
 47
-0.01
 48
0.0
140
3.5
141
2.5
142
0.0
143
0.03937
144
1.0
145
0.0
146
0.8
147
0.625
 71
     1
 72
     0
 73
     0
 74
     0
 75
     0
 76
     0
 77
     1
 78
     8
170
     0
171
     2
172
     0
173
     0
174
     0
175
     0
176
     0
177
     0
178
     0
270
     2
271
     2
272
     2
273
     2
274
     2
340
10
275
     0
280
     0
281
     0
282
     0
283
     2
284
     8
285
     0
286
     0
287
     3
288
     0
  0
DIMSTYLE
105
577
100
AcDbSymbolTableRecord
100
AcDbDimStyleTableRecord
  2
TOLL-05
 70
     0
  3

  4

  5

  6

  7

 40
1.0
 41
2.5
 42
0.625
 43
3.75
 44
1.25
 45
0.0
 46
0.0
 47
0.02
 48
0.0
140
3.5
141
2.5
142
0.0
143
0.03937
144
1.0
145
0.0
146
0.8
147
0.625
 71
     1
 72
     0
 73
     0
 74
     0
 75
     0
 76
     0
 77
     1
 78
     8
170
     0
171
     2
172
     0
173
     0
174
     0
175
     0
176
     0
177
     0
178
     0
270
     2
271
     2
272
     2
273
     2
274
     2
340
10
275
     0
280
     0
281
     0
282
     0
283
     2
284
     8
285
     0
286
     0
287
     3
288
     0
  0
DIMSTYLE
105
578
100
AcDbSymbolTableRecord
100
AcDbDimStyleTableRecord
  2
TOLL-06
 70
     0
  3

  4

  5

  6

  7

 40
1.0
 41
2.5
 42
0.625
 43
3.75
 44
1.25
 45
0.0
 46
0.0
 47
-0.02
 48
0.0
140
3.5
141
2.5
142
0.0
143
0.03937
144
1.0
145
0.0
146
0.8
147
0.625
 71
     1
 72
     0
 73
     0
 74
     0
 75
     0
 76
     0
 77
     1
 78
     8
170
     0
171
     2
172
     0
173
     0
174
     0
175
     0
176
     0
177
     0
178
     0
270
     2
271
     2
272
     2
273
     2
274
     2
340
10
275
     0
280
     0
281
     0
282
     0
283
     2
284
     8
285
     0
286
     0
287
     3
288
     0
  0
DIMSTYLE
105
579
100
AcDbSymbolTableRecord
100
AcDbDimStyleTableRecord
  2
TOLL-07
 70
     0
  3

  4

  5

  6

  7

 40
1.0
 41
2.5
 42
0.625
 43
3.75
 44
1.25
 45
0.0
 46
0.0
 47
0.05
 48
0.05
140
3.5
141
2.5
142
0.0
143
0.03937
144
1.0
145
0.0
146
0.8
147
0.625
 71
     1
 72
     0
 73
     0
 74
     0
 75
     0
 76
     0
 77
     1
 78
     8
170
     0
171
     2
172
     0
173
     0
174
     0
175
     0
176
     0
177
     0
178
     0
270
     2
271
     2
272
     2
273
     2
274
     2
340
10
275
     0
280
     0
281
     0
282
     0
283
     2
284
     8
285
     0
286
     0
287
     3
288
     0
  0
DIMSTYLE
105
57A
100
AcDbSymbolTableRecord
100
AcDbDimStyleTableRecord
  2
TOLL-08
 70
     0
  3

  4

  5

  6

  7

 40
1.0
 41
2.5
 42
0.625
 43
3.75
 44
1.25
 45
0.0
 46
0.0
 47
0.05
 48
0.0
140
3.5
141
2.5
142
0.0
143
0.03937
144
1.0
145
0.0
146
0.8
147
0.625
 71
     1
 72
     0
 73
     0
 74
     0
 75
     0
 76
     0
 77
     1
 78
     8
170
     0
171
     2
172
     0
173
     0
174
     0
175
     0
176
     0
177
     0
178
     0
270
     2
271
     2
272
     2
273
     2
274
     2
340
10
275
     0
280
     0
281
     0
282
     0
283
     2
284
     8
285
     0
286
     0
287
     3
288
     0
  0
DIMSTYLE
105
57B
100
AcDbSymbolTableRecord
100
AcDbDimStyleTableRecord
  2
TOLL-09
 70
     0
  3

  4

  5

  6

  7

 40
1.0
 41
2.5
 42
0.625
 43
3.75
 44
1.25
 45
0.0
 46
0.0
 47
-0.05
 48
0.0
140
3.5
141
2.5
142
0.0
143
0.03937
144
1.0
145
0.0
146
0.8
147
0.625
 71
     1
 72
     0
 73
     0
 74
     0
 75
     0
 76
     0
 77
     1
 78
     8
170
     0
171
     2
172
     0
173
     0
174
     0
175
     0
176
     0
177
     0
178
     0
270
     2
271
     2
272
     2
273
     2
274
     2
340
10
275
     0
280
     0
281
     0
282
     0
283
     2
284
     8
285
     0
286
     0
287
     3
288
     0
  0
DIMSTYLE
105
57C
100
AcDbSymbolTableRecord
100
AcDbDimStyleTableRecord
  2
TOLL-10
 70
     0
  3

  4

  5

  6

  7

 40
1.0
 41
2.5
 42
0.625
 43
3.75
 44
1.25
 45
0.0
 46
0.0
 47
0.1
 48
0.1
140
3.5
141
2.5
142
0.0
143
0.03937
144
1.0
145
0.0
146
0.8
147
0.625
 71
     1
 72
     0
 73
     0
 74
     0
 75
     0
 76
     0
 77
     1
 78
     8
170
     0
171
     2
172
     0
173
     0
174
     0
175
     0
176
     0
177
     0
178
     0
270
     2
271
     2
272
     2
273
     2
274
     2
340
10
275
     0
280
     0
281
     0
282
     0
283
     2
284
     8
285
     0
286
     0
287
     3
288
     0
  0
DIMSTYLE
105
57D
100
AcDbSymbolTableRecord
100
AcDbDimStyleTableRecord
  2
TOLL-11
 70
     0
  3

  4

  5

  6

  7

 40
1.0
 41
2.5
 42
0.625
 43
3.75
 44
1.25
 45
0.0
 46
0.0
 47
0.1
 48
0.0
140
3.5
141
2.5
142
0.0
143
0.03937
144
1.0
145
0.0
146
0.8
147
0.625
 71
     1
 72
     0
 73
     0
 74
     0
 75
     0
 76
     0
 77
     1
 78
     8
170
     0
171
     2
172
     0
173
     0
174
     0
175
     0
176
     0
177
     0
178
     0
270
     2
271
     2
272
     2
273
     2
274
     2
340
10
275
     0
280
     0
281
     0
282
     0
283
     2
284
     8
285
     0
286
     0
287
     3
288
     0
  0
DIMSTYLE
105
57E
100
AcDbSymbolTableRecord
100
AcDbDimStyleTableRecord
  2
TOLL-12
 70
     0
  3

  4

  5

  6

  7

 40
1.0
 41
2.5
 42
0.625
 43
3.75
 44
1.25
 45
0.0
 46
0.0
 47
-0.1
 48
0.0
140
3.5
141
2.5
142
0.0
143
0.03937
144
1.0
145
0.0
146
0.8
147
0.625
 71
     1
 72
     0
 73
     0
 74
     0
 75
     0
 76
     0
 77
     1
 78
     8
170
     0
171
     2
172
     0
173
     0
174
     0
175
     0
176
     0
177
     0
178
     0
270
     2
271
     2
272
     2
273
     2
274
     2
340
10
275
     0
280
     0
281
     0
282
     0
283
     2
284
     8
285
     0
286
     0
287
     3
288
     0
  0
DIMSTYLE
105
57F
100
AcDbSymbolTableRecord
100
AcDbDimStyleTableRecord
  2
TOLL-13
 70
     0
  3

  4

  5

  6

  7

 40
1.0
 41
2.5
 42
0.625
 43
3.75
 44
1.25
 45
0.0
 46
0.0
 47
0.2
 48
0.2
140
3.5
141
2.5
142
0.0
143
0.03937
144
1.0
145
0.0
146
0.8
147
0.625
 71
     1
 72
     0
 73
     0
 74
     0
 75
     0
 76
     0
 77
     1
 78
     8
170
     0
171
     2
172
     0
173
     0
174
     0
175
     0
176
     0
177
     0
178
     0
270
     2
271
     2
272
     2
273
     2
274
     2
340
10
275
     0
280
     0
281
     0
282
     0
283
     2
284
     8
285
     0
286
     0
287
     3
288
     0
  0
DIMSTYLE
105
580
100
AcDbSymbolTableRecord
100
AcDbDimStyleTableRecord
  2
TOLL-14
 70
     0
  3

  4

  5

  6

  7

 40
1.0
 41
2.5
 42
0.625
 43
3.75
 44
1.25
 45
0.0
 46
0.0
 47
0.2
 48
0.0
140
3.5
141
2.5
142
0.0
143
0.03937
144
1.0
145
0.0
146
0.8
147
0.625
 71
     1
 72
     0
 73
     0
 74
     0
 75
     0
 76
     0
 77
     1
 78
     8
170
     0
171
     2
172
     0
173
     0
174
     0
175
     0
176
     0
177
     0
178
     0
270
     2
271
     2
272
     2
273
     2
274
     2
340
10
275
     0
280
     0
281
     0
282
     0
283
     2
284
     8
285
     0
286
     0
287
     3
288
     0
  0
DIMSTYLE
105
581
100
AcDbSymbolTableRecord
100
AcDbDimStyleTableRecord
  2
TOLL-15
 70
     0
  3

  4

  5

  6

  7

 40
1.0
 41
2.5
 42
0.625
 43
3.75
 44
1.25
 45
0.0
 46
0.0
 47
-0.2
 48
0.0
140
3.5
141
2.5
142
0.0
143
0.03937
144
1.0
145
0.0
146
0.8
147
0.625
 71
     1
 72
     0
 73
     0
 74
     0
 75
     0
 76
     0
 77
     1
 78
     8
170
     0
171
     2
172
     0
173
     0
174
     0
175
     0
176
     0
177
     0
178
     0
270
     2
271
     2
272
     2
273
     2
274
     2
340
10
275
     0
280
     0
281
     0
282
     0
283
     2
284
     8
285
     0
286
     0
287
     3
288
     0
  0
DIMSTYLE
105
582
100
AcDbSymbolTableRecord
100
AcDbDimStyleTableRecord
  2
TOLL-16
 70
     0
  3

  4

  5

  6

  7

 40
1.0
 41
2.5
 42
0.625
 43
3.75
 44
1.25
 45
0.0
 46
0.0
 47
0.5
 48
0.5
140
3.5
141
2.5
142
0.0
143
0.03937
144
1.0
145
0.0
146
0.8
147
0.625
 71
     1
 72
     0
 73
     0
 74
     0
 75
     0
 76
     0
 77
     1
 78
     8
170
     0
171
     2
172
     0
173
     0
174
     0
175
     0
176
     0
177
     0
178
     0
270
     2
271
     2
272
     2
273
     2
274
     2
340
10
275
     0
280
     0
281
     0
282
     0
283
     2
284
     8
285
     0
286
     0
287
     3
288
     0
  0
DIMSTYLE
105
583
100
AcDbSymbolTableRecord
100
AcDbDimStyleTableRecord
  2
TOLL-17
 70
     0
  3

  4

  5

  6

  7

 40
1.0
 41
2.5
 42
0.625
 43
3.75
 44
1.25
 45
0.0
 46
0.0
 47
0.5
 48
0.0
140
3.5
141
2.5
142
0.0
143
0.03937
144
1.0
145
0.0
146
0.8
147
0.625
 71
     1
 72
     0
 73
     0
 74
     0
 75
     0
 76
     0
 77
     1
 78
     8
170
     0
171
     2
172
     0
173
     0
174
     0
175
     0
176
     0
177
     0
178
     0
270
     2
271
     2
272
     2
273
     2
274
     2
340
10
275
     0
280
     0
281
     0
282
     0
283
     2
284
     8
285
     0
286
     0
287
     3
288
     0
  0
DIMSTYLE
105
584
100
AcDbSymbolTableRecord
100
AcDbDimStyleTableRecord
  2
TOLL-18
 70
     0
  3

  4

  5

  6

  7

 40
1.0
 41
2.5
 42
0.625
 43
3.75
 44
1.25
 45
0.0
 46
0.0
 47
-0.5
 48
0.0
140
3.5
141
2.5
142
0.0
143
0.03937
144
1.0
145
0.0
146
0.8
147
0.625
 71
     1
 72
     0
 73
     0
 74
     0
 75
     0
 76
     0
 77
     1
 78
     8
170
     0
171
     2
172
     0
173
     0
174
     0
175
     0
176
     0
177
     0
178
     0
270
     2
271
     2
272
     2
273
     2
274
     2
340
10
275
     0
280
     0
281
     0
282
     0
283
     2
284
     8
285
     0
286
     0
287
     3
288
     0
  0
DIMSTYLE
105
585
100
AcDbSymbolTableRecord
100
AcDbDimStyleTableRecord
  2
TOLL-19
 70
     0
  3

  4

  5

  6

  7

 40
1.0
 41
2.5
 42
0.625
 43
3.75
 44
1.25
 45
0.0
 46
0.0
 47
0.16
 48
0.0
140
3.5
141
2.5
142
0.0
143
0.03937
144
1.0
145
0.0
146
0.8
147
0.625
 71
     1
 72
     0
 73
     0
 74
     0
 75
     0
 76
     0
 77
     1
 78
     8
170
     0
171
     2
172
     0
173
     0
174
     0
175
     0
176
     0
177
     0
178
     0
270
     2
271
     0
272
     2
273
     2
274
     2
340
10
275
     1
280
     0
281
     0
282
     0
283
     2
284
     8
285
     0
286
     0
287
     3
288
     0
  0
DIMSTYLE
105
5E5
100
AcDbSymbolTableRecord
100
AcDbDimStyleTableRecord
  2
TOLL-20
 70
     0
  3

  4

  5

  6

  7

 40
1.0
 41
2.5
 42
0.625
 43
3.75
 44
1.25
 45
0.0
 46
0.0
 47
0.08
 48
0.08
140
3.5
141
2.5
142
0.0
143
0.03937
144
1.0
145
0.0
146
0.8
147
0.625
 71
     1
 72
     0
 73
     0
 74
     0
 75
     0
 76
     0
 77
     1
 78
     8
170
     0
171
     2
172
     0
173
     0
174
     0
175
     0
176
     0
177
     0
178
     0
270
     2
271
     0
272
     2
273
     2
274
     2
340
10
275
     1
280
     0
281
     0
282
     0
283
     2
284
     8
285
     0
286
     0
287
     3
288
     0
  0
DIMSTYLE
105
5E6
100
AcDbSymbolTableRecord
100
AcDbDimStyleTableRecord
  2
TOLL-21
 70
     0
  3

  4

  5

  6

  7

 40
1.0
 41
2.5
 42
0.625
 43
3.75
 44
1.25
 45
0.0
 46
0.0
 47
0.0825
 48
0.0
140
3.5
141
2.5
142
0.0
143
0.03937
144
1.0
145
0.0
146
0.8
147
0.625
 71
     1
 72
     0
 73
     0
 74
     0
 75
     0
 76
     0
 77
     1
 78
     8
170
     0
171
     2
172
     0
173
     0
174
     0
175
     0
176
     0
177
     0
178
     0
270
     2
271
     0
272
     2
273
     2
274
     2
340
10
275
     1
280
     0
281
     0
282
     0
283
     2
284
     8
285
     0
286
     0
287
     3
288
     0
  0
DIMSTYLE
105
60E
100
AcDbSymbolTableRecord
100
AcDbDimStyleTableRecord
  2
TOLL-22
 70
     0
  3

  4

  5

  6

  7

 40
1.0
 41
2.5
 42
0.625
 43
3.75
 44
1.25
 45
0.0
 46
0.0
 47
-0.0825
 48
0.0
140
3.5
141
2.5
142
0.0
143
0.03937
144
1.0
145
0.0
146
0.8
147
0.625
 71
     1
 72
     0
 73
     0
 74
     0
 75
     0
 76
     0
 77
     1
 78
     8
170
     0
171
     2
172
     0
173
     0
174
     0
175
     0
176
     0
177
     0
178
     0
270
     2
271
     0
272
     2
273
     2
274
     2
340
10
275
     1
280
     0
281
     0
282
     0
283
     2
284
     8
285
     0
286
     0
287
     3
288
     0
  0
ENDTAB
  0
TABLE
  2
BLOCK_RECORD
  5
1
100
AcDbSymbolTable
 70
     2
  0
BLOCK_RECORD
  5
19
100
AcDbSymbolTableRecord
100
AcDbBlockTableRecord
  2
*MODEL_SPACE
  0
BLOCK_RECORD
  5
16
100
AcDbSymbolTableRecord
100
AcDbBlockTableRecord
  2
*PAPER_SPACE
  0
BLOCK_RECORD
  5
3A2
100
AcDbSymbolTableRecord
100
AcDbBlockTableRecord
  2
RUGOSITA
  0
BLOCK_RECORD
  5
4A8
100
AcDbSymbolTableRecord
100
AcDbBlockTableRecord
  2
A$C52B2
  0
ENDTAB
  0
ENDSEC
  0
SECTION
  2
BLOCKS
  0
BLOCK
  5
1A
100
AcDbEntity
  8
0
100
AcDbBlockBegin
  2
*MODEL_SPACE
 70
     0
 10
0.0
 20
0.0
 30
0.0
  3
*MODEL_SPACE
  1

  0
ENDBLK
  5
1B
100
AcDbEntity
  8
0
100
AcDbBlockEnd
  0
BLOCK
  5
17
100
AcDbEntity
 67
     1
  8
0
100
AcDbBlockBegin
  2
*PAPER_SPACE
 70
     0
 10
0.0
 20
0.0
 30
0.0
  3
*PAPER_SPACE
  1

  0
ENDBLK
  5
18
100
AcDbEntity
 67
     1
  8
0
100
AcDbBlockEnd
  0
BLOCK
  5
3A7
100
AcDbEntity
  8
DISEGNO
100
AcDbBlockBegin
  2
RUGOSITA
 70
     2
 10
0.0
 20
0.0
 30
0.0
  3
RUGOSITA
  1

  0
ATTDEF
  5
3A3
100
AcDbEntity
  8
QUOTE
100
AcDbText
 10
-1.071886
 20
3.214106
 30
0.0
 40
1.5
  1
0.8
100
AcDbAttributeDefinition
  3
CHE RUGOSITA ?
  2
RUGOSITA
 70
     0
  0
LINE
  5
3A4
100
AcDbEntity
  8
QUOTE
100
AcDbLine
 10
0.0
 20
0.0
 30
0.0
 11
4.0
 21
6.928203
 31
0.0
  0
LINE
  5
3A5
100
AcDbEntity
  8
QUOTE
100
AcDbLine
 10
0.0
 20
0.0
 30
0.0
 11
-1.75
 21
3.031089
 31
0.0
  0
LINE
  5
3A6
100
AcDbEntity
  8
QUOTE
100
AcDbLine
 10
-1.75
 20
3.031089
 30
0.0
 11
1.75
 21
3.031089
 31
0.0
  0
ENDBLK
  5
3A8
100
AcDbEntity
  8
DISEGNO
100
AcDbBlockEnd
  0
BLOCK
  5
547
100
AcDbEntity
  8
QUOTE
100
AcDbBlockBegin
  2
A$C52B2
 70
     0
 10
0.0
 20
0.0
 30
0.0
  3
A$C52B2
  1

  0
LINE
  5
4A9
100
AcDbEntity
  8
TABELLA
  6
CONTINUOUS
100
AcDbLine
 10
100.781064
 20
5.387067
 30
0.0
 11
103.281064
 21
0.387067
 31
0.0
  0
LINE
  5
4AA
100
AcDbEntity
  8
TABELLA
  6
CONTINUOUS
100
AcDbLine
 10
100.781064
 20
0.387067
 30
0.0
 11
103.281064
 21
0.387067
 31
0.0
  0
LINE
  5
4AB
100
AcDbEntity
  8
TABELLA
  6
CONTINUOUS
100
AcDbLine
 10
103.281064
 20
287.387067
 30
0.0
 11
100.781064
 21
282.387067
 31
0.0
  0
LINE
  5
4AC
100
AcDbEntity
  8
TABELLA
  6
CONTINUOUS
100
AcDbLine
 10
100.781064
 20
287.387067
 30
0.0
 11
103.281064
 21
287.387067
 31
0.0
  0
TEXT
  5
4AD
100
AcDbEntity
  8
TABELLA
  6
CONTINUOUS
100
AcDbText
 10
83.891226
 20
14.123583
 30
0.0
 40
6.0
  1
ROLLERI
100
AcDbText
  0
LINE
  5
4AE
100
AcDbEntity
  8
TABELLA
  6
CONTINUOUS
100
AcDbLine
 10
115.706968
 20
22.612261
 30
0.0
 11
84.107383
 21
22.612261
 31
0.0
1001
ACAD
1000
ASC_BOUNDS
1002
{
1070
    19
1002
}
  0
LINE
  5
4AF
100
AcDbEntity
  8
TABELLA
  6
CONTINUOUS
100
AcDbLine
 10
82.055262
 20
11.456564
 30
0.0
 11
113.654847
 21
11.456564
 31
0.0
1001
ACAD
1000
ASC_BOUNDS
1002
{
1070
    19
1002
}
  0
LINE
  5
4B0
100
AcDbEntity
  8
TABELLA
  6
CONTINUOUS
100
AcDbLine
 10
116.407176
 20
23.612261
 30
0.0
 11
83.407176
 21
23.612261
 31
0.0
1001
ACAD
1000
ASC_BOUNDS
1002
{
1070
    19
1002
}
  0
LINE
  5
4B1
100
AcDbEntity
  8
TABELLA
  6
CONTINUOUS
100
AcDbLine
 10
81.355055
 20
10.456564
 30
0.0
 11
114.355055
 21
10.456564
 31
0.0
1001
ACAD
1000
ASC_BOUNDS
1002
{
1070
    19
1002
}
  0
TEXT
  5
4B2
100
AcDbEntity
  8
TABELLA
  6
CONTINUOUS
100
AcDbText
 10
79.770815
 20
6.679292
 30
0.0
 40
2.0
  1
Vigolzone ( Piacenza ) - ITALIA
100
AcDbText
  0
LINE
  5
4B3
100
AcDbEntity
  8
TABELLA
  6
CONTINUOUS
100
AcDbLine
 10
125.782064
 20
35.387067
 30
0.0
 11
75.782064
 21
35.387067
 31
0.0
  0
LINE
  5
4B4
100
AcDbEntity
  8
TABELLA
  6
CONTINUOUS
100
AcDbLine
 10
195.782064
 20
45.387067
 30
0.0
 11
5.697058
 21
45.395351
 31
0.0
  0
LINE
  5
4B5
100
AcDbEntity
  8
TABELLA
  6
CONTINUOUS
100
AcDbLine
 10
125.782064
 20
25.387067
 30
0.0
 11
75.782064
 21
25.387067
 31
0.0
  0
LINE
  5
4B6
100
AcDbEntity
  8
TABELLA
  6
CONTINUOUS
100
AcDbLine
 10
195.782064
 20
5.387067
 30
0.0
 11
5.782064
 21
5.387067
 31
0.0
  0
LINE
  5
4B7
100
AcDbEntity
  8
TABELLA
  6
CONTINUOUS
100
AcDbLine
 10
5.782064
 20
282.387067
 30
0.0
 11
195.782064
 21
282.387067
 31
0.0
  0
LINE
  5
4B8
100
AcDbEntity
  8
TABELLA
  6
CONTINUOUS
100
AcDbLine
 10
5.782064
 20
143.887067
 30
0.0
 11
0.782064
 21
141.387067
 31
0.0
  0
LINE
  5
4B9
100
AcDbEntity
  8
TABELLA
  6
CONTINUOUS
100
AcDbLine
 10
0.782064
 20
143.887067
 30
0.0
 11
0.782064
 21
141.387067
 31
0.0
  0
LINE
  5
4BA
100
AcDbEntity
  8
TABELLA
  6
CONTINUOUS
100
AcDbLine
 10
5.782064
 20
5.387067
 30
0.0
 11
5.782064
 21
282.387067
 31
0.0
  0
POLYLINE
  5
4BB
100
AcDbEntity
  8
QUOTE
100
AcDb2dPolyline
 66
     1
 10
0.0
 20
0.0
 30
0.0
 70
     1
  0
VERTEX
  5
4BC
100
AcDbEntity
  8
QUOTE
100
AcDbVertex
100
AcDb2dVertex
 10
11.507487
 20
62.582414
 30
0.0
  0
VERTEX
  5
4BD
100
AcDbEntity
  8
QUOTE
100
AcDbVertex
100
AcDb2dVertex
 10
11.507487
 20
49.867806
 30
0.0
  0
VERTEX
  5
4BE
100
AcDbEntity
  8
QUOTE
100
AcDbVertex
100
AcDb2dVertex
 10
52.626527
 20
49.867806
 30
0.0
  0
VERTEX
  5
4BF
100
AcDbEntity
  8
QUOTE
100
AcDbVertex
100
AcDb2dVertex
 10
52.626527
 20
62.582414
 30
0.0
  0
SEQEND
  5
4C0
100
AcDbEntity
  8
QUOTE
  0
TOLERANCE
  5
4C1
100
AcDbEntity
  8
QUOTE
  6
CONTINUOUS
100
AcDbFcf
  3
ISO-25
 10
30.863585
 20
54.182522
 30
0.0
  1
{\Fgdt;u}%%v0.02%%v%%v%%v%%v
1001
ACAD
1000
DSTYLE
1002
{
1070
   140
1040
2.6
1070
    47
1040
0.02
1070
    73
1070
     0
1070
   272
1070
     2
1070
   147
1040
0.53
1070
    42
1040
0.5261
1070
    44
1040
1.0522
1070
    43
1040
3.1566
1070
   271
1070
     2
1070
   141
1040
2.1044
1070
    41
1040
2.6
1002
}
  0
TEXT
  5
4C2
100
AcDbEntity
  8
QUOTE
100
AcDbText
 10
12.101072
 20
58.118453
 30
0.0
 40
2.5
  1
TOLLERANZE AL METRO
 41
1.1
100
AcDbText
  0
TEXT
  5
4C3
100
AcDbEntity
  8
TABELLA
  6
CONTINUOUS
100
AcDbText
 10
7.271803
 20
15.7314
 30
0.0
 40
2.0
  1
- Angoli su superfici lavorate = +/- 30'
100
AcDbText
  0
TEXT
  5
4C4
100
AcDbEntity
  8
TABELLA
  6
CONTINUOUS
100
AcDbText
 10
7.271803
 20
23.3314
 30
0.0
 40
2.0
  1
   da mm 151 a mm 500 = +/- 0.4
100
AcDbText
  0
TEXT
  5
4C5
100
AcDbEntity
  8
TABELLA
  6
CONTINUOUS
100
AcDbText
 10
7.271803
 20
27.1314
 30
0.0
 40
2.0
  1
   da mm 51 a mm 150 = +/- 0.3
100
AcDbText
  0
TEXT
  5
4C6
100
AcDbEntity
  8
TABELLA
  6
CONTINUOUS
100
AcDbText
 10
7.271803
 20
30.9314
 30
0.0
 40
2.0
  1
- Superfici lavorate da mm 1 a mm 50 = +/- 0.2
100
AcDbText
  0
TEXT
  5
4C7
100
AcDbEntity
  8
TABELLA
  6
CONTINUOUS
100
AcDbText
 10
7.271803
 20
34.7314
 30
0.0
 40
2.0
  1
- Parti fuse con spessori >10 mm = +/- 10%
100
AcDbText
  0
TEXT
  5
4C8
100
AcDbEntity
  8
TABELLA
  6
CONTINUOUS
100
AcDbText
 10
7.271803
 20
38.5314
 30
0.0
 40
2.0
  1
- Parti fuse con spessori <10 mm = +/- 1 mm
100
AcDbText
  0
TOLERANCE
  5
4C9
100
AcDbEntity
  8
QUOTE
  6
CONTINUOUS
100
AcDbFcf
  3
ISO-25
 10
15.305627
 20
54.182522
 30
0.0
  1
{\Fgdt;b}%%v0.02%%v%%v%%v%%v
1001
ACAD
1000
DSTYLE
1002
{
1070
   140
1040
2.6
1070
    47
1040
0.02
1070
    73
1070
     0
1070
   272
1070
     2
1070
   147
1040
0.53
1070
    42
1040
0.5261
1070
    44
1040
1.0522
1070
    43
1040
3.1566
1070
   271
1070
     2
1070
   141
1040
2.1044
1070
    41
1040
2.6
1002
}
  0
TEXT
  5
4CA
100
AcDbEntity
  8
TABELLA
  6
CONTINUOUS
100
AcDbText
 10
0.769342
 20
51.259863
 30
0.0
 40
4.0
  1
B
100
AcDbText
  0
TEXT
  5
4CB
100
AcDbEntity
  8
TABELLA
  6
CONTINUOUS
100
AcDbText
 10
0.353187
 20
15.100813
 30
0.0
 40
4.0
  1
A
100
AcDbText
  0
LINE
  5
4CC
100
AcDbEntity
  8
TABELLA
  6
CONTINUOUS
100
AcDbLine
 10
5.782064
 20
36.262067
 30
0.0
 11
0.782064
 21
36.262067
 31
0.0
  0
TEXT
  5
4CD
100
AcDbEntity
  8
TABELLA
  6
CONTINUOUS
100
AcDbText
 10
15.583223
 20
0.138446
 30
0.0
 40
4.0
  1
6
100
AcDbText
  0
LINE
  5
4CE
100
AcDbEntity
  8
TABELLA
  6
CONTINUOUS
100
AcDbLine
 10
34.115064
 20
5.387067
 30
0.0
 11
34.115064
 21
0.387067
 31
0.0
  0
TEXT
  5
4CF
100
AcDbEntity
  8
TABELLA
  6
CONTINUOUS
100
AcDbText
 10
7.271803
 20
11.9314
 30
0.0
 40
2.0
  1
- Interassi fori = +/- 0.25
100
AcDbText
  0
TEXT
  5
4D0
100
AcDbEntity
  8
TABELLA
  6
CONTINUOUS
100
AcDbText
 10
7.271803
 20
19.5314
 30
0.0
 40
2.0
  1
   oltre 500 mm = +/- 0.5
100
AcDbText
  0
TEXT
  5
4D1
100
AcDbEntity
  8
TABELLA
  6
CONTINUOUS
100
AcDbText
 10
7.271803
 20
42.3314
 30
0.0
 40
2.0
  1
TOLLERANZE GENERALI :
100
AcDbText
  0
LINE
  5
4D2
100
AcDbEntity
  8
TABELLA
  6
CONTINUOUS
100
AcDbLine
 10
5.782064
 20
72.137067
 30
0.0
 11
0.782064
 21
72.137067
 31
0.0
  0
TEXT
  5
4D3
100
AcDbEntity
  8
TABELLA
  6
CONTINUOUS
100
AcDbText
 10
0.769342
 20
87.459725
 30
0.0
 40
4.0
  1
C
100
AcDbText
  0
LINE
  5
4D4
100
AcDbEntity
  8
TABELLA
  6
CONTINUOUS
100
AcDbLine
 10
5.782064
 20
108.012067
 30
0.0
 11
0.782064
 21
108.012067
 31
0.0
  0
TEXT
  5
4D5
100
AcDbEntity
  8
TABELLA
  6
CONTINUOUS
100
AcDbText
 10
0.769342
 20
124.034397
 30
0.0
 40
4.0
  1
D
100
AcDbText
  0
LINE
  5
4D6
100
AcDbEntity
  8
TABELLA
  6
CONTINUOUS
100
AcDbLine
 10
65.792444
 20
45.394891
 30
0.0
 11
65.782064
 21
5.389662
 31
0.0
  0
TEXT
  5
4D7
100
AcDbEntity
  8
TABELLA
  6
CONTINUOUS
100
AcDbText
 10
68.438556
 20
7.454028
 30
0.0
 40
1.5
  1
A termine di legge la Rolleri si riserva la
 50
90.0
100
AcDbText
  0
TEXT
  5
4D8
100
AcDbEntity
  8
TABELLA
  6
CONTINUOUS
100
AcDbText
 10
49.29176
 20
0.138446
 30
0.0
 40
4.0
  1
5
100
AcDbText
  0
LINE
  5
4D9
100
AcDbEntity
  8
TABELLA
  6
CONTINUOUS
100
AcDbLine
 10
67.448064
 20
5.387067
 30
0.0
 11
67.448064
 21
0.387067
 31
0.0
  0
LINE
  5
4DA
100
AcDbEntity
  8
TABELLA
  6
CONTINUOUS
100
AcDbLine
 10
75.792442
 20
45.387067
 30
0.0
 11
75.792442
 21
5.387067
 31
0.0
  0
TEXT
  5
4DB
100
AcDbEntity
  8
TABELLA
  6
CONTINUOUS
100
AcDbText
 10
74.138556
 20
7.454028
 30
0.0
 40
1.5
  1
di riprodurlo e di comunicarlo a terzi.
 50
90.0
100
AcDbText
  0
TEXT
  5
4DC
100
AcDbEntity
  8
TABELLA
  6
CONTINUOUS
100
AcDbText
 10
71.288556
 20
7.454028
 30
0.0
 40
1.5
  1
proprietà di questo disegno, con divieto
 50
90.0
100
AcDbText
  0
TEXT
  5
4DD
100
AcDbEntity
  8
TABELLA
  6
CONTINUOUS
100
AcDbText
 10
83.416451
 20
0.554068
 30
0.0
 40
4.0
  1
4
100
AcDbText
  0
LINE
  5
4DE
100
AcDbEntity
  8
TABELLA
  6
CONTINUOUS
100
AcDbLine
 10
98.281064
 20
0.387067
 30
0.0
 11
100.781064
 21
5.387067
 31
0.0
  0
LINE
  5
4DF
100
AcDbEntity
  8
TABELLA
  6
CONTINUOUS
100
AcDbLine
 10
100.781064
 20
5.387067
 30
0.0
 11
100.781064
 21
0.387067
 31
0.0
  0
LINE
  5
4E0
100
AcDbEntity
  8
TABELLA
  6
CONTINUOUS
100
AcDbLine
 10
100.781064
 20
0.387067
 30
0.0
 11
98.281064
 21
0.387067
 31
0.0
  0
TEXT
  5
4E1
100
AcDbEntity
  8
TABELLA
  6
CONTINUOUS
100
AcDbText
 10
77.180326
 20
42.484843
 30
0.0
 40
2.0
  1
Materiale
100
AcDbText
  0
TEXT
  5
4E2
100
AcDbEntity
  8
TABELLA
  6
CONTINUOUS
100
AcDbText
 10
76.949018
 20
32.320687
 30
0.0
 40
2.0
  1
Disegnato da
100
AcDbText
  0
LINE
  5
4E3
100
AcDbEntity
  8
TABELLA
  6
CONTINUOUS
100
AcDbLine
 10
84.107383
 20
22.612261
 30
0.0
 11
81.051152
 21
14.215335
 31
0.0
1001
ACAD
1000
ASC_BOUNDS
1002
{
1070
    19
1002
}
  0
LINE
  5
4E4
100
AcDbEntity
  8
TABELLA
  6
CONTINUOUS
100
AcDbLine
 10
83.407176
 20
23.612261
 30
0.0
 11
79.986974
 21
14.215335
 31
0.0
1001
ACAD
1000
ASC_BOUNDS
1002
{
1070
    19
1002
}
  0
LINE
  5
4E5
100
AcDbEntity
  8
TABELLA
  6
CONTINUOUS
100
AcDbLine
 10
81.051152
 20
14.215335
 30
0.0
 11
82.055262
 21
11.456564
 31
0.0
1001
ACAD
1000
ASC_BOUNDS
1002
{
1070
    19
1002
}
  0
LINE
  5
4E6
100
AcDbEntity
  8
TABELLA
  6
CONTINUOUS
100
AcDbLine
 10
79.986974
 20
14.215335
 30
0.0
 11
81.355055
 21
10.456564
 31
0.0
1001
ACAD
1000
ASC_BOUNDS
1002
{
1070
    19
1002
}
  0
LINE
  5
4E7
100
AcDbEntity
  8
TABELLA
  6
CONTINUOUS
100
AcDbLine
 10
100.782064
 20
35.387067
 30
0.0
 11
100.782064
 21
25.387067
 31
0.0
  0
TEXT
  5
4E8
100
AcDbEntity
  8
TABELLA
  6
CONTINUOUS
100
AcDbText
 10
1.185497
 20
230.800736
 30
0.0
 40
4.0
  1
G
100
AcDbText
  0
LINE
  5
4E9
100
AcDbEntity
  8
TABELLA
  6
CONTINUOUS
100
AcDbLine
 10
0.782064
 20
146.387067
 30
0.0
 11
5.782064
 21
143.887067
 31
0.0
  0
LINE
  5
4EA
100
AcDbEntity
  8
TABELLA
  6
CONTINUOUS
100
AcDbLine
 10
5.782064
 20
143.887067
 30
0.0
 11
0.782064
 21
143.887067
 31
0.0
  0
LINE
  5
4EB
100
AcDbEntity
  8
TABELLA
  6
CONTINUOUS
100
AcDbLine
 10
0.782064
 20
143.887067
 30
0.0
 11
0.782064
 21
146.387067
 31
0.0
  0
TEXT
  5
4EC
100
AcDbEntity
  8
TABELLA
  6
CONTINUOUS
100
AcDbText
 10
1.601651
 20
158.319393
 30
0.0
 40
4.0
  1
E
100
AcDbText
  0
LINE
  5
4ED
100
AcDbEntity
  8
TABELLA
  6
CONTINUOUS
100
AcDbLine
 10
5.782064
 20
179.762067
 30
0.0
 11
0.782064
 21
179.762067
 31
0.0
  0
TEXT
  5
4EE
100
AcDbEntity
  8
TABELLA
  6
CONTINUOUS
100
AcDbText
 10
1.185497
 20
195.309687
 30
0.0
 40
4.0
  1
F
100
AcDbText
  0
LINE
  5
4EF
100
AcDbEntity
  8
TABELLA
  6
CONTINUOUS
100
AcDbLine
 10
5.782064
 20
215.637067
 30
0.0
 11
0.782064
 21
215.637067
 31
0.0
  0
LINE
  5
4F0
100
AcDbEntity
  8
TABELLA
  6
CONTINUOUS
100
AcDbLine
 10
5.782064
 20
251.512067
 30
0.0
 11
0.782064
 21
251.512067
 31
0.0
  0
TEXT
  5
4F1
100
AcDbEntity
  8
TABELLA
  6
CONTINUOUS
100
AcDbText
 10
1.185497
 20
268.206651
 30
0.0
 40
4.0
  1
H
100
AcDbText
  0
TEXT
  5
4F2
100
AcDbEntity
  8
TABELLA
  6
CONTINUOUS
100
AcDbText
 10
15.583224
 20
283.209827
 30
0.0
 40
4.0
  1
6
100
AcDbText
  0
LINE
  5
4F3
100
AcDbEntity
  8
TABELLA
  6
CONTINUOUS
100
AcDbLine
 10
34.115064
 20
282.387067
 30
0.0
 11
34.115064
 21
287.387067
 31
0.0
  0
TEXT
  5
4F4
100
AcDbEntity
  8
TABELLA
  6
CONTINUOUS
100
AcDbText
 10
50.12407
 20
283.250638
 30
0.0
 40
4.0
  1
5
100
AcDbText
  0
LINE
  5
4F5
100
AcDbEntity
  8
TABELLA
  6
CONTINUOUS
100
AcDbLine
 10
67.448064
 20
282.387067
 30
0.0
 11
67.448064
 21
287.387067
 31
0.0
  0
TEXT
  5
4F6
100
AcDbEntity
  8
TABELLA
  6
CONTINUOUS
100
AcDbText
 10
83.832607
 20
283.250638
 30
0.0
 40
4.0
  1
4
100
AcDbText
  0
LINE
  5
4F7
100
AcDbEntity
  8
TABELLA
  6
CONTINUOUS
100
AcDbLine
 10
100.781064
 20
282.387067
 30
0.0
 11
98.281064
 21
287.387067
 31
0.0
  0
LINE
  5
4F8
100
AcDbEntity
  8
TABELLA
  6
CONTINUOUS
100
AcDbLine
 10
100.781064
 20
282.387067
 30
0.0
 11
100.781064
 21
287.387067
 31
0.0
  0
LINE
  5
4F9
100
AcDbEntity
  8
TABELLA
  6
CONTINUOUS
100
AcDbLine
 10
100.781064
 20
287.387067
 30
0.0
 11
98.281064
 21
287.387067
 31
0.0
  0
LINE
  5
4FA
100
AcDbEntity
  8
TABELLA
  6
CONTINUOUS
100
AcDbLine
 10
200.782064
 20
141.387067
 30
0.0
 11
195.782064
 21
143.887067
 31
0.0
  0
LINE
  5
4FB
100
AcDbEntity
  8
TABELLA
  6
CONTINUOUS
100
AcDbLine
 10
200.782064
 20
143.887067
 30
0.0
 11
200.782064
 21
141.387067
 31
0.0
  0
LINE
  5
4FC
100
AcDbEntity
  8
TABELLA
  6
CONTINUOUS
100
AcDbLine
 10
191.781227
 20
165.387241
 30
0.0
 11
191.781227
 21
45.387241
 31
0.0
  0
LINE
  5
4FD
100
AcDbEntity
  8
TABELLA
  6
CONTINUOUS
100
AcDbLine
 10
195.782064
 20
5.387067
 30
0.0
 11
195.782064
 21
282.387067
 31
0.0
  0
TEXT
  5
4FE
100
AcDbEntity
  8
TABELLA
  6
CONTINUOUS
100
AcDbText
 10
147.267168
 20
42.484843
 30
0.0
 40
2.0
  1
Trattamento Termico
100
AcDbText
  0
TEXT
  5
4FF
100
AcDbEntity
  8
TABELLA
  6
CONTINUOUS
100
AcDbText
 10
161.83968
 20
32.089683
 30
0.0
 40
2.0
  1
Scala
100
AcDbText
  0
TEXT
  5
500
100
AcDbEntity
  8
TABELLA
  6
CONTINUOUS
100
AcDbText
 10
162.070991
 20
12.223377
 30
0.0
 40
2.0
  1
Data
100
AcDbText
  0
LINE
  5
501
100
AcDbEntity
  8
TABELLA
  6
CONTINUOUS
100
AcDbLine
 10
125.782064
 20
35.387067
 30
0.0
 11
195.782064
 21
35.387067
 31
0.0
  0
LINE
  5
502
100
AcDbEntity
  8
TABELLA
  6
CONTINUOUS
100
AcDbLine
 10
125.782064
 20
25.387067
 30
0.0
 11
195.782064
 21
25.387067
 31
0.0
  0
LINE
  5
503
100
AcDbEntity
  8
TABELLA
  6
CONTINUOUS
100
AcDbLine
 10
120.666552
 20
15.457427
 30
0.0
 11
195.782064
 21
15.387067
 31
0.0
  0
TEXT
  5
504
100
AcDbEntity
  8
TABELLA
  6
CONTINUOUS
100
AcDbText
 10
116.965597
 20
42.484843
 30
0.0
 40
2.0
  1
Dimensioni di prelievo
100
AcDbText
  0
TEXT
  5
505
100
AcDbEntity
  8
TABELLA
  6
CONTINUOUS
100
AcDbText
 10
126.911915
 20
32.089683
 30
0.0
 40
2.0
  1
Approvato da - data
100
AcDbText
  0
TEXT
  5
506
100
AcDbEntity
  8
TABELLA
  6
CONTINUOUS
100
AcDbText
 10
121.823101
 20
22.387534
 30
0.0
 40
2.0
  1
Particolare
100
AcDbText
  0
LINE
  5
507
100
AcDbEntity
  8
TABELLA
  6
CONTINUOUS
100
AcDbLine
 10
120.782064
 20
15.387067
 30
0.0
 11
120.782064
 21
5.387067
 31
0.0
  0
TEXT
  5
508
100
AcDbEntity
  8
TABELLA
  6
CONTINUOUS
100
AcDbText
 10
116.708833
 20
0.138446
 30
0.0
 40
4.0
  1
3
100
AcDbText
  0
LINE
  5
509
100
AcDbEntity
  8
TABELLA
  6
CONTINUOUS
100
AcDbLine
 10
116.711078
 20
19.853491
 30
0.0
 11
115.706968
 21
22.612261
 31
0.0
1001
ACAD
1000
ASC_BOUNDS
1002
{
1070
    19
1002
}
  0
LINE
  5
50A
100
AcDbEntity
  8
TABELLA
  6
CONTINUOUS
100
AcDbLine
 10
113.654847
 20
11.456564
 30
0.0
 11
116.711078
 21
19.853491
 31
0.0
1001
ACAD
1000
ASC_BOUNDS
1002
{
1070
    19
1002
}
  0
LINE
  5
50B
100
AcDbEntity
  8
TABELLA
  6
CONTINUOUS
100
AcDbLine
 10
114.355055
 20
10.456564
 30
0.0
 11
117.775256
 21
19.853491
 31
0.0
1001
ACAD
1000
ASC_BOUNDS
1002
{
1070
    19
1002
}
  0
TEXT
  5
50C
100
AcDbEntity
  8
TABELLA
  6
CONTINUOUS
100
AcDbText
 10
101.930465
 20
32.089683
 30
0.0
 40
2.0
  1
Controllato da
100
AcDbText
  0
LINE
  5
50D
100
AcDbEntity
  8
TABELLA
  6
CONTINUOUS
100
AcDbLine
 10
115.782064
 20
35.387067
 30
0.0
 11
115.782064
 21
45.387067
 31
0.0
  0
LINE
  5
50E
100
AcDbEntity
  8
TABELLA
  6
CONTINUOUS
100
AcDbLine
 10
125.782064
 20
35.387067
 30
0.0
 11
125.782064
 21
25.387067
 31
0.0
  0
TEXT
  5
50F
100
AcDbEntity
  8
TABELLA
  6
CONTINUOUS
100
AcDbText
 10
121.591791
 20
12.223377
 30
0.0
 40
2.0
  1
Disegno
100
AcDbText
  0
LINE
  5
510
100
AcDbEntity
  8
TABELLA
  6
CONTINUOUS
100
AcDbLine
 10
117.775256
 20
19.853491
 30
0.0
 11
116.407176
 21
23.612261
 31
0.0
1001
ACAD
1000
ASC_BOUNDS
1002
{
1070
    19
1002
}
  0
LINE
  5
511
100
AcDbEntity
  8
TABELLA
  6
CONTINUOUS
100
AcDbLine
 10
120.782064
 20
25.387067
 30
0.0
 11
120.782064
 21
15.387067
 31
0.0
  0
LINE
  5
512
100
AcDbEntity
  8
TABELLA
  6
CONTINUOUS
100
AcDbLine
 10
160.782064
 20
15.387067
 30
0.0
 11
160.782064
 21
5.387067
 31
0.0
  0
LINE
  5
513
100
AcDbEntity
  8
TABELLA
  6
CONTINUOUS
100
AcDbLine
 10
134.114064
 20
5.387067
 30
0.0
 11
134.114064
 21
0.387067
 31
0.0
  0
TEXT
  5
514
100
AcDbEntity
  8
TABELLA
  6
CONTINUOUS
100
AcDbText
 10
150.41737
 20
0.138446
 30
0.0
 40
4.0
  1
2
100
AcDbText
  0
LINE
  5
515
100
AcDbEntity
  8
TABELLA
  6
CONTINUOUS
100
AcDbLine
 10
145.782064
 20
35.387067
 30
0.0
 11
145.782064
 21
45.387067
 31
0.0
  0
LINE
  5
516
100
AcDbEntity
  8
TABELLA
  6
CONTINUOUS
100
AcDbLine
 10
160.782064
 20
35.387067
 30
0.0
 11
160.782064
 21
25.387067
 31
0.0
  0
TEXT
  5
517
100
AcDbEntity
  8
TABELLA
  6
CONTINUOUS
100
AcDbText
 10
197.026704
 20
51.259863
 30
0.0
 40
4.0
  1
B
100
AcDbText
  0
TEXT
  5
518
100
AcDbEntity
  8
TABELLA
  6
CONTINUOUS
100
AcDbText
 10
195.001816
 20
46.303578
 30
0.0
 40
2.0
  1
N° rev.
 50
90.0
100
AcDbText
  0
LINE
  5
519
100
AcDbEntity
  8
TABELLA
  6
CONTINUOUS
100
AcDbLine
 10
176.747411
 20
30.474182
 30
0.0
 11
194.673913
 21
30.474182
 31
0.0
  0
LINE
  5
51A
100
AcDbEntity
  8
TABELLA
  6
CONTINUOUS
100
AcDbLine
 10
180.782064
 20
15.387067
 30
0.0
 11
180.782064
 21
5.387067
 31
0.0
  0
LINE
  5
51B
100
AcDbEntity
  8
TABELLA
  6
CONTINUOUS
100
AcDbLine
 10
167.447064
 20
5.387067
 30
0.0
 11
167.447064
 21
0.387067
 31
0.0
  0
TEXT
  5
51C
100
AcDbEntity
  8
TABELLA
  6
CONTINUOUS
100
AcDbText
 10
184.542061
 20
0.138446
 30
0.0
 40
4.0
  1
1
100
AcDbText
  0
LINE
  5
51D
100
AcDbEntity
  8
TABELLA
  6
CONTINUOUS
100
AcDbLine
 10
176.747411
 20
31.974182
 30
0.0
 11
182.656258
 21
33.016071
 31
0.0
  0
LINE
  5
51E
100
AcDbEntity
  8
TABELLA
  6
CONTINUOUS
100
AcDbLine
 10
176.747411
 20
28.974182
 30
0.0
 11
182.656258
 21
27.932293
 31
0.0
  0
LINE
  5
51F
100
AcDbEntity
  8
TABELLA
  6
CONTINUOUS
100
AcDbLine
 10
176.747411
 20
31.974182
 30
0.0
 11
176.747411
 21
28.974182
 31
0.0
  0
LINE
  5
520
100
AcDbEntity
  8
TABELLA
  6
CONTINUOUS
100
AcDbLine
 10
175.782064
 20
35.387067
 30
0.0
 11
175.782064
 21
25.387067
 31
0.0
  0
CIRCLE
  5
521
100
AcDbEntity
  8
TABELLA
  6
CONTINUOUS
100
AcDbCircle
 10
189.932065
 20
30.474182
 30
0.0
 40
1.5
  0
LINE
  5
522
100
AcDbEntity
  8
TABELLA
  6
CONTINUOUS
100
AcDbLine
 10
189.932065
 20
28.369782
 30
0.0
 11
189.932065
 21
32.578582
 31
0.0
  0
CIRCLE
  5
523
100
AcDbEntity
  8
TABELLA
  6
CONTINUOUS
100
AcDbCircle
 10
189.932065
 20
30.474182
 30
0.0
 40
2.54
  0
LINE
  5
524
100
AcDbEntity
  8
TABELLA
  6
CONTINUOUS
100
AcDbLine
 10
182.656258
 20
33.016071
 30
0.0
 11
182.656258
 21
27.932293
 31
0.0
  0
TEXT
  5
525
100
AcDbEntity
  8
TABELLA
  6
CONTINUOUS
100
AcDbText
 10
181.963625
 20
11.992375
 30
0.0
 40
2.0
  1
Formato
100
AcDbText
  0
LINE
  5
526
100
AcDbEntity
  8
TABELLA
  6
CONTINUOUS
100
AcDbLine
 10
187.827665
 20
30.474182
 30
0.0
 11
192.036465
 21
30.474182
 31
0.0
  0
LINE
  5
527
100
AcDbEntity
  8
TABELLA
  6
CONTINUOUS
100
AcDbLine
 10
195.782064
 20
5.387067
 30
0.0
 11
195.782064
 21
35.387067
 31
0.0
  0
TEXT
  5
528
100
AcDbEntity
  8
TABELLA
  6
CONTINUOUS
100
AcDbText
 10
197.026704
 20
14.685191
 30
0.0
 40
4.0
  1
A
100
AcDbText
  0
LINE
  5
529
100
AcDbEntity
  8
TABELLA
  6
CONTINUOUS
100
AcDbLine
 10
195.782064
 20
36.262067
 30
0.0
 11
200.782064
 21
36.262067
 31
0.0
  0
TEXT
  5
52A
100
AcDbEntity
  8
TABELLA
  6
CONTINUOUS
100
AcDbText
 10
195.209894
 20
130.984517
 30
0.0
 40
2.0
  1
Data
 50
90.0
100
AcDbText
  0
TEXT
  5
52B
100
AcDbEntity
  8
TABELLA
  6
CONTINUOUS
100
AcDbText
 10
195.209894
 20
56.278486
 30
0.0
 40
2.0
  1
Nota di revisione
 50
90.0
100
AcDbText
  0
LINE
  5
52C
100
AcDbEntity
  8
TABELLA
  6
CONTINUOUS
100
AcDbLine
 10
191.781227
 20
55.387241
 30
0.0
 11
195.782064
 21
55.387241
 31
0.0
  0
LINE
  5
52D
100
AcDbEntity
  8
TABELLA
  6
CONTINUOUS
100
AcDbLine
 10
191.781227
 20
130.387241
 30
0.0
 11
195.782064
 21
130.387241
 31
0.0
  0
LINE
  5
52E
100
AcDbEntity
  8
TABELLA
  6
CONTINUOUS
100
AcDbLine
 10
195.782064
 20
72.137067
 30
0.0
 11
200.782064
 21
72.137067
 31
0.0
  0
TEXT
  5
52F
100
AcDbEntity
  8
TABELLA
  6
CONTINUOUS
100
AcDbText
 10
197.442859
 20
87.459725
 30
0.0
 40
4.0
  1
C
100
AcDbText
  0
LINE
  5
530
100
AcDbEntity
  8
TABELLA
  6
CONTINUOUS
100
AcDbLine
 10
195.782064
 20
108.012067
 30
0.0
 11
200.782064
 21
108.012067
 31
0.0
  0
TEXT
  5
531
100
AcDbEntity
  8
TABELLA
  6
CONTINUOUS
100
AcDbText
 10
197.442859
 20
123.618776
 30
0.0
 40
4.0
  1
D
100
AcDbText
  0
TEXT
  5
532
100
AcDbEntity
  8
TABELLA
  6
CONTINUOUS
100
AcDbText
 10
116.708835
 20
283.250638
 30
0.0
 40
4.0
  1
3
100
AcDbText
  0
LINE
  5
533
100
AcDbEntity
  8
TABELLA
  6
CONTINUOUS
100
AcDbLine
 10
134.114064
 20
282.387067
 30
0.0
 11
134.114064
 21
287.387067
 31
0.0
  0
TEXT
  5
534
100
AcDbEntity
  8
TABELLA
  6
CONTINUOUS
100
AcDbText
 10
150.417372
 20
283.250638
 30
0.0
 40
4.0
  1
2
100
AcDbText
  0
TEXT
  5
535
100
AcDbEntity
  8
TABELLA
  6
CONTINUOUS
100
AcDbText
 10
197.026704
 20
230.800736
 30
0.0
 40
4.0
  1
G
100
AcDbText
  0
TEXT
  5
536
100
AcDbEntity
  8
TABELLA
  6
CONTINUOUS
100
AcDbText
 10
195.209894
 20
155.7956
 30
0.0
 40
2.0
  1
Control.
 50
90.0
100
AcDbText
  0
TEXT
  5
537
100
AcDbEntity
  8
TABELLA
  6
CONTINUOUS
100
AcDbText
 10
195.209894
 20
146.028502
 30
0.0
 40
2.0
  1
Firma
 50
90.0
100
AcDbText
  0
LINE
  5
538
100
AcDbEntity
  8
TABELLA
  6
CONTINUOUS
100
AcDbLine
 10
191.781227
 20
145.387241
 30
0.0
 11
195.782064
 21
145.387241
 31
0.0
  0
LINE
  5
539
100
AcDbEntity
  8
TABELLA
  6
CONTINUOUS
100
AcDbLine
 10
191.781227
 20
155.387241
 30
0.0
 11
195.782064
 21
155.387241
 31
0.0
  0
LINE
  5
53A
100
AcDbEntity
  8
TABELLA
  6
CONTINUOUS
100
AcDbLine
 10
191.781227
 20
165.387241
 30
0.0
 11
195.782064
 21
165.387241
 31
0.0
  0
LINE
  5
53B
100
AcDbEntity
  8
TABELLA
  6
CONTINUOUS
100
AcDbLine
 10
195.782064
 20
143.887067
 30
0.0
 11
200.782064
 21
146.387067
 31
0.0
  0
LINE
  5
53C
100
AcDbEntity
  8
TABELLA
  6
CONTINUOUS
100
AcDbLine
 10
195.782064
 20
143.887067
 30
0.0
 11
200.782064
 21
143.887067
 31
0.0
  0
LINE
  5
53D
100
AcDbEntity
  8
TABELLA
  6
CONTINUOUS
100
AcDbLine
 10
200.782064
 20
143.887067
 30
0.0
 11
200.782064
 21
146.387067
 31
0.0
  0
TEXT
  5
53E
100
AcDbEntity
  8
TABELLA
  6
CONTINUOUS
100
AcDbText
 10
197.442859
 20
158.319393
 30
0.0
 40
4.0
  1
E
100
AcDbText
  0
LINE
  5
53F
100
AcDbEntity
  8
TABELLA
  6
CONTINUOUS
100
AcDbLine
 10
195.782064
 20
179.762067
 30
0.0
 11
200.782064
 21
179.762067
 31
0.0
  0
TEXT
  5
540
100
AcDbEntity
  8
TABELLA
  6
CONTINUOUS
100
AcDbText
 10
197.859013
 20
195.309687
 30
0.0
 40
4.0
  1
F
100
AcDbText
  0
LINE
  5
541
100
AcDbEntity
  8
TABELLA
  6
CONTINUOUS
100
AcDbLine
 10
195.782064
 20
215.637067
 30
0.0
 11
200.782064
 21
215.637067
 31
0.0
  0
LINE
  5
542
100
AcDbEntity
  8
TABELLA
  6
CONTINUOUS
100
AcDbLine
 10
167.447064
 20
282.387067
 30
0.0
 11
167.447064
 21
287.387067
 31
0.0
  0
TEXT
  5
543
100
AcDbEntity
  8
TABELLA
  6
CONTINUOUS
100
AcDbText
 10
184.958217
 20
283.250638
 30
0.0
 40
4.0
  1
1
100
AcDbText
  0
LINE
  5
544
100
AcDbEntity
  8
TABELLA
  6
CONTINUOUS
100
AcDbLine
 10
195.782064
 20
282.387067
 30
0.0
 11
195.782064
 21
278.387067
 31
0.0
  0
LINE
  5
545
100
AcDbEntity
  8
TABELLA
  6
CONTINUOUS
100
AcDbLine
 10
195.782064
 20
251.512067
 30
0.0
 11
200.782064
 21
251.512067
 31
0.0
  0
TEXT
  5
546
100
AcDbEntity
  8
TABELLA
  6
CONTINUOUS
100
AcDbText
 10
197.026704
 20
268.206651
 30
0.0
 40
4.0
  1
H
100
AcDbText
  0
ENDBLK
  5
548
100
AcDbEntity
  8
QUOTE
100
AcDbBlockEnd
  0
ENDSEC
  0
SECTION
  2
ENTITIES
  0
MTEXT
  5
63C
100
AcDbEntity
  8
OGGETTI
100
AcDbMText
 10
32.315819
 20
28.71264
 30
0.0
 40
16.0
 41
71.279818
 71
     1
 72
     1
  1

  0
TEXT
  5
63D
100
AcDbEntity
  8
QUOTE
100
AcDbText
 10
173.110681
 20
257.29952
 30
0.0
 40
3.0
  1

100
AcDbText
  0
MTEXT
  5
63E
100
AcDbEntity
  8
TESTO
  6
CONTINUOUS
100
AcDbMText
 10
47.231009
 20
79.559233
 30
0.0
 40
2.6
 41
0.0
 71
     9
 72
     1
  1

  0
MTEXT
  5
63F
100
AcDbEntity
  8
TESTO
  6
CONTINUOUS
100
AcDbMText
 10
47.177656
 20
79.559233
 30
0.0
 40
2.6
 41
0.0
 71
     9
 72
     1
  1

  0
MTEXT
  5
640
100
AcDbEntity
  8
TESTO
  6
CONTINUOUS
100
AcDbMText
 10
46.409256
 20
79.880663
 30
0.0
 40
2.6
 41
0.0
 71
     9
 72
     1
  1

  0
MTEXT
  5
662
100
AcDbEntity
  8
OGGETTI
100
AcDbMText
 10
32.315819
 20
28.71264
 30
0.0
 40
16.0
 41
71.279818
 71
     1
 72
     1
  1

  0
TEXT
  5
663
100
AcDbEntity
  8
QUOTE
100
AcDbText
 10
173.110681
 20
257.29952
 30
0.0
 40
3.0
  1

100
AcDbText
  0
MTEXT
  5
664
100
AcDbEntity
  8
TESTO
  6
CONTINUOUS
100
AcDbMText
 10
47.231009
 20
79.559233
 30
0.0
 40
2.6
 41
0.0
 71
     9
 72
     1
  1

  0
MTEXT
  5
665
100
AcDbEntity
  8
TESTO
  6
CONTINUOUS
100
AcDbMText
 10
47.177656
 20
79.559233
 30
0.0
 40
2.6
 41
0.0
 71
     9
 72
     1
  1

  0
MTEXT
  5
666
100
AcDbEntity
  8
TESTO
  6
CONTINUOUS
100
AcDbMText
 10
46.409256
 20
79.880663
 30
0.0
 40
2.6
 41
0.0
 71
     9
 72
     1
  1

  0
LINE
  5
676
100
AcDbEntity
  8
OGGETTI
100
AcDbLine
 10
105.021227
 20
-1052.668441
 30
0.0
 11
134.021227
 21
-1052.668441
 31
0.0
  0
LINE
  5
677
100
AcDbEntity
  8
OGGETTI
100
AcDbLine
 10
135.021227
 20
-1051.668441
 30
0.0
 11
135.021227
 21
-1035.668441
 31
0.0
  0
LINE
  5
678
100
AcDbEntity
  8
OGGETTI
100
AcDbLine
 10
134.021227
 20
-1034.668441
 30
0.0
 11
114.021227
 21
-1034.668441
 31
0.0
  0
LINE
  5
679
100
AcDbEntity
  8
OGGETTI
100
AcDbLine
 10
105.021227
 20
-1052.668441
 30
0.0
 11
76.021227
 21
-1052.668441
 31
0.0
  0
LINE
  5
67A
100
AcDbEntity
  8
OGGETTI
100
AcDbLine
 10
75.021227
 20
-1051.668441
 30
0.0
 11
75.021227
 21
-1035.668441
 31
0.0
  0
LINE
  5
67B
100
AcDbEntity
  8
OGGETTI
100
AcDbLine
 10
76.021227
 20
-1034.668441
 30
0.0
 11
96.021227
 21
-1034.668441
 31
0.0
  0
LINE
  5
67C
100
AcDbEntity
  8
OGGETTI
100
AcDbLine
 10
75.021227
 20
-1035.668441
 30
0.0
 11
76.021227
 21
-1034.668441
 31
0.0
  0
LINE
  5
67D
100
AcDbEntity
  8
OGGETTI
100
AcDbLine
 10
135.021227
 20
-1035.668441
 30
0.0
 11
134.021227
 21
-1034.668441
 31
0.0
  0
LINE
  5
67E
100
AcDbEntity
  8
OGGETTI
100
AcDbLine
 10
135.021227
 20
-1051.668441
 30
0.0
 11
134.021227
 21
-1052.668441
 31
0.0
  0
LINE
  5
67F
100
AcDbEntity
  8
OGGETTI
100
AcDbLine
 10
75.021227
 20
-1051.668441
 30
0.0
 11
76.021227
 21
-1052.668441
 31
0.0
  0
MTEXT
  5
680
100
AcDbEntity
  8
OGGETTI
100
AcDbMText
 10
32.315819
 20
28.71264
 30
0.0
 40
16.0
 41
71.279818
 71
     1
 72
     1
  1

  0
TEXT
  5
681
100
AcDbEntity
  8
QUOTE
100
AcDbText
 10
173.110681
 20
257.29952
 30
0.0
 40
3.0
  1

100
AcDbText
  0
MTEXT
  5
682
100
AcDbEntity
  8
TESTO
  6
CONTINUOUS
100
AcDbMText
 10
47.231009
 20
79.559233
 30
0.0
 40
2.6
 41
0.0
 71
     9
 72
     1
  1

  0
MTEXT
  5
683
100
AcDbEntity
  8
TESTO
  6
CONTINUOUS
100
AcDbMText
 10
47.177656
 20
79.559233
 30
0.0
 40
2.6
 41
0.0
 71
     9
 72
     1
  1

  0
MTEXT
  5
684
100
AcDbEntity
  8
TESTO
  6
CONTINUOUS
100
AcDbMText
 10
46.409256
 20
79.880663
 30
0.0
 40
2.6
 41
0.0
 71
     9
 72
     1
  1

  0
LINE
  5
685
100
AcDbEntity
  8
OGGETTI
100
AcDbLine
 10
114.021227
 20
-1034.668441
 30
0.0
 11
114.021227
 21
-933.168441
 31
0.0
  0
LINE
  5
686
100
AcDbEntity
  8
OGGETTI
100
AcDbLine
 10
96.021227
 20
-1034.668441
 30
0.0
 11
96.021227
 21
-933.168441
 31
0.0
  0
LINE
  5
687
100
AcDbEntity
  8
OGGETTI
  6
CONTINUOUS
100
AcDbLine
 10
110.227636
 20
-934.042982
 30
0.0
 11
105.45424
 21
-942.310746
 31
0.0
  0
LINE
  5
688
100
AcDbEntity
  8
OGGETTI
  6
CONTINUOUS
100
AcDbLine
 10
99.814743
 20
-934.042852
 30
0.0
 11
104.588214
 21
-942.310746
 31
0.0
  0
LINE
  5
689
100
AcDbEntity
  8
OGGETTI
  6
CONTINUOUS
100
AcDbLine
 10
112.60894
 20
-932.668441
 30
0.0
 11
113.521227
 21
-932.668441
 31
0.0
1001
ACAD
1000
ASC_BOUNDS
1002
{
1070
    19
1002
}
  0
LINE
  5
68A
100
AcDbEntity
  8
OGGETTI
  6
CONTINUOUS
100
AcDbLine
 10
97.433514
 20
-932.668441
 30
0.0
 11
96.521227
 21
-932.668441
 31
0.0
1001
ACAD
1000
ASC_BOUNDS
1002
{
1070
    19
1002
}
  0
LINE
  5
68B
100
AcDbEntity
  8
OGGETTI
  6
CONTINUOUS
100
AcDbLine
 10
114.021227
 20
-933.168441
 30
0.0
 11
113.521227
 21
-932.668441
 31
0.0
1001
ACAD
1000
ASC_BOUNDS
1002
{
1070
    19
1002
}
  0
LINE
  5
68C
100
AcDbEntity
  8
OGGETTI
  6
CONTINUOUS
100
AcDbLine
 10
96.521227
 20
-932.668441
 30
0.0
 11
96.021227
 21
-933.168441
 31
0.0
1001
ACAD
1000
ASC_BOUNDS
1002
{
1070
    19
1002
}
  0
ARC
  5
68D
100
AcDbEntity
  8
OGGETTI
  6
CONTINUOUS
100
AcDbCircle
 10
105.021227
 20
-942.060746
 30
0.0
 40
0.5
100
AcDbArc
 50
210.0
 51
330.0
  0
LINE
  5
68E
100
AcDbEntity
  8
OGGETTI
  6
CONTINUOUS
100
AcDbLine
 10
114.021227
 20
-933.168441
 30
0.0
 11
114.021227
 21
-934.412294
 31
0.0
1001
ACAD
1000
ASC_BOUNDS
1002
{
1070
    19
1002
}
  0
LINE
  5
68F
100
AcDbEntity
  8
OGGETTI
  6
CONTINUOUS
100
AcDbLine
 10
96.021227
 20
-933.168441
 30
0.0
 11
96.021227
 21
-934.422692
 31
0.0
1001
ACAD
1000
ASC_BOUNDS
1002
{
1070
    19
1002
}
  0
ARC
  5
690
100
AcDbEntity
  8
OGGETTI
  6
CONTINUOUS
100
AcDbCircle
 10
97.433514
 20
-935.418441
 30
0.0
 40
2.75
100
AcDbArc
 50
30.000003
 51
90.0
1001
ACAD
1000
ASC_BOUNDS
1002
{
1070
    19
1002
}
  0
ARC
  5
691
100
AcDbEntity
  8
OGGETTI
  6
CONTINUOUS
100
AcDbCircle
 10
112.60894
 20
-935.418441
 30
0.0
 40
2.75
100
AcDbArc
 50
90.0
 51
149.999999
1001
ACAD
1000
ASC_BOUNDS
1002
{
1070
    19
1002
}
  0
VIEWPORT
  5
652
100
AcDbEntity
 67
     1
  8
0
100
AcDbViewport
 10
272.205225
 20
154.724298
 30
0.0
 40
544.41045
 41
309.448596
 68
    -1
 69
     1
1001
ACAD
1000
MVIEW
1002
{
1070
    16
1010
0.0
1020
0.0
1030
0.0
1010
0.0
1020
0.0
1030
1.0
1040
0.0
1040
309.448596
1040
272.205225
1040
154.724298
1040
50.0
1040
0.0
1040
0.0
1070
     0
1070
   100
1070
     1
1070
     0
1070
     0
1070
     0
1070
     0
1070
     0
1040
0.0
1040
0.0
1040
0.0
1040
1.0
1040
1.0
1040
10.0
1040
10.0
1070
     0
1002
{
1002
}
1002
}
  0
ENDSEC
  0
SECTION
  2
OBJECTS
  0
DICTIONARY
  5
C
100
AcDbDictionary
  3
ACAD_GROUP
350
D
  3
ACAD_MLINESTYLE
350
E
  0
DICTIONARY
  5
D
102
{ACAD_REACTORS
330
C
102
}
100
AcDbDictionary
  0
DICTIONARY
  5
E
102
{ACAD_REACTORS
330
C
102
}
100
AcDbDictionary
  3
STANDARD
350
1C
  0
MLINESTYLE
  5
1C
102
{ACAD_REACTORS
330
E
102
}
100
AcDbMlineStyle
  2
STANDARD
 70
     0
  3

 62
     0
 51
90.0
 52
90.0
 71
     2
 49
0.5
 62
   256
  6
BYLAYER
 49
-0.5
 62
   256
  6
BYLAYER
  0
ENDSEC
  0
EOF
