  0
SECTION
  2
HEADER
  9
$ACADVER
  1
AC1012
  9
$DWGCODEPAGE
  3
iso8859-1
  9
$INSBASE
 10
0.0
 20
0.0
 30
0.0
  9
$EXTMIN
 10
7.0
 20
5.0
 30
0.0
  9
$EXTMAX
 10
202.0
 20
288.0
 30
0.0
  9
$LIMMIN
 10
0.0
 20
0.0
  9
$LIMMAX
 10
210.0
 20
297.0
  9
$ORTHOMODE
 70
     0
  9
$REGENMODE
 70
     1
  9
$FILLMODE
 70
     1
  9
$QTEXTMODE
 70
     0
  9
$MIRRTEXT
 70
     1
  9
$DRAGMODE
 70
     2
  9
$LTSCALE
 40
1.0
  9
$OSMODE
 70
     0
  9
$ATTMODE
 70
     1
  9
$TEXTSIZE
 40
3.0
  9
$TRACEWID
 40
0.05
  9
$TEXTSTYLE
  7
STANDARD
  9
$CLAYER
  8
QUOTE
  9
$CELTYPE
  6
BYLAYER
  9
$CECOLOR
 62
   256
  9
$CELTSCALE
 40
1.0
  9
$DELOBJ
 70
     1
  9
$DISPSILH
 70
     0
  9
$DIMSCALE
 40
1.0
  9
$DIMASZ
 40
2.5
  9
$DIMEXO
 40
0.625
  9
$DIMDLI
 40
3.75
  9
$DIMRND
 40
0.0
  9
$DIMDLE
 40
0.0
  9
$DIMEXE
 40
1.25
  9
$DIMTP
 40
0.0
  9
$DIMTM
 40
0.0
  9
$DIMTXT
 40
3.0
  9
$DIMCEN
 40
2.5
  9
$DIMTSZ
 40
0.0
  9
$DIMTOL
 70
     0
  9
$DIMLIM
 70
     0
  9
$DIMTIH
 70
     0
  9
$DIMTOH
 70
     0
  9
$DIMSE1
 70
     0
  9
$DIMSE2
 70
     0
  9
$DIMTAD
 70
     1
  9
$DIMZIN
 70
     8
  9
$DIMBLK
  1

  9
$DIMASO
 70
     1
  9
$DIMSHO
 70
     1
  9
$DIMPOST
  1

  9
$DIMAPOST
  1

  9
$DIMALT
 70
     0
  9
$DIMALTD
 70
     2
  9
$DIMALTF
 40
0.03937
  9
$DIMLFAC
 40
1.0
  9
$DIMTOFL
 70
     0
  9
$DIMTVP
 40
0.0
  9
$DIMTIX
 70
     0
  9
$DIMSOXD
 70
     0
  9
$DIMSAH
 70
     0
  9
$DIMBLK1
  1

  9
$DIMBLK2
  1

  9
$DIMSTYLE
  2
STANDARD
  9
$DIMCLRD
 70
     0
  9
$DIMCLRE
 70
     0
  9
$DIMCLRT
 70
     0
  9
$DIMTFAC
 40
1.0
  9
$DIMGAP
 40
0.625
  9
$DIMJUST
 70
     0
  9
$DIMSD1
 70
     0
  9
$DIMSD2
 70
     0
  9
$DIMTOLJ
 70
     1
  9
$DIMTZIN
 70
     8
  9
$DIMALTZ
 70
     0
  9
$DIMALTTZ
 70
     0
  9
$DIMFIT
 70
     3
  9
$DIMUPT
 70
     0
  9
$DIMUNIT
 70
     2
  9
$DIMDEC
 70
     2
  9
$DIMTDEC
 70
     2
  9
$DIMALTU
 70
     2
  9
$DIMALTTD
 70
     2
  9
$DIMTXSTY
  7
STANDARD
  9
$DIMAUNIT
 70
     0
  9
$LUNITS
 70
     2
  9
$LUPREC
 70
     4
  9
$SKETCHINC
 40
0.1
  9
$FILLETRAD
 40
10.0
  9
$AUNITS
 70
     0
  9
$AUPREC
 70
     0
  9
$MENU
  1
acad
  9
$ELEVATION
 40
0.0
  9
$PELEVATION
 40
0.0
  9
$THICKNESS
 40
0.0
  9
$LIMCHECK
 70
     0
  9
$BLIPMODE
 70
     1
  9
$CHAMFERA
 40
0.0
  9
$CHAMFERB
 40
0.0
  9
$CHAMFERC
 40
20.0
  9
$CHAMFERD
 40
0.0
  9
$SKPOLY
 70
     0
  9
$TDCREATE
 40
2451655.478177893
  9
$TDUPDATE
 40
2452630.526402314
  9
$TDINDWG
 40
0.7610423611
  9
$TDUSRTIMER
 40
0.7610423611
  9
$USRTIMER
 70
     1
  9
$ANGBASE
 50
0.0
  9
$ANGDIR
 70
     0
  9
$PDMODE
 70
     0
  9
$PDSIZE
 40
0.0
  9
$PLINEWID
 40
0.0
  9
$COORDS
 70
     1
  9
$SPLFRAME
 70
     0
  9
$SPLINETYPE
 70
     6
  9
$SPLINESEGS
 70
     8
  9
$ATTDIA
 70
     0
  9
$ATTREQ
 70
     1
  9
$HANDLING
 70
     1
  9
$HANDSEED
  5
882
  9
$SURFTAB1
 70
     6
  9
$SURFTAB2
 70
     6
  9
$SURFTYPE
 70
     6
  9
$SURFU
 70
     6
  9
$SURFV
 70
     6
  9
$UCSNAME
  2

  9
$UCSORG
 10
0.0
 20
0.0
 30
0.0
  9
$UCSXDIR
 10
1.0
 20
0.0
 30
0.0
  9
$UCSYDIR
 10
0.0
 20
1.0
 30
0.0
  9
$PUCSNAME
  2

  9
$PUCSORG
 10
0.0
 20
0.0
 30
0.0
  9
$PUCSXDIR
 10
1.0
 20
0.0
 30
0.0
  9
$PUCSYDIR
 10
0.0
 20
1.0
 30
0.0
  9
$USERI1
 70
     0
  9
$USERI2
 70
     0
  9
$USERI3
 70
     0
  9
$USERI4
 70
     0
  9
$USERI5
 70
     0
  9
$USERR1
 40
0.0
  9
$USERR2
 40
0.0
  9
$USERR3
 40
0.0
  9
$USERR4
 40
0.0
  9
$USERR5
 40
0.0
  9
$WORLDVIEW
 70
     1
  9
$SHADEDGE
 70
     3
  9
$SHADEDIF
 70
    70
  9
$TILEMODE
 70
     1
  9
$MAXACTVP
 70
    16
  9
$PINSBASE
 10
0.0
 20
0.0
 30
0.0
  9
$PLIMCHECK
 70
     0
  9
$PEXTMIN
 10
1.000000E+20
 20
1.000000E+20
 30
1.000000E+20
  9
$PEXTMAX
 10
-1.000000E+20
 20
-1.000000E+20
 30
-1.000000E+20
  9
$PLIMMIN
 10
0.0
 20
0.0
  9
$PLIMMAX
 10
12.0
 20
9.0
  9
$UNITMODE
 70
     0
  9
$VISRETAIN
 70
     0
  9
$PLINEGEN
 70
     0
  9
$PSLTSCALE
 70
     1
  9
$TREEDEPTH
 70
  3020
  9
$PICKSTYLE
 70
     1
  9
$CMLSTYLE
  2
STANDARD
  9
$CMLJUST
 70
     0
  9
$CMLSCALE
 40
20.0
  9
$SAVEIMAGES
 70
     0
  0
ENDSEC
  0
SECTION
  2
CLASSES
  0
ENDSEC
  0
SECTION
  2
TABLES
  0
TABLE
  2
VPORT
  5
8
100
AcDbSymbolTable
 70
     3
  0
VPORT
  5
881
100
AcDbSymbolTableRecord
100
AcDbViewportTableRecord
  2
*ACTIVE
 70
     0
 10
0.0
 20
0.0
 11
1.0
 21
1.0
 12
172.037459
 22
164.005599
 13
0.0
 23
0.0
 14
10.0
 24
10.0
 15
10.0
 25
10.0
 16
0.0
 26
0.0
 36
1.0
 17
0.0
 27
0.0
 37
0.0
 40
329.149726
 41
1.873134
 42
50.0
 43
0.0
 44
0.0
 50
0.0
 51
0.0
 71
     0
 72
   100
 73
     1
 74
     0
 75
     0
 76
     0
 77
     0
 78
     0
  0
ENDTAB
  0
TABLE
  2
LTYPE
  5
5
100
AcDbSymbolTable
 70
     4
  0
LTYPE
  5
13
100
AcDbSymbolTableRecord
100
AcDbLinetypeTableRecord
  2
BYBLOCK
 70
     0
  3

 72
    65
 73
     0
 40
0.0
  0
LTYPE
  5
14
100
AcDbSymbolTableRecord
100
AcDbLinetypeTableRecord
  2
BYLAYER
 70
     0
  3

 72
    65
 73
     0
 40
0.0
  0
LTYPE
  5
15
100
AcDbSymbolTableRecord
100
AcDbLinetypeTableRecord
  2
CONTINUOUS
 70
    64
  3
Solid line
 72
    65
 73
     0
 40
0.0
  0
LTYPE
  5
94
100
AcDbSymbolTableRecord
100
AcDbLinetypeTableRecord
  2
ACAD_ISO04W100
 70
    64
  3
____ . ____ . ____ . ____ . ____ . ____ . ____ 
 72
    65
 73
     4
 40
30.5
 49
24.0
 74
     0
 49
-3.0
 74
     0
 49
0.5
 74
     0
 49
-3.0
 74
     0
  0
LTYPE
  5
225
100
AcDbSymbolTableRecord
100
AcDbLinetypeTableRecord
  2
TRATTEGGIATAX2
 70
    64
  3
____  ____  ____  ____  ____  ____  ____  ____ 
 72
    65
 73
     2
 40
1.5
 49
1.0
 74
     0
 49
-0.5
 74
     0
  0
LTYPE
  5
226
100
AcDbSymbolTableRecord
100
AcDbLinetypeTableRecord
  2
NASCOSTA
 70
    64
  3
__ __ __ __ __ __ __ __ __ __ __ __ __ __ __ __
 72
    65
 73
     2
 40
0.375
 49
0.25
 74
     0
 49
-0.125
 74
     0
  0
ENDTAB
  0
TABLE
  2
LAYER
  5
2
100
AcDbSymbolTable
 70
     9
  0
LAYER
  5
F
100
AcDbSymbolTableRecord
100
AcDbLayerTableRecord
  2
0
 70
     0
 62
     7
  6
CONTINUOUS
  0
LAYER
  5
95
100
AcDbSymbolTableRecord
100
AcDbLayerTableRecord
  2
DISEGNO
 70
    64
 62
     7
  6
CONTINUOUS
  0
LAYER
  5
96
100
AcDbSymbolTableRecord
100
AcDbLayerTableRecord
  2
ASSI
 70
    64
 62
     1
  6
ACAD_ISO04W100
  0
LAYER
  5
97
100
AcDbSymbolTableRecord
100
AcDbLayerTableRecord
  2
SEZIONE
 70
    64
 62
     3
  6
CONTINUOUS
  0
LAYER
  5
98
100
AcDbSymbolTableRecord
100
AcDbLayerTableRecord
  2
TEMPRA
 70
    64
 62
     2
  6
CONTINUOUS
  0
LAYER
  5
99
100
AcDbSymbolTableRecord
100
AcDbLayerTableRecord
  2
QUOTE
 70
    64
 62
     5
  6
CONTINUOUS
  0
LAYER
  5
9A
100
AcDbSymbolTableRecord
100
AcDbLayerTableRecord
  2
FOGLIO
 70
    64
 62
     8
  6
CONTINUOUS
  0
LAYER
  5
1A3
100
AcDbSymbolTableRecord
100
AcDbLayerTableRecord
  2
TRATTO
 70
    64
 62
     6
  6
NASCOSTA
  0
LAYER
  5
26F
100
AcDbSymbolTableRecord
100
AcDbLayerTableRecord
  2
DEFPOINTS
 70
    64
 62
     7
  6
CONTINUOUS
  0
ENDTAB
  0
TABLE
  2
STYLE
  5
3
100
AcDbSymbolTable
 70
     2
  0
STYLE
  5
10
100
AcDbSymbolTableRecord
100
AcDbTextStyleTableRecord
  2
STANDARD
 70
    64
 40
0.0
 41
1.1
 50
0.0
 71
     0
 42
3.0
  3
C:\Programmi\AutoCAD LT\isocp.shx
  4

  0
STYLE
  5
B0
100
AcDbSymbolTableRecord
100
AcDbTextStyleTableRecord
  2
STYLE3
 70
    64
 40
0.0
 41
1.5
 50
0.0
 71
     0
 42
4.0
  3
C:\Programmi\AutoCAD LT\isocp3.shx
  4

  0
ENDTAB
  0
TABLE
  2
VIEW
  5
6
100
AcDbSymbolTable
 70
     0
  0
ENDTAB
  0
TABLE
  2
UCS
  5
7
100
AcDbSymbolTable
 70
     0
  0
ENDTAB
  0
TABLE
  2
APPID
  5
9
100
AcDbSymbolTable
 70
     1
  0
APPID
  5
11
100
AcDbSymbolTableRecord
100
AcDbRegAppTableRecord
  2
ACAD
 70
     0
  0
ENDTAB
  0
TABLE
  2
DIMSTYLE
  5
A
100
AcDbSymbolTable
 70
    10
  0
DIMSTYLE
105
1D
100
AcDbSymbolTableRecord
100
AcDbDimStyleTableRecord
  2
STANDARD
 70
     0
  3

  4

  5

  6

  7

 40
1.0
 41
2.5
 42
0.625
 43
3.75
 44
1.25
 45
0.0
 46
0.0
 47
0.0
 48
0.0
140
3.0
141
2.5
142
0.0
143
0.03937
144
1.0
145
0.0
146
1.0
147
0.625
 71
     0
 72
     0
 73
     0
 74
     0
 75
     0
 76
     0
 77
     1
 78
     8
170
     0
171
     2
172
     0
173
     0
174
     0
175
     0
176
     0
177
     0
178
     0
270
     2
271
     2
272
     2
273
     2
274
     2
340
10
275
     0
280
     0
281
     0
282
     0
283
     1
284
     8
285
     0
286
     0
287
     3
288
     0
  0
DIMSTYLE
105
198
100
AcDbSymbolTableRecord
100
AcDbDimStyleTableRecord
  2
TOLL-06
 70
     0
  3

  4

  5

  6

  7

 40
1.0
 41
2.5
 42
0.625
 43
3.75
 44
1.25
 45
0.0
 46
0.0
 47
0.1
 48
0.1
140
3.0
141
2.5
142
0.0
143
0.03937
144
1.0
145
0.0
146
0.8
147
0.625
 71
     1
 72
     0
 73
     0
 74
     0
 75
     0
 76
     0
 77
     1
 78
     8
170
     0
171
     2
172
     0
173
     0
174
     0
175
     0
176
     0
177
     0
178
     0
270
     2
271
     2
272
     2
273
     2
274
     2
340
10
275
     0
280
     0
281
     0
282
     0
283
     2
284
     8
285
     0
286
     0
287
     3
288
     0
  0
DIMSTYLE
105
20B
100
AcDbSymbolTableRecord
100
AcDbDimStyleTableRecord
  2
TOLL-01
 70
     0
  3

  4

  5

  6

  7

 40
1.0
 41
2.5
 42
0.625
 43
3.75
 44
1.25
 45
0.0
 46
0.0
 47
0.02
 48
0.0
140
3.0
141
2.5
142
0.0
143
0.03937
144
1.0
145
0.0
146
0.8
147
0.625
 71
     1
 72
     0
 73
     0
 74
     0
 75
     0
 76
     0
 77
     1
 78
     8
170
     0
171
     2
172
     0
173
     0
174
     0
175
     0
176
     0
177
     0
178
     0
270
     2
271
     2
272
     2
273
     2
274
     2
340
10
275
     0
280
     0
281
     0
282
     0
283
     2
284
     8
285
     0
286
     0
287
     3
288
     0
  0
DIMSTYLE
105
232
100
AcDbSymbolTableRecord
100
AcDbDimStyleTableRecord
  2
TOLL-02
 70
     0
  3

  4

  5

  6

  7

 40
1.0
 41
2.5
 42
0.625
 43
3.75
 44
1.25
 45
0.0
 46
0.0
 47
0.0
 48
-0.02
140
3.0
141
2.5
142
0.0
143
0.03937
144
1.0
145
0.0
146
0.8
147
0.625
 71
     1
 72
     0
 73
     0
 74
     0
 75
     0
 76
     0
 77
     1
 78
     8
170
     0
171
     2
172
     0
173
     0
174
     0
175
     0
176
     0
177
     0
178
     0
270
     2
271
     2
272
     2
273
     2
274
     2
340
10
275
     0
280
     0
281
     0
282
     0
283
     2
284
     8
285
     0
286
     0
287
     3
288
     0
  0
DIMSTYLE
105
233
100
AcDbSymbolTableRecord
100
AcDbDimStyleTableRecord
  2
TOLL-03
 70
     0
  3

  4

  5

  6

  7

 40
1.0
 41
2.5
 42
0.625
 43
3.75
 44
1.25
 45
0.0
 46
0.0
 47
0.01
 48
0.01
140
3.0
141
2.5
142
0.0
143
0.03937
144
1.0
145
0.0
146
0.8
147
0.625
 71
     1
 72
     0
 73
     0
 74
     0
 75
     0
 76
     0
 77
     1
 78
     8
170
     0
171
     2
172
     0
173
     0
174
     0
175
     0
176
     0
177
     0
178
     0
270
     2
271
     2
272
     2
273
     2
274
     2
340
10
275
     0
280
     0
281
     0
282
     0
283
     2
284
     8
285
     0
286
     0
287
     3
288
     0
  0
DIMSTYLE
105
234
100
AcDbSymbolTableRecord
100
AcDbDimStyleTableRecord
  2
TOLL-04
 70
     0
  3

  4

  5

  6

  7

 40
1.0
 41
2.5
 42
0.625
 43
3.75
 44
1.25
 45
0.0
 46
0.0
 47
0.05
 48
0.05
140
3.0
141
2.5
142
0.0
143
0.03937
144
1.0
145
0.0
146
0.8
147
0.625
 71
     1
 72
     0
 73
     0
 74
     0
 75
     0
 76
     0
 77
     1
 78
     8
170
     0
171
     2
172
     0
173
     0
174
     0
175
     0
176
     0
177
     0
178
     0
270
     2
271
     2
272
     2
273
     2
274
     2
340
10
275
     0
280
     0
281
     0
282
     0
283
     2
284
     8
285
     0
286
     0
287
     3
288
     0
  0
DIMSTYLE
105
235
100
AcDbSymbolTableRecord
100
AcDbDimStyleTableRecord
  2
TOLL-05
 70
     0
  3

  4

  5

  6

  7

 40
1.0
 41
2.5
 42
0.625
 43
3.75
 44
1.25
 45
0.0
 46
0.0
 47
0.1
 48
0.0
140
3.0
141
2.5
142
0.0
143
0.03937
144
1.0
145
0.0
146
0.8
147
0.625
 71
     1
 72
     0
 73
     0
 74
     0
 75
     0
 76
     0
 77
     1
 78
     8
170
     0
171
     2
172
     0
173
     0
174
     0
175
     0
176
     0
177
     0
178
     0
270
     2
271
     2
272
     2
273
     2
274
     2
340
10
275
     0
280
     0
281
     0
282
     0
283
     2
284
     8
285
     0
286
     0
287
     3
288
     0
  0
DIMSTYLE
105
247
100
AcDbSymbolTableRecord
100
AcDbDimStyleTableRecord
  2
TOLL-07
 70
     0
  3

  4

  5

  6

  7

 40
1.0
 41
2.5
 42
0.625
 43
3.75
 44
1.25
 45
0.0
 46
0.0
 47
-0.1
 48
0.0
140
3.0
141
2.5
142
0.0
143
0.03937
144
1.0
145
0.0
146
1.0
147
0.625
 71
     1
 72
     0
 73
     0
 74
     0
 75
     0
 76
     0
 77
     1
 78
     8
170
     0
171
     2
172
     0
173
     0
174
     0
175
     0
176
     0
177
     0
178
     0
270
     2
271
     2
272
     2
273
     2
274
     2
340
10
275
     0
280
     0
281
     0
282
     0
283
     1
284
     8
285
     0
286
     0
287
     3
288
     0
  0
DIMSTYLE
105
251
100
AcDbSymbolTableRecord
100
AcDbDimStyleTableRecord
  2
TOLL-08
 70
     0
  3

  4

  5

  6

  7

 40
1.0
 41
2.5
 42
0.625
 43
3.75
 44
1.25
 45
0.0
 46
0.0
 47
0.05
 48
0.0
140
3.0
141
2.5
142
0.0
143
0.03937
144
1.0
145
0.0
146
1.0
147
0.625
 71
     1
 72
     0
 73
     0
 74
     0
 75
     0
 76
     0
 77
     1
 78
     8
170
     0
171
     2
172
     0
173
     0
174
     0
175
     0
176
     0
177
     0
178
     0
270
     2
271
     2
272
     2
273
     2
274
     2
340
10
275
     0
280
     0
281
     0
282
     0
283
     1
284
     8
285
     0
286
     0
287
     3
288
     0
  0
DIMSTYLE
105
66C
100
AcDbSymbolTableRecord
100
AcDbDimStyleTableRecord
  2
TOLL-09
 70
     0
  3

  4

  5

  6

  7

 40
1.0
 41
2.5
 42
0.625
 43
3.75
 44
1.25
 45
0.0
 46
0.0
 47
0.05
 48
0.05
140
3.0
141
2.5
142
0.0
143
0.03937
144
1.0
145
0.0
146
1.0
147
0.625
 71
     1
 72
     0
 73
     0
 74
     0
 75
     0
 76
     0
 77
     1
 78
     8
170
     0
171
     2
172
     0
173
     0
174
     0
175
     0
176
     0
177
     0
178
     0
270
     2
271
     2
272
     2
273
     2
274
     2
340
10
275
     0
280
     0
281
     0
282
     0
283
     1
284
     8
285
     0
286
     0
287
     3
288
     0
  0
ENDTAB
  0
TABLE
  2
BLOCK_RECORD
  5
1
100
AcDbSymbolTable
 70
    18
  0
BLOCK_RECORD
  5
19
100
AcDbSymbolTableRecord
100
AcDbBlockTableRecord
  2
*MODEL_SPACE
  0
BLOCK_RECORD
  5
16
100
AcDbSymbolTableRecord
100
AcDbBlockTableRecord
  2
*PAPER_SPACE
  0
BLOCK_RECORD
  5
416
100
AcDbSymbolTableRecord
100
AcDbBlockTableRecord
  2
*D0
  0
BLOCK_RECORD
  5
431
100
AcDbSymbolTableRecord
100
AcDbBlockTableRecord
  2
*D1
  0
BLOCK_RECORD
  5
43E
100
AcDbSymbolTableRecord
100
AcDbBlockTableRecord
  2
*D2
  0
BLOCK_RECORD
  5
44B
100
AcDbSymbolTableRecord
100
AcDbBlockTableRecord
  2
*D3
  0
BLOCK_RECORD
  5
459
100
AcDbSymbolTableRecord
100
AcDbBlockTableRecord
  2
*D4
  0
BLOCK_RECORD
  5
473
100
AcDbSymbolTableRecord
100
AcDbBlockTableRecord
  2
*D5
  0
BLOCK_RECORD
  5
480
100
AcDbSymbolTableRecord
100
AcDbBlockTableRecord
  2
*D6
  0
BLOCK_RECORD
  5
4AA
100
AcDbSymbolTableRecord
100
AcDbBlockTableRecord
  2
*D7
  0
BLOCK_RECORD
  5
4C2
100
AcDbSymbolTableRecord
100
AcDbBlockTableRecord
  2
*D8
  0
BLOCK_RECORD
  5
4CF
100
AcDbSymbolTableRecord
100
AcDbBlockTableRecord
  2
*D9
  0
BLOCK_RECORD
  5
550
100
AcDbSymbolTableRecord
100
AcDbBlockTableRecord
  2
*X10
  0
BLOCK_RECORD
  5
5DD
100
AcDbSymbolTableRecord
100
AcDbBlockTableRecord
  2
*D11
  0
BLOCK_RECORD
  5
5F1
100
AcDbSymbolTableRecord
100
AcDbBlockTableRecord
  2
*D12
  0
BLOCK_RECORD
  5
61D
100
AcDbSymbolTableRecord
100
AcDbBlockTableRecord
  2
RUGOSITA
  0
BLOCK_RECORD
  5
723
100
AcDbSymbolTableRecord
100
AcDbBlockTableRecord
  2
*D14
  0
BLOCK_RECORD
  5
789
100
AcDbSymbolTableRecord
100
AcDbBlockTableRecord
  2
*D15
  0
BLOCK_RECORD
  5
7CF
100
AcDbSymbolTableRecord
100
AcDbBlockTableRecord
  2
*D16
  0
BLOCK_RECORD
  5
80D
100
AcDbSymbolTableRecord
100
AcDbBlockTableRecord
  2
*D17
  0
ENDTAB
  0
ENDSEC
  0
SECTION
  2
BLOCKS
  0
BLOCK
  5
1A
100
AcDbEntity
  8
0
100
AcDbBlockBegin
  2
*MODEL_SPACE
 70
     0
 10
0.0
 20
0.0
 30
0.0
  3
*MODEL_SPACE
  1

  0
ENDBLK
  5
1B
100
AcDbEntity
  8
0
100
AcDbBlockEnd
  0
BLOCK
  5
17
100
AcDbEntity
 67
     1
  8
0
100
AcDbBlockBegin
  2
*PAPER_SPACE
 70
     0
 10
0.0
 20
0.0
 30
0.0
  3
*PAPER_SPACE
  1

  0
ENDBLK
  5
18
100
AcDbEntity
 67
     1
  8
0
100
AcDbBlockEnd
  0
BLOCK
  5
700
100
AcDbEntity
  8
0
100
AcDbBlockBegin
  2
*D0
 70
    65
 10
0.0
 20
0.0
 30
0.0
  3
*D0
  1

  0
LINE
  5
701
100
AcDbEntity
  8
0
  6
BYBLOCK
 62
     0
100
AcDbLine
 10
80.14506
 20
233.408488
 30
0.0
 11
80.14506
 21
249.350129
 31
0.0
  0
LINE
  5
702
100
AcDbEntity
  8
0
  6
BYBLOCK
 62
     0
100
AcDbLine
 10
93.14506
 20
233.408488
 30
0.0
 11
93.14506
 21
249.350129
 31
0.0
  0
LINE
  5
703
100
AcDbEntity
  8
0
  6
BYBLOCK
 62
     0
100
AcDbLine
 10
90.64506
 20
248.100129
 30
0.0
 11
82.64506
 21
248.100129
 31
0.0
  0
LINE
  5
704
100
AcDbEntity
  8
0
  6
BYBLOCK
 62
     0
100
AcDbLine
 10
80.14506
 20
248.100129
 30
0.0
 11
60.213214
 21
248.100129
 31
0.0
  0
SOLID
  5
705
100
AcDbEntity
  8
0
  6
BYBLOCK
 62
     0
100
AcDbTrace
 10
90.64506
 20
248.516796
 30
0.0
 11
90.64506
 21
247.683463
 31
0.0
 12
93.14506
 22
248.100129
 32
0.0
 13
93.14506
 23
248.100129
 33
0.0
  0
SOLID
  5
706
100
AcDbEntity
  8
0
  6
BYBLOCK
 62
     0
100
AcDbTrace
 10
82.64506
 20
248.516796
 30
0.0
 11
82.64506
 21
247.683463
 31
0.0
 12
80.14506
 22
248.100129
 32
0.0
 13
80.14506
 23
248.100129
 33
0.0
  0
MTEXT
  5
707
100
AcDbEntity
  8
0
  6
BYBLOCK
 62
     0
100
AcDbMText
 10
66.910214
 20
251.465838
 30
0.0
 40
3.0
 41
0.0
 71
     5
 72
     1
  1
\A2;13{\H2.400000;\S+0.02^  0;}
  0
POINT
  5
708
100
AcDbEntity
  8
DEFPOINTS
  6
BYBLOCK
 62
     0
100
AcDbPoint
 10
80.14506
 20
232.783488
 30
0.0
  0
POINT
  5
709
100
AcDbEntity
  8
DEFPOINTS
  6
BYBLOCK
 62
     0
100
AcDbPoint
 10
93.14506
 20
232.783488
 30
0.0
  0
POINT
  5
70A
100
AcDbEntity
  8
DEFPOINTS
  6
BYBLOCK
 62
     0
100
AcDbPoint
 10
93.14506
 20
248.100129
 30
0.0
  0
ENDBLK
  5
70B
100
AcDbEntity
  8
0
100
AcDbBlockEnd
  0
BLOCK
  5
718
100
AcDbEntity
  8
0
100
AcDbBlockBegin
  2
*D1
 70
    65
 10
0.0
 20
0.0
 30
0.0
  3
*D1
  1

  0
LINE
  5
719
100
AcDbEntity
  8
0
  6
BYBLOCK
 62
     0
100
AcDbLine
 10
80.14506
 20
233.408488
 30
0.0
 11
80.14506
 21
256.779485
 31
0.0
  0
LINE
  5
71A
100
AcDbEntity
  8
0
  6
BYBLOCK
 62
     0
100
AcDbLine
 10
107.14506
 20
204.408488
 30
0.0
 11
107.14506
 21
256.779485
 31
0.0
  0
LINE
  5
71B
100
AcDbEntity
  8
0
  6
BYBLOCK
 62
     0
100
AcDbLine
 10
82.64506
 20
255.529485
 30
0.0
 11
104.64506
 21
255.529485
 31
0.0
  0
SOLID
  5
71C
100
AcDbEntity
  8
0
  6
BYBLOCK
 62
     0
100
AcDbTrace
 10
82.64506
 20
255.946152
 30
0.0
 11
82.64506
 21
255.112818
 31
0.0
 12
80.14506
 22
255.529485
 32
0.0
 13
80.14506
 23
255.529485
 33
0.0
  0
SOLID
  5
71D
100
AcDbEntity
  8
0
  6
BYBLOCK
 62
     0
100
AcDbTrace
 10
104.64506
 20
255.946152
 30
0.0
 11
104.64506
 21
255.112818
 31
0.0
 12
107.14506
 22
255.529485
 32
0.0
 13
107.14506
 23
255.529485
 33
0.0
  0
MTEXT
  5
71E
100
AcDbEntity
  8
0
  6
BYBLOCK
 62
     0
100
AcDbMText
 10
93.64506
 20
257.654485
 30
0.0
 40
3.0
 41
0.0
 71
     5
 72
     1
  1
\A1;27±0.05
  0
POINT
  5
71F
100
AcDbEntity
  8
DEFPOINTS
  6
BYBLOCK
 62
     0
100
AcDbPoint
 10
80.14506
 20
232.783488
 30
0.0
  0
POINT
  5
720
100
AcDbEntity
  8
DEFPOINTS
  6
BYBLOCK
 62
     0
100
AcDbPoint
 10
107.14506
 20
203.783488
 30
0.0
  0
POINT
  5
721
100
AcDbEntity
  8
DEFPOINTS
  6
BYBLOCK
 62
     0
100
AcDbPoint
 10
107.14506
 20
255.529485
 30
0.0
  0
ENDBLK
  5
722
100
AcDbEntity
  8
0
100
AcDbBlockEnd
  0
BLOCK
  5
43F
100
AcDbEntity
  8
0
100
AcDbBlockBegin
  2
*D2
 70
    65
 10
0.0
 20
0.0
 30
0.0
  3
*D2
  1

  0
LINE
  5
440
100
AcDbEntity
  8
0
  6
BYBLOCK
 62
     0
100
AcDbLine
 10
80.52006
 20
233.783488
 30
0.0
 11
65.076251
 21
233.783488
 31
0.0
  0
LINE
  5
441
100
AcDbEntity
  8
0
  6
BYBLOCK
 62
     0
100
AcDbLine
 10
80.02006
 20
216.783488
 30
0.0
 11
65.076251
 21
216.783488
 31
0.0
  0
LINE
  5
442
100
AcDbEntity
  8
0
  6
BYBLOCK
 62
     0
100
AcDbLine
 10
66.326251
 20
231.283488
 30
0.0
 11
66.326251
 21
219.283488
 31
0.0
  0
SOLID
  5
443
100
AcDbEntity
  8
0
  6
BYBLOCK
 62
     0
100
AcDbTrace
 10
65.909584
 20
231.283488
 30
0.0
 11
66.742917
 21
231.283488
 31
0.0
 12
66.326251
 22
233.783488
 32
0.0
 13
66.326251
 23
233.783488
 33
0.0
  0
SOLID
  5
444
100
AcDbEntity
  8
0
  6
BYBLOCK
 62
     0
100
AcDbTrace
 10
65.909584
 20
219.283488
 30
0.0
 11
66.742917
 21
219.283488
 31
0.0
 12
66.326251
 22
216.783488
 32
0.0
 13
66.326251
 23
216.783488
 33
0.0
  0
MTEXT
  5
445
100
AcDbEntity
  8
0
  6
BYBLOCK
 62
     0
100
AcDbMText
 10
64.201251
 20
225.283488
 30
0.0
 40
3.0
 41
0.0
 71
     5
 72
     1
  1
\A1;17
 11
0.0
 21
1.0
 31
0.0
  0
POINT
  5
446
100
AcDbEntity
  8
DEFPOINTS
  6
BYBLOCK
 62
     0
100
AcDbPoint
 10
81.14506
 20
233.783488
 30
0.0
  0
POINT
  5
447
100
AcDbEntity
  8
DEFPOINTS
  6
BYBLOCK
 62
     0
100
AcDbPoint
 10
80.64506
 20
216.783488
 30
0.0
  0
POINT
  5
448
100
AcDbEntity
  8
DEFPOINTS
  6
BYBLOCK
 62
     0
100
AcDbPoint
 10
66.326251
 20
216.783488
 30
0.0
  0
ENDBLK
  5
449
100
AcDbEntity
  8
0
100
AcDbBlockEnd
  0
BLOCK
  5
44C
100
AcDbEntity
  8
0
100
AcDbBlockBegin
  2
*D3
 70
    65
 10
0.0
 20
0.0
 30
0.0
  3
*D3
  1

  0
LINE
  5
44D
100
AcDbEntity
  8
0
  6
BYBLOCK
 62
     0
100
AcDbLine
 10
80.02006
 20
216.783488
 30
0.0
 11
65.076251
 21
216.783488
 31
0.0
  0
LINE
  5
44E
100
AcDbEntity
  8
0
  6
BYBLOCK
 62
     0
100
AcDbLine
 10
80.02006
 20
208.383488
 30
0.0
 11
65.076251
 21
208.383488
 31
0.0
  0
LINE
  5
44F
100
AcDbEntity
  8
0
  6
BYBLOCK
 62
     0
100
AcDbLine
 10
66.326251
 20
219.283488
 30
0.0
 11
66.326251
 21
221.783488
 31
0.0
  0
LINE
  5
450
100
AcDbEntity
  8
0
  6
BYBLOCK
 62
     0
100
AcDbLine
 10
66.326251
 20
205.883488
 30
0.0
 11
66.326251
 21
203.383488
 31
0.0
  0
SOLID
  5
451
100
AcDbEntity
  8
0
  6
BYBLOCK
 62
     0
100
AcDbTrace
 10
65.909584
 20
219.283488
 30
0.0
 11
66.742917
 21
219.283488
 31
0.0
 12
66.326251
 22
216.783488
 32
0.0
 13
66.326251
 23
216.783488
 33
0.0
  0
SOLID
  5
452
100
AcDbEntity
  8
0
  6
BYBLOCK
 62
     0
100
AcDbTrace
 10
65.909584
 20
205.883488
 30
0.0
 11
66.742917
 21
205.883488
 31
0.0
 12
66.326251
 22
208.383488
 32
0.0
 13
66.326251
 23
208.383488
 33
0.0
  0
MTEXT
  5
453
100
AcDbEntity
  8
0
  6
BYBLOCK
 62
     0
100
AcDbMText
 10
64.201251
 20
212.583488
 30
0.0
 40
3.0
 41
0.0
 71
     5
 72
     1
  1
\A1;8.4
 11
0.0
 21
1.0
 31
0.0
  0
POINT
  5
454
100
AcDbEntity
  8
DEFPOINTS
  6
BYBLOCK
 62
     0
100
AcDbPoint
 10
80.64506
 20
216.783488
 30
0.0
  0
POINT
  5
455
100
AcDbEntity
  8
DEFPOINTS
  6
BYBLOCK
 62
     0
100
AcDbPoint
 10
80.64506
 20
208.383488
 30
0.0
  0
POINT
  5
456
100
AcDbEntity
  8
DEFPOINTS
  6
BYBLOCK
 62
     0
100
AcDbPoint
 10
66.326251
 20
208.383488
 30
0.0
  0
ENDBLK
  5
457
100
AcDbEntity
  8
0
100
AcDbBlockEnd
  0
BLOCK
  5
467
100
AcDbEntity
  8
0
100
AcDbBlockBegin
  2
*D4
 70
    65
 10
0.0
 20
0.0
 30
0.0
  3
*D4
  1

  0
LINE
  5
468
100
AcDbEntity
  8
0
  6
BYBLOCK
 62
     0
100
AcDbLine
 10
80.14506
 20
217.908488
 30
0.0
 11
80.14506
 21
224.630307
 31
0.0
  0
LINE
  5
469
100
AcDbEntity
  8
0
  6
BYBLOCK
 62
     0
100
AcDbLine
 10
83.64506
 20
217.408488
 30
0.0
 11
83.64506
 21
224.630307
 31
0.0
  0
LINE
  5
46A
100
AcDbEntity
  8
0
  6
BYBLOCK
 62
     0
100
AcDbLine
 10
77.64506
 20
223.380307
 30
0.0
 11
75.14506
 21
223.380307
 31
0.0
  0
LINE
  5
46B
100
AcDbEntity
  8
0
  6
BYBLOCK
 62
     0
100
AcDbLine
 10
86.14506
 20
223.380307
 30
0.0
 11
92.776751
 21
223.380307
 31
0.0
  0
SOLID
  5
46C
100
AcDbEntity
  8
0
  6
BYBLOCK
 62
     0
100
AcDbTrace
 10
77.64506
 20
223.796974
 30
0.0
 11
77.64506
 21
222.963641
 31
0.0
 12
80.14506
 22
223.380307
 32
0.0
 13
80.14506
 23
223.380307
 33
0.0
  0
SOLID
  5
46D
100
AcDbEntity
  8
0
  6
BYBLOCK
 62
     0
100
AcDbTrace
 10
86.14506
 20
223.796974
 30
0.0
 11
86.14506
 21
222.963641
 31
0.0
 12
83.64506
 22
223.380307
 32
0.0
 13
83.64506
 23
223.380307
 33
0.0
  0
MTEXT
  5
46E
100
AcDbEntity
  8
0
  6
BYBLOCK
 62
     0
100
AcDbMText
 10
89.773406
 20
225.505307
 30
0.0
 40
3.0
 41
0.0
 71
     5
 72
     1
  1
\A1;3.5
  0
POINT
  5
46F
100
AcDbEntity
  8
DEFPOINTS
  6
BYBLOCK
 62
     0
100
AcDbPoint
 10
80.14506
 20
217.283488
 30
0.0
  0
POINT
  5
470
100
AcDbEntity
  8
DEFPOINTS
  6
BYBLOCK
 62
     0
100
AcDbPoint
 10
83.64506
 20
216.783488
 30
0.0
  0
POINT
  5
471
100
AcDbEntity
  8
DEFPOINTS
  6
BYBLOCK
 62
     0
100
AcDbPoint
 10
83.64506
 20
223.380307
 30
0.0
  0
ENDBLK
  5
472
100
AcDbEntity
  8
0
100
AcDbBlockEnd
  0
BLOCK
  5
76B
100
AcDbEntity
  8
0
100
AcDbBlockBegin
  2
*D5
 70
    65
 10
0.0
 20
0.0
 30
0.0
  3
*D5
  1

  0
LINE
  5
76C
100
AcDbEntity
  8
0
  6
BYBLOCK
 62
     0
100
AcDbLine
 10
128.466799
 20
249.385134
 30
0.0
 11
175.100085
 21
249.385134
 31
0.0
  0
LINE
  5
76D
100
AcDbEntity
  8
0
  6
BYBLOCK
 62
     0
100
AcDbLine
 10
143.466799
 20
219.385134
 30
0.0
 11
175.100085
 21
219.385134
 31
0.0
  0
LINE
  5
76E
100
AcDbEntity
  8
0
  6
BYBLOCK
 62
     0
100
AcDbLine
 10
173.850085
 20
246.885134
 30
0.0
 11
173.850085
 21
221.885134
 31
0.0
  0
SOLID
  5
76F
100
AcDbEntity
  8
0
  6
BYBLOCK
 62
     0
100
AcDbTrace
 10
173.433418
 20
246.885134
 30
0.0
 11
174.266751
 21
246.885134
 31
0.0
 12
173.850085
 22
249.385134
 32
0.0
 13
173.850085
 23
249.385134
 33
0.0
  0
SOLID
  5
770
100
AcDbEntity
  8
0
  6
BYBLOCK
 62
     0
100
AcDbTrace
 10
173.433418
 20
221.885134
 30
0.0
 11
174.266751
 21
221.885134
 31
0.0
 12
173.850085
 22
219.385134
 32
0.0
 13
173.850085
 23
219.385134
 33
0.0
  0
MTEXT
  5
771
100
AcDbEntity
  8
0
  6
BYBLOCK
 62
     0
100
AcDbMText
 10
171.725085
 20
233.065216
 30
0.0
 40
3.0
 41
0.0
 71
     5
 72
     1
  1
\A1;30
 11
0.0
 21
1.0
 31
0.0
  0
POINT
  5
772
100
AcDbEntity
  8
DEFPOINTS
  6
BYBLOCK
 62
     0
100
AcDbPoint
 10
127.841799
 20
249.385134
 30
0.0
  0
POINT
  5
773
100
AcDbEntity
  8
DEFPOINTS
  6
BYBLOCK
 62
     0
100
AcDbPoint
 10
142.841799
 20
219.385134
 30
0.0
  0
POINT
  5
774
100
AcDbEntity
  8
DEFPOINTS
  6
BYBLOCK
 62
     0
100
AcDbPoint
 10
173.850085
 20
219.385134
 30
0.0
  0
ENDBLK
  5
775
100
AcDbEntity
  8
0
100
AcDbBlockEnd
  0
BLOCK
  5
760
100
AcDbEntity
  8
0
100
AcDbBlockBegin
  2
*D6
 70
    65
 10
0.0
 20
0.0
 30
0.0
  3
*D6
  1

  0
LINE
  5
761
100
AcDbEntity
  8
0
  6
BYBLOCK
 62
     0
100
AcDbLine
 10
143.466799
 20
219.385134
 30
0.0
 11
175.100085
 21
219.385134
 31
0.0
  0
LINE
  5
762
100
AcDbEntity
  8
0
  6
BYBLOCK
 62
     0
100
AcDbLine
 10
136.966799
 20
102.385134
 30
0.0
 11
175.100085
 21
102.385134
 31
0.0
  0
LINE
  5
763
100
AcDbEntity
  8
0
  6
BYBLOCK
 62
     0
100
AcDbLine
 10
173.850085
 20
216.885134
 30
0.0
 11
173.850085
 21
104.885134
 31
0.0
  0
SOLID
  5
764
100
AcDbEntity
  8
0
  6
BYBLOCK
 62
     0
100
AcDbTrace
 10
173.433418
 20
216.885134
 30
0.0
 11
174.266751
 21
216.885134
 31
0.0
 12
173.850085
 22
219.385134
 32
0.0
 13
173.850085
 23
219.385134
 33
0.0
  0
SOLID
  5
765
100
AcDbEntity
  8
0
  6
BYBLOCK
 62
     0
100
AcDbTrace
 10
173.433418
 20
104.885134
 30
0.0
 11
174.266751
 21
104.885134
 31
0.0
 12
173.850085
 22
102.385134
 32
0.0
 13
173.850085
 23
102.385134
 33
0.0
  0
MTEXT
  5
766
100
AcDbEntity
  8
0
  6
BYBLOCK
 62
     0
100
AcDbMText
 10
170.484376
 20
158.02873
 30
0.0
 40
3.0
 41
0.0
 71
     5
 72
     1
  1
\A2;117{\H2.400000;\S+0.02^  0;}
 11
0.0
 21
1.0
 31
0.0
  0
POINT
  5
767
100
AcDbEntity
  8
DEFPOINTS
  6
BYBLOCK
 62
     0
100
AcDbPoint
 10
142.841799
 20
219.385134
 30
0.0
  0
POINT
  5
768
100
AcDbEntity
  8
DEFPOINTS
  6
BYBLOCK
 62
     0
100
AcDbPoint
 10
136.341799
 20
102.385134
 30
0.0
  0
POINT
  5
769
100
AcDbEntity
  8
DEFPOINTS
  6
BYBLOCK
 62
     0
100
AcDbPoint
 10
173.850085
 20
102.385134
 30
0.0
  0
ENDBLK
  5
76A
100
AcDbEntity
  8
0
100
AcDbBlockEnd
  0
BLOCK
  5
755
100
AcDbEntity
  8
0
100
AcDbBlockBegin
  2
*D7
 70
    65
 10
0.0
 20
0.0
 30
0.0
  3
*D7
  1

  0
LINE
  5
756
100
AcDbEntity
  8
0
  6
BYBLOCK
 62
     0
100
AcDbLine
 10
136.966799
 20
102.385134
 30
0.0
 11
184.024269
 21
102.385134
 31
0.0
  0
LINE
  5
757
100
AcDbEntity
  8
0
  6
BYBLOCK
 62
     0
100
AcDbLine
 10
128.466799
 20
249.385134
 30
0.0
 11
184.024269
 21
249.385134
 31
0.0
  0
LINE
  5
758
100
AcDbEntity
  8
0
  6
BYBLOCK
 62
     0
100
AcDbLine
 10
182.774269
 20
104.885134
 30
0.0
 11
182.774269
 21
246.885134
 31
0.0
  0
SOLID
  5
759
100
AcDbEntity
  8
0
  6
BYBLOCK
 62
     0
100
AcDbTrace
 10
182.357603
 20
104.885134
 30
0.0
 11
183.190936
 21
104.885134
 31
0.0
 12
182.774269
 22
102.385134
 32
0.0
 13
182.774269
 23
102.385134
 33
0.0
  0
SOLID
  5
75A
100
AcDbEntity
  8
0
  6
BYBLOCK
 62
     0
100
AcDbTrace
 10
182.357603
 20
246.885134
 30
0.0
 11
183.190936
 21
246.885134
 31
0.0
 12
182.774269
 22
249.385134
 32
0.0
 13
182.774269
 23
249.385134
 33
0.0
  0
MTEXT
  5
75B
100
AcDbEntity
  8
0
  6
BYBLOCK
 62
     0
100
AcDbMText
 10
180.649269
 20
175.487714
 30
0.0
 40
3.0
 41
0.0
 71
     5
 72
     1
  1
\A1;147
 11
0.0
 21
1.0
 31
0.0
  0
POINT
  5
75C
100
AcDbEntity
  8
DEFPOINTS
  6
BYBLOCK
 62
     0
100
AcDbPoint
 10
136.341799
 20
102.385134
 30
0.0
  0
POINT
  5
75D
100
AcDbEntity
  8
DEFPOINTS
  6
BYBLOCK
 62
     0
100
AcDbPoint
 10
127.841799
 20
249.385134
 30
0.0
  0
POINT
  5
75E
100
AcDbEntity
  8
DEFPOINTS
  6
BYBLOCK
 62
     0
100
AcDbPoint
 10
182.774269
 20
249.385134
 30
0.0
  0
ENDBLK
  5
75F
100
AcDbEntity
  8
0
100
AcDbBlockEnd
  0
BLOCK
  5
69D
100
AcDbEntity
  8
0
100
AcDbBlockBegin
  2
*D8
 70
    65
 10
0.0
 20
0.0
 30
0.0
  3
*D8
  1

  0
LINE
  5
69E
100
AcDbEntity
  8
0
  6
BYBLOCK
 62
     0
100
AcDbLine
 10
80.52006
 20
233.783488
 30
0.0
 11
38.81576
 21
233.783488
 31
0.0
  0
LINE
  5
69F
100
AcDbEntity
  8
0
  6
BYBLOCK
 62
     0
100
AcDbLine
 10
83.52006
 20
183.783488
 30
0.0
 11
38.81576
 21
183.783488
 31
0.0
  0
LINE
  5
6A0
100
AcDbEntity
  8
0
  6
BYBLOCK
 62
     0
100
AcDbLine
 10
40.06576
 20
231.283488
 30
0.0
 11
40.06576
 21
186.283488
 31
0.0
  0
SOLID
  5
6A1
100
AcDbEntity
  8
0
  6
BYBLOCK
 62
     0
100
AcDbTrace
 10
39.649093
 20
231.283488
 30
0.0
 11
40.482427
 21
231.283488
 31
0.0
 12
40.06576
 22
233.783488
 32
0.0
 13
40.06576
 23
233.783488
 33
0.0
  0
SOLID
  5
6A2
100
AcDbEntity
  8
0
  6
BYBLOCK
 62
     0
100
AcDbTrace
 10
39.649093
 20
186.283488
 30
0.0
 11
40.482427
 21
186.283488
 31
0.0
 12
40.06576
 22
183.783488
 32
0.0
 13
40.06576
 23
183.783488
 33
0.0
  0
MTEXT
  5
6A3
100
AcDbEntity
  8
0
  6
BYBLOCK
 62
     0
100
AcDbMText
 10
37.94076
 20
208.630779
 30
0.0
 40
3.0
 41
0.0
 71
     5
 72
     1
  1
\A1;50
 11
0.0
 21
1.0
 31
0.0
  0
POINT
  5
6A4
100
AcDbEntity
  8
DEFPOINTS
  6
BYBLOCK
 62
     0
100
AcDbPoint
 10
81.14506
 20
233.783488
 30
0.0
  0
POINT
  5
6A5
100
AcDbEntity
  8
DEFPOINTS
  6
BYBLOCK
 62
     0
100
AcDbPoint
 10
84.14506
 20
183.783488
 30
0.0
  0
POINT
  5
6A6
100
AcDbEntity
  8
DEFPOINTS
  6
BYBLOCK
 62
     0
100
AcDbPoint
 10
40.06576
 20
183.783488
 30
0.0
  0
ENDBLK
  5
6A7
100
AcDbEntity
  8
0
100
AcDbBlockEnd
  0
BLOCK
  5
66D
100
AcDbEntity
  8
0
100
AcDbBlockBegin
  2
*D9
 70
    65
 10
0.0
 20
0.0
 30
0.0
  3
*D9
  1

  0
LINE
  5
66E
100
AcDbEntity
  8
0
  6
BYBLOCK
 62
     0
100
AcDbLine
 10
107.14506
 20
155.357438
 30
0.0
 11
107.14506
 21
156.512202
 31
0.0
  0
LINE
  5
66F
100
AcDbEntity
  8
0
  6
BYBLOCK
 62
     0
100
AcDbLine
 10
93.14506
 20
156.310275
 30
0.0
 11
93.14506
 21
154.012202
 31
0.0
  0
LINE
  5
670
100
AcDbEntity
  8
0
  6
BYBLOCK
 62
     0
100
AcDbLine
 10
104.64506
 20
155.262202
 30
0.0
 11
95.64506
 21
155.262202
 31
0.0
  0
LINE
  5
671
100
AcDbEntity
  8
0
  6
BYBLOCK
 62
     0
100
AcDbLine
 10
93.14506
 20
155.262202
 30
0.0
 11
72.674789
 21
155.262202
 31
0.0
  0
SOLID
  5
672
100
AcDbEntity
  8
0
  6
BYBLOCK
 62
     0
100
AcDbTrace
 10
104.64506
 20
155.678868
 30
0.0
 11
104.64506
 21
154.845535
 31
0.0
 12
107.14506
 22
155.262202
 32
0.0
 13
107.14506
 23
155.262202
 33
0.0
  0
SOLID
  5
673
100
AcDbEntity
  8
0
  6
BYBLOCK
 62
     0
100
AcDbTrace
 10
95.64506
 20
155.678868
 30
0.0
 11
95.64506
 21
154.845535
 31
0.0
 12
93.14506
 22
155.262202
 32
0.0
 13
93.14506
 23
155.262202
 33
0.0
  0
MTEXT
  5
674
100
AcDbEntity
  8
0
  6
BYBLOCK
 62
     0
100
AcDbMText
 10
80.133134
 20
157.387202
 30
0.0
 40
3.0
 41
0.0
 71
     5
 72
     1
  1
\A1;14±0.05
  0
POINT
  5
675
100
AcDbEntity
  8
DEFPOINTS
  6
BYBLOCK
 62
     0
100
AcDbPoint
 10
107.14506
 20
154.732438
 30
0.0
  0
POINT
  5
676
100
AcDbEntity
  8
DEFPOINTS
  6
BYBLOCK
 62
     0
100
AcDbPoint
 10
93.14506
 20
156.935275
 30
0.0
  0
POINT
  5
677
100
AcDbEntity
  8
DEFPOINTS
  6
BYBLOCK
 62
     0
100
AcDbPoint
 10
93.14506
 20
155.262202
 30
0.0
  0
ENDBLK
  5
678
100
AcDbEntity
  8
0
100
AcDbBlockEnd
  0
BLOCK
  5
551
100
AcDbEntity
  8
0
100
AcDbBlockBegin
  2
*X10
 70
    65
 10
0.0
 20
0.0
 30
0.0
  3
*X10
  1

  0
LINE
  5
553
100
AcDbEntity
  8
0
 62
     0
100
AcDbLine
 10
98.748622
 20
90.666391
 30
0.0
 11
100.14506
 21
92.06283
 31
0.0
  0
LINE
  5
554
100
AcDbEntity
  8
0
 62
     0
100
AcDbLine
 10
100.14506
 20
92.06283
 30
0.0
 11
102.37983
 21
94.297599
 31
0.0
  0
LINE
  5
555
100
AcDbEntity
  8
0
 62
     0
100
AcDbLine
 10
98.706512
 20
90.848788
 30
0.0
 11
100.14506
 21
92.287336
 31
0.0
  0
LINE
  5
556
100
AcDbEntity
  8
0
 62
     0
100
AcDbLine
 10
100.14506
 20
92.287336
 30
0.0
 11
102.447219
 21
94.589495
 31
0.0
  0
LINE
  5
557
100
AcDbEntity
  8
0
 62
     0
100
AcDbLine
 10
98.664402
 20
91.031185
 30
0.0
 11
100.14506
 21
92.511843
 31
0.0
  0
LINE
  5
558
100
AcDbEntity
  8
0
 62
     0
100
AcDbLine
 10
100.14506
 20
92.511843
 30
0.0
 11
102.514609
 21
94.881391
 31
0.0
  0
LINE
  5
559
100
AcDbEntity
  8
0
 62
     0
100
AcDbLine
 10
98.622293
 20
91.213582
 30
0.0
 11
100.14506
 21
92.736349
 31
0.0
  0
LINE
  5
55A
100
AcDbEntity
  8
0
 62
     0
100
AcDbLine
 10
100.14506
 20
92.736349
 30
0.0
 11
102.581998
 21
95.173287
 31
0.0
  0
LINE
  5
55B
100
AcDbEntity
  8
0
 62
     0
100
AcDbLine
 10
98.580183
 20
91.395978
 30
0.0
 11
100.14506
 21
92.960856
 31
0.0
  0
LINE
  5
55C
100
AcDbEntity
  8
0
 62
     0
100
AcDbLine
 10
100.14506
 20
92.960856
 30
0.0
 11
102.649388
 21
95.465183
 31
0.0
  0
LINE
  5
55D
100
AcDbEntity
  8
0
 62
     0
100
AcDbLine
 10
98.538074
 20
91.578375
 30
0.0
 11
100.14506
 21
93.185362
 31
0.0
  0
LINE
  5
55E
100
AcDbEntity
  8
0
 62
     0
100
AcDbLine
 10
100.14506
 20
93.185362
 30
0.0
 11
102.716777
 21
95.757078
 31
0.0
  0
LINE
  5
55F
100
AcDbEntity
  8
0
 62
     0
100
AcDbLine
 10
98.495964
 20
91.760772
 30
0.0
 11
100.14506
 21
93.409868
 31
0.0
  0
LINE
  5
560
100
AcDbEntity
  8
0
 62
     0
100
AcDbLine
 10
100.14506
 20
93.409868
 30
0.0
 11
102.784166
 21
96.048974
 31
0.0
  0
LINE
  5
561
100
AcDbEntity
  8
0
 62
     0
100
AcDbLine
 10
98.453854
 20
91.943169
 30
0.0
 11
100.14506
 21
93.634375
 31
0.0
  0
LINE
  5
562
100
AcDbEntity
  8
0
 62
     0
100
AcDbLine
 10
100.14506
 20
93.634375
 30
0.0
 11
102.851556
 21
96.34087
 31
0.0
  0
LINE
  5
563
100
AcDbEntity
  8
0
 62
     0
100
AcDbLine
 10
98.411745
 20
92.125565
 30
0.0
 11
100.14506
 21
93.858881
 31
0.0
  0
LINE
  5
564
100
AcDbEntity
  8
0
 62
     0
100
AcDbLine
 10
102.747168
 20
96.460988
 30
0.0
 11
102.918945
 21
96.632766
 31
0.0
  0
LINE
  5
565
100
AcDbEntity
  8
0
 62
     0
100
AcDbLine
 10
100.14506
 20
93.858881
 30
0.0
 11
101.638057
 21
95.351878
 31
0.0
  0
LINE
  5
566
100
AcDbEntity
  8
0
 62
     0
100
AcDbLine
 10
98.369635
 20
92.307962
 30
0.0
 11
100.14506
 21
94.083388
 31
0.0
  0
LINE
  5
567
100
AcDbEntity
  8
0
 62
     0
100
AcDbLine
 10
102.949047
 20
96.887374
 30
0.0
 11
102.986335
 21
96.924662
 31
0.0
  0
LINE
  5
568
100
AcDbEntity
  8
0
 62
     0
100
AcDbLine
 10
100.14506
 20
94.083388
 30
0.0
 11
101.211671
 21
95.149998
 31
0.0
  0
LINE
  5
569
100
AcDbEntity
  8
0
 62
     0
100
AcDbLine
 10
98.327525
 20
92.490359
 30
0.0
 11
100.14506
 21
94.307894
 31
0.0
  0
LINE
  5
56A
100
AcDbEntity
  8
0
 62
     0
100
AcDbLine
 10
103.052774
 20
97.215608
 30
0.0
 11
103.053724
 21
97.216558
 31
0.0
  0
LINE
  5
56B
100
AcDbEntity
  8
0
 62
     0
100
AcDbLine
 10
100.14506
 20
94.307894
 30
0.0
 11
100.883437
 21
95.046271
 31
0.0
  0
LINE
  5
56C
100
AcDbEntity
  8
0
 62
     0
100
AcDbLine
 10
98.285416
 20
92.672756
 30
0.0
 11
100.14506
 21
94.5324
 31
0.0
  0
LINE
  5
56D
100
AcDbEntity
  8
0
 62
     0
100
AcDbLine
 10
100.14506
 20
94.5324
 30
0.0
 11
100.601584
 21
94.988924
 31
0.0
  0
LINE
  5
56E
100
AcDbEntity
  8
0
 62
     0
100
AcDbLine
 10
98.243306
 20
92.855153
 30
0.0
 11
100.14506
 21
94.756907
 31
0.0
  0
LINE
  5
56F
100
AcDbEntity
  8
0
 62
     0
100
AcDbLine
 10
100.14506
 20
94.756907
 30
0.0
 11
100.349084
 21
94.96093
 31
0.0
  0
LINE
  5
570
100
AcDbEntity
  8
0
 62
     0
100
AcDbLine
 10
98.201197
 20
93.037549
 30
0.0
 11
100.117756
 21
94.954109
 31
0.0
  0
LINE
  5
571
100
AcDbEntity
  8
0
 62
     0
100
AcDbLine
 10
98.159087
 20
93.219946
 30
0.0
 11
99.902914
 21
94.963773
 31
0.0
  0
LINE
  5
572
100
AcDbEntity
  8
0
 62
     0
100
AcDbLine
 10
98.116977
 20
93.402343
 30
0.0
 11
99.701579
 21
94.986945
 31
0.0
  0
LINE
  5
573
100
AcDbEntity
  8
0
 62
     0
100
AcDbLine
 10
98.074868
 20
93.58474
 30
0.0
 11
99.511727
 21
95.021599
 31
0.0
  0
LINE
  5
574
100
AcDbEntity
  8
0
 62
     0
100
AcDbLine
 10
98.032758
 20
93.767137
 30
0.0
 11
99.331911
 21
95.066289
 31
0.0
  0
LINE
  5
575
100
AcDbEntity
  8
0
 62
     0
100
AcDbLine
 10
97.990649
 20
93.949533
 30
0.0
 11
99.161065
 21
95.11995
 31
0.0
  0
LINE
  5
576
100
AcDbEntity
  8
0
 62
     0
100
AcDbLine
 10
97.948539
 20
94.13193
 30
0.0
 11
98.998386
 21
95.181777
 31
0.0
  0
LINE
  5
577
100
AcDbEntity
  8
0
 62
     0
100
AcDbLine
 10
97.906429
 20
94.314327
 30
0.0
 11
98.843255
 21
95.251152
 31
0.0
  0
LINE
  5
578
100
AcDbEntity
  8
0
 62
     0
100
AcDbLine
 10
97.86432
 20
94.496724
 30
0.0
 11
98.695196
 21
95.3276
 31
0.0
  0
LINE
  5
579
100
AcDbEntity
  8
0
 62
     0
100
AcDbLine
 10
97.82221
 20
94.67912
 30
0.0
 11
98.553843
 21
95.410753
 31
0.0
  0
LINE
  5
57A
100
AcDbEntity
  8
0
 62
     0
100
AcDbLine
 10
97.7801
 20
94.861517
 30
0.0
 11
98.418914
 21
95.500331
 31
0.0
  0
LINE
  5
57B
100
AcDbEntity
  8
0
 62
     0
100
AcDbLine
 10
97.737991
 20
95.043914
 30
0.0
 11
98.290202
 21
95.596125
 31
0.0
  0
LINE
  5
57C
100
AcDbEntity
  8
0
 62
     0
100
AcDbLine
 10
97.695881
 20
95.226311
 30
0.0
 11
98.167563
 21
95.697992
 31
0.0
  0
LINE
  5
57D
100
AcDbEntity
  8
0
 62
     0
100
AcDbLine
 10
97.653772
 20
95.408708
 30
0.0
 11
98.050906
 21
95.805842
 31
0.0
  0
LINE
  5
57E
100
AcDbEntity
  8
0
 62
     0
100
AcDbLine
 10
97.611662
 20
95.591104
 30
0.0
 11
97.940195
 21
95.919637
 31
0.0
  0
LINE
  5
57F
100
AcDbEntity
  8
0
 62
     0
100
AcDbLine
 10
97.569552
 20
95.773501
 30
0.0
 11
97.835443
 21
96.039392
 31
0.0
  0
LINE
  5
580
100
AcDbEntity
  8
0
 62
     0
100
AcDbLine
 10
97.527443
 20
95.955898
 30
0.0
 11
97.736713
 21
96.165168
 31
0.0
  0
LINE
  5
581
100
AcDbEntity
  8
0
 62
     0
100
AcDbLine
 10
97.485333
 20
96.138295
 30
0.0
 11
97.644124
 21
96.297085
 31
0.0
  0
LINE
  5
582
100
AcDbEntity
  8
0
 62
     0
100
AcDbLine
 10
97.443224
 20
96.320692
 30
0.0
 11
97.557851
 21
96.435319
 31
0.0
  0
LINE
  5
583
100
AcDbEntity
  8
0
 62
     0
100
AcDbLine
 10
97.401114
 20
96.503088
 30
0.0
 11
97.478138
 21
96.580112
 31
0.0
  0
LINE
  5
584
100
AcDbEntity
  8
0
 62
     0
100
AcDbLine
 10
97.359004
 20
96.685485
 30
0.0
 11
97.405309
 21
96.73179
 31
0.0
  0
LINE
  5
585
100
AcDbEntity
  8
0
 62
     0
100
AcDbLine
 10
97.316895
 20
96.867882
 30
0.0
 11
97.339784
 21
96.890771
 31
0.0
  0
LINE
  5
586
100
AcDbEntity
  8
0
 62
     0
100
AcDbLine
 10
97.274785
 20
97.050279
 30
0.0
 11
97.282108
 21
97.057602
 31
0.0
  0
LINE
  5
587
100
AcDbEntity
  8
0
 62
     0
100
AcDbLine
 10
97.232675
 20
97.232675
 30
0.0
 11
97.232988
 21
97.232988
 31
0.0
  0
LINE
  5
588
100
AcDbEntity
  8
0
 62
     0
100
AcDbLine
 10
98.790731
 20
90.483994
 30
0.0
 11
100.14506
 21
91.838324
 31
0.0
  0
LINE
  5
589
100
AcDbEntity
  8
0
 62
     0
100
AcDbLine
 10
100.14506
 20
91.838324
 30
0.0
 11
102.31244
 21
94.005703
 31
0.0
  0
LINE
  5
58A
100
AcDbEntity
  8
0
 62
     0
100
AcDbLine
 10
98.832841
 20
90.301598
 30
0.0
 11
100.14506
 21
91.613817
 31
0.0
  0
LINE
  5
58B
100
AcDbEntity
  8
0
 62
     0
100
AcDbLine
 10
100.14506
 20
91.613817
 30
0.0
 11
102.245051
 21
93.713807
 31
0.0
  0
LINE
  5
58C
100
AcDbEntity
  8
0
 62
     0
100
AcDbLine
 10
98.874951
 20
90.119201
 30
0.0
 11
100.14506
 21
91.389311
 31
0.0
  0
LINE
  5
58D
100
AcDbEntity
  8
0
 62
     0
100
AcDbLine
 10
100.14506
 20
91.389311
 30
0.0
 11
102.177661
 21
93.421911
 31
0.0
  0
LINE
  5
58E
100
AcDbEntity
  8
0
 62
     0
100
AcDbLine
 10
98.91706
 20
89.936804
 30
0.0
 11
100.14506
 21
91.164804
 31
0.0
  0
LINE
  5
58F
100
AcDbEntity
  8
0
 62
     0
100
AcDbLine
 10
100.14506
 20
91.164804
 30
0.0
 11
102.110272
 21
93.130016
 31
0.0
  0
LINE
  5
590
100
AcDbEntity
  8
0
 62
     0
100
AcDbLine
 10
98.95917
 20
89.754407
 30
0.0
 11
100.14506
 21
90.940298
 31
0.0
  0
LINE
  5
591
100
AcDbEntity
  8
0
 62
     0
100
AcDbLine
 10
100.14506
 20
90.940298
 30
0.0
 11
102.042882
 21
92.83812
 31
0.0
  0
LINE
  5
592
100
AcDbEntity
  8
0
 62
     0
100
AcDbLine
 10
99.001279
 20
89.57201
 30
0.0
 11
100.14506
 21
90.715792
 31
0.0
  0
LINE
  5
593
100
AcDbEntity
  8
0
 62
     0
100
AcDbLine
 10
100.14506
 20
90.715792
 30
0.0
 11
101.975493
 21
92.546224
 31
0.0
  0
LINE
  5
594
100
AcDbEntity
  8
0
 62
     0
100
AcDbLine
 10
99.043389
 20
89.389614
 30
0.0
 11
100.14506
 21
90.491285
 31
0.0
  0
LINE
  5
595
100
AcDbEntity
  8
0
 62
     0
100
AcDbLine
 10
100.14506
 20
90.491285
 30
0.0
 11
101.908103
 21
92.254328
 31
0.0
  0
LINE
  5
596
100
AcDbEntity
  8
0
 62
     0
100
AcDbLine
 10
99.085499
 20
89.207217
 30
0.0
 11
100.14506
 21
90.266779
 31
0.0
  0
LINE
  5
597
100
AcDbEntity
  8
0
 62
     0
100
AcDbLine
 10
100.14506
 20
90.266779
 30
0.0
 11
101.840714
 21
91.962432
 31
0.0
  0
LINE
  5
598
100
AcDbEntity
  8
0
 62
     0
100
AcDbLine
 10
99.127608
 20
89.02482
 30
0.0
 11
100.14506
 21
90.042272
 31
0.0
  0
LINE
  5
599
100
AcDbEntity
  8
0
 62
     0
100
AcDbLine
 10
100.14506
 20
90.042272
 30
0.0
 11
101.773324
 21
91.670536
 31
0.0
  0
LINE
  5
59A
100
AcDbEntity
  8
0
 62
     0
100
AcDbLine
 10
99.169718
 20
88.842423
 30
0.0
 11
100.14506
 21
89.817766
 31
0.0
  0
LINE
  5
59B
100
AcDbEntity
  8
0
 62
     0
100
AcDbLine
 10
100.14506
 20
89.817766
 30
0.0
 11
101.705935
 21
91.37864
 31
0.0
  0
LINE
  5
59C
100
AcDbEntity
  8
0
 62
     0
100
AcDbLine
 10
99.211827
 20
88.660026
 30
0.0
 11
100.14506
 21
89.593259
 31
0.0
  0
LINE
  5
59D
100
AcDbEntity
  8
0
 62
     0
100
AcDbLine
 10
100.14506
 20
89.593259
 30
0.0
 11
101.638545
 21
91.086744
 31
0.0
  0
LINE
  5
59E
100
AcDbEntity
  8
0
 62
     0
100
AcDbLine
 10
99.253937
 20
88.47763
 30
0.0
 11
100.14506
 21
89.368753
 31
0.0
  0
LINE
  5
59F
100
AcDbEntity
  8
0
 62
     0
100
AcDbLine
 10
100.14506
 20
89.368753
 30
0.0
 11
101.571156
 21
90.794849
 31
0.0
  0
LINE
  5
5A0
100
AcDbEntity
  8
0
 62
     0
100
AcDbLine
 10
99.296047
 20
88.295233
 30
0.0
 11
100.14506
 21
89.144247
 31
0.0
  0
LINE
  5
5A1
100
AcDbEntity
  8
0
 62
     0
100
AcDbLine
 10
100.14506
 20
89.144247
 30
0.0
 11
101.503766
 21
90.502953
 31
0.0
  0
LINE
  5
5A2
100
AcDbEntity
  8
0
 62
     0
100
AcDbLine
 10
99.338156
 20
88.112836
 30
0.0
 11
100.14506
 21
88.91974
 31
0.0
  0
LINE
  5
5A3
100
AcDbEntity
  8
0
 62
     0
100
AcDbLine
 10
100.14506
 20
88.91974
 30
0.0
 11
101.436377
 21
90.211057
 31
0.0
  0
LINE
  5
5A4
100
AcDbEntity
  8
0
 62
     0
100
AcDbLine
 10
99.380266
 20
87.930439
 30
0.0
 11
100.14506
 21
88.695234
 31
0.0
  0
LINE
  5
5A5
100
AcDbEntity
  8
0
 62
     0
100
AcDbLine
 10
100.14506
 20
88.695234
 30
0.0
 11
101.368988
 21
89.919161
 31
0.0
  0
LINE
  5
5A6
100
AcDbEntity
  8
0
 62
     0
100
AcDbLine
 10
99.422376
 20
87.748043
 30
0.0
 11
100.14506
 21
88.470727
 31
0.0
  0
LINE
  5
5A7
100
AcDbEntity
  8
0
 62
     0
100
AcDbLine
 10
100.14506
 20
88.470727
 30
0.0
 11
101.301598
 21
89.627265
 31
0.0
  0
LINE
  5
5A8
100
AcDbEntity
  8
0
 62
     0
100
AcDbLine
 10
99.464485
 20
87.565646
 30
0.0
 11
100.14506
 21
88.246221
 31
0.0
  0
LINE
  5
5A9
100
AcDbEntity
  8
0
 62
     0
100
AcDbLine
 10
100.14506
 20
88.246221
 30
0.0
 11
101.234209
 21
89.335369
 31
0.0
  0
LINE
  5
5AA
100
AcDbEntity
  8
0
 62
     0
100
AcDbLine
 10
99.506595
 20
87.383249
 30
0.0
 11
100.14506
 21
88.021715
 31
0.0
  0
LINE
  5
5AB
100
AcDbEntity
  8
0
 62
     0
100
AcDbLine
 10
100.14506
 20
88.021715
 30
0.0
 11
101.166819
 21
89.043473
 31
0.0
  0
LINE
  5
5AC
100
AcDbEntity
  8
0
 62
     0
100
AcDbLine
 10
99.548704
 20
87.200852
 30
0.0
 11
100.14506
 21
87.797208
 31
0.0
  0
LINE
  5
5AD
100
AcDbEntity
  8
0
 62
     0
100
AcDbLine
 10
100.14506
 20
87.797208
 30
0.0
 11
101.09943
 21
88.751577
 31
0.0
  0
LINE
  5
5AE
100
AcDbEntity
  8
0
 62
     0
100
AcDbLine
 10
99.590814
 20
87.018455
 30
0.0
 11
100.14506
 21
87.572702
 31
0.0
  0
LINE
  5
5AF
100
AcDbEntity
  8
0
 62
     0
100
AcDbLine
 10
100.14506
 20
87.572702
 30
0.0
 11
101.03204
 21
88.459682
 31
0.0
  0
LINE
  5
5B0
100
AcDbEntity
  8
0
 62
     0
100
AcDbLine
 10
99.632924
 20
86.836059
 30
0.0
 11
100.14506
 21
87.348195
 31
0.0
  0
LINE
  5
5B1
100
AcDbEntity
  8
0
 62
     0
100
AcDbLine
 10
100.14506
 20
87.348195
 30
0.0
 11
100.964651
 21
88.167786
 31
0.0
  0
LINE
  5
5B2
100
AcDbEntity
  8
0
 62
     0
100
AcDbLine
 10
99.80486
 20
86.783488
 30
0.0
 11
100.14506
 21
87.123689
 31
0.0
  0
LINE
  5
5B3
100
AcDbEntity
  8
0
 62
     0
100
AcDbLine
 10
100.14506
 20
87.123689
 30
0.0
 11
100.897261
 21
87.87589
 31
0.0
  0
LINE
  5
5B4
100
AcDbEntity
  8
0
 62
     0
100
AcDbLine
 10
100.029366
 20
86.783488
 30
0.0
 11
100.14506
 21
86.899183
 31
0.0
  0
LINE
  5
5B5
100
AcDbEntity
  8
0
 62
     0
100
AcDbLine
 10
100.14506
 20
86.899183
 30
0.0
 11
100.829872
 21
87.583994
 31
0.0
  0
LINE
  5
5B6
100
AcDbEntity
  8
0
 62
     0
100
AcDbLine
 10
100.253872
 20
86.783488
 30
0.0
 11
100.762482
 21
87.292098
 31
0.0
  0
LINE
  5
5B7
100
AcDbEntity
  8
0
 62
     0
100
AcDbLine
 10
100.478379
 20
86.783488
 30
0.0
 11
100.695093
 21
87.000202
 31
0.0
  0
ENDBLK
  5
5B8
100
AcDbEntity
  8
0
100
AcDbBlockEnd
  0
BLOCK
  5
5E8
100
AcDbEntity
  8
0
100
AcDbBlockBegin
  2
*D11
 70
    65
 10
0.0
 20
0.0
 30
0.0
  3
*D11
  1

  0
LINE
  5
5E9
100
AcDbEntity
  8
0
  6
BYBLOCK
 62
     0
100
AcDbLine
 10
101.831823
 20
84.747147
 30
0.0
 11
107.459475
 21
75.28408
 31
0.0
  0
SOLID
  5
5EA
100
AcDbEntity
  8
0
  6
BYBLOCK
 62
     0
100
AcDbTrace
 10
102.189947
 20
84.960122
 30
0.0
 11
101.473699
 21
84.534172
 31
0.0
 12
100.553972
 22
86.89589
 32
0.0
 13
100.553972
 23
86.89589
 33
0.0
  0
MTEXT
  5
5EB
100
AcDbEntity
  8
0
  6
BYBLOCK
 62
     0
100
AcDbMText
 10
107.111006
 20
80.027414
 30
0.0
 40
3.0
 41
0.0
 71
     5
 72
     1
  1
\A1;R0.8
 11
0.51114
 21
-0.859497
 31
0.0
  0
LINE
  5
5EC
100
AcDbEntity
  8
0
  6
BYBLOCK
 62
     0
100
AcDbLine
 10
97.64506
 20
87.583488
 30
0.0
 11
102.64506
 21
87.583488
 31
0.0
  0
LINE
  5
5ED
100
AcDbEntity
  8
0
  6
BYBLOCK
 62
     0
100
AcDbLine
 10
100.14506
 20
85.083488
 30
0.0
 11
100.14506
 21
90.083488
 31
0.0
  0
POINT
  5
5EE
100
AcDbEntity
  8
DEFPOINTS
  6
BYBLOCK
 62
     0
100
AcDbPoint
 10
100.553972
 20
86.89589
 30
0.0
  0
POINT
  5
5EF
100
AcDbEntity
  8
DEFPOINTS
  6
BYBLOCK
 62
     0
100
AcDbPoint
 10
100.14506
 20
87.583488
 30
0.0
  0
ENDBLK
  5
5F0
100
AcDbEntity
  8
0
100
AcDbBlockEnd
  0
BLOCK
  5
601
100
AcDbEntity
  8
0
100
AcDbBlockBegin
  2
*D12
 70
    65
 10
0.0
 20
0.0
 30
0.0
  3
*D12
  1

  0
LINE
  5
602
100
AcDbEntity
  8
0
  6
BYBLOCK
 62
     0
100
AcDbLine
 10
100.004466
 20
83.418178
 30
0.0
 11
95.178721
 21
62.515581
 31
0.0
  0
LINE
  5
603
100
AcDbEntity
  8
0
  6
BYBLOCK
 62
     0
100
AcDbLine
 10
100.285655
 20
83.418178
 30
0.0
 11
105.111399
 21
62.515581
 31
0.0
  0
ARC
  5
604
100
AcDbEntity
  8
0
  6
BYBLOCK
 62
     0
100
AcDbCircle
 10
100.14506
 20
84.027159
 30
0.0
 40
20.82742
100
AcDbArc
 50
263.881581
 51
276.118419
  0
SOLID
  5
605
100
AcDbEntity
  8
0
  6
BYBLOCK
 62
     0
100
AcDbTrace
 10
97.856002
 20
62.907496
 30
0.0
 11
97.994391
 21
63.729258
 31
0.0
 12
95.45991
 22
63.733544
 32
0.0
 13
95.45991
 23
63.733544
 33
0.0
  0
SOLID
  5
606
100
AcDbEntity
  8
0
  6
BYBLOCK
 62
     0
100
AcDbTrace
 10
102.29573
 20
63.729258
 30
0.0
 11
102.434119
 21
62.907496
 31
0.0
 12
104.830211
 22
63.733544
 32
0.0
 13
104.830211
 23
63.733544
 33
0.0
  0
MTEXT
  5
607
100
AcDbEntity
  8
0
  6
BYBLOCK
 62
     0
100
AcDbMText
 10
100.340524
 20
65.32576
 30
0.0
 40
3.0
 41
0.0
 71
     5
 72
     1
  1
\A1;26°
 11
0.999945
 21
0.010451
 31
0.0
  0
POINT
  5
608
100
AcDbEntity
  8
DEFPOINTS
  6
BYBLOCK
 62
     0
100
AcDbPoint
 10
98.571364
 20
63.259277
 30
0.0
  0
POINT
  5
609
100
AcDbEntity
  8
DEFPOINTS
  6
BYBLOCK
 62
     0
100
AcDbPoint
 10
99.365564
 20
87.403527
 30
0.0
  0
POINT
  5
60A
100
AcDbEntity
  8
DEFPOINTS
  6
BYBLOCK
 62
     0
100
AcDbPoint
 10
100.924556
 20
87.403527
 30
0.0
  0
POINT
  5
60B
100
AcDbEntity
  8
DEFPOINTS
  6
BYBLOCK
 62
     0
100
AcDbPoint
 10
107.14506
 20
114.34749
 30
0.0
  0
POINT
  5
60C
100
AcDbEntity
  8
DEFPOINTS
  6
BYBLOCK
 62
     0
100
AcDbPoint
 10
93.14506
 20
114.34749
 30
0.0
  0
ENDBLK
  5
60D
100
AcDbEntity
  8
0
100
AcDbBlockEnd
  0
BLOCK
  5
622
100
AcDbEntity
  8
DISEGNO
100
AcDbBlockBegin
  2
RUGOSITA
 70
     2
 10
0.0
 20
0.0
 30
0.0
  3
RUGOSITA
  1

  0
ATTDEF
  5
61E
100
AcDbEntity
  8
QUOTE
100
AcDbText
 10
-1.071886
 20
3.214106
 30
0.0
 40
1.5
  1
0.8
100
AcDbAttributeDefinition
  3
CHE RUGOSITA ?
  2
RUGOSITA
 70
     0
  0
LINE
  5
61F
100
AcDbEntity
  8
QUOTE
100
AcDbLine
 10
0.0
 20
0.0
 30
0.0
 11
4.0
 21
6.928203
 31
0.0
  0
LINE
  5
620
100
AcDbEntity
  8
QUOTE
100
AcDbLine
 10
0.0
 20
0.0
 30
0.0
 11
-1.75
 21
3.031089
 31
0.0
  0
LINE
  5
621
100
AcDbEntity
  8
QUOTE
100
AcDbLine
 10
-1.75
 20
3.031089
 30
0.0
 11
1.75
 21
3.031089
 31
0.0
  0
ENDBLK
  5
623
100
AcDbEntity
  8
DISEGNO
100
AcDbBlockEnd
  0
BLOCK
  5
73D
100
AcDbEntity
  8
0
100
AcDbBlockBegin
  2
*D14
 70
    65
 10
0.0
 20
0.0
 30
0.0
  3
*D14
  1

  0
LINE
  5
73E
100
AcDbEntity
  8
0
  6
BYBLOCK
 62
     0
100
AcDbLine
 10
93.14506
 20
233.408488
 30
0.0
 11
93.14506
 21
249.350129
 31
0.0
  0
LINE
  5
73F
100
AcDbEntity
  8
0
  6
BYBLOCK
 62
     0
100
AcDbLine
 10
100.14506
 20
233.408488
 30
0.0
 11
100.14506
 21
249.350129
 31
0.0
  0
LINE
  5
740
100
AcDbEntity
  8
0
  6
BYBLOCK
 62
     0
100
AcDbLine
 10
95.64506
 20
248.100129
 30
0.0
 11
97.64506
 21
248.100129
 31
0.0
  0
LINE
  5
741
100
AcDbEntity
  8
0
  6
BYBLOCK
 62
     0
100
AcDbLine
 10
100.14506
 20
248.100129
 30
0.0
 11
119.885785
 21
248.100129
 31
0.0
  0
SOLID
  5
742
100
AcDbEntity
  8
0
  6
BYBLOCK
 62
     0
100
AcDbTrace
 10
95.64506
 20
248.516796
 30
0.0
 11
95.64506
 21
247.683463
 31
0.0
 12
93.14506
 22
248.100129
 32
0.0
 13
93.14506
 23
248.100129
 33
0.0
  0
SOLID
  5
743
100
AcDbEntity
  8
0
  6
BYBLOCK
 62
     0
100
AcDbTrace
 10
97.64506
 20
248.516796
 30
0.0
 11
97.64506
 21
247.683463
 31
0.0
 12
100.14506
 22
248.100129
 32
0.0
 13
100.14506
 23
248.100129
 33
0.0
  0
MTEXT
  5
744
100
AcDbEntity
  8
0
  6
BYBLOCK
 62
     0
100
AcDbMText
 10
114.673785
 20
250.225129
 30
0.0
 40
3.0
 41
0.0
 71
     5
 72
     1
  1
\A2;7{\H2.400000;±0.01}
  0
POINT
  5
745
100
AcDbEntity
  8
DEFPOINTS
  6
BYBLOCK
 62
     0
100
AcDbPoint
 10
93.14506
 20
232.783488
 30
0.0
  0
POINT
  5
746
100
AcDbEntity
  8
DEFPOINTS
  6
BYBLOCK
 62
     0
100
AcDbPoint
 10
100.14506
 20
232.783488
 30
0.0
  0
POINT
  5
747
100
AcDbEntity
  8
DEFPOINTS
  6
BYBLOCK
 62
     0
100
AcDbPoint
 10
100.14506
 20
248.100129
 30
0.0
  0
ENDBLK
  5
748
100
AcDbEntity
  8
0
100
AcDbBlockEnd
  0
BLOCK
  5
7B7
100
AcDbEntity
  8
0
100
AcDbBlockBegin
  2
*D15
 70
    65
 10
0.0
 20
0.0
 30
0.0
  3
*D15
  1

  0
LINE
  5
7B8
100
AcDbEntity
  8
0
  6
BYBLOCK
 62
     0
100
AcDbLine
 10
95.832771
 20
153.350314
 30
0.0
 11
95.832771
 21
161.81852
 31
0.0
  0
LINE
  5
7B9
100
AcDbEntity
  8
0
  6
BYBLOCK
 62
     0
100
AcDbLine
 10
35.832771
 20
153.350314
 30
0.0
 11
35.832771
 21
161.81852
 31
0.0
  0
LINE
  5
7BA
100
AcDbEntity
  8
0
  6
BYBLOCK
 62
     0
100
AcDbLine
 10
93.332771
 20
160.56852
 30
0.0
 11
38.332771
 21
160.56852
 31
0.0
  0
SOLID
  5
7BB
100
AcDbEntity
  8
0
  6
BYBLOCK
 62
     0
100
AcDbTrace
 10
93.332771
 20
160.985187
 30
0.0
 11
93.332771
 21
160.151854
 31
0.0
 12
95.832771
 22
160.56852
 32
0.0
 13
95.832771
 23
160.56852
 33
0.0
  0
SOLID
  5
7BC
100
AcDbEntity
  8
0
  6
BYBLOCK
 62
     0
100
AcDbTrace
 10
38.332771
 20
160.985187
 30
0.0
 11
38.332771
 21
160.151854
 31
0.0
 12
35.832771
 22
160.56852
 32
0.0
 13
35.832771
 23
160.56852
 33
0.0
  0
MTEXT
  5
7BD
100
AcDbEntity
  8
0
  6
BYBLOCK
 62
     0
100
AcDbMText
 10
65.832771
 20
162.69352
 30
0.0
 40
3.0
 41
0.0
 71
     5
 72
     1
  1
\A1;{835}
  0
POINT
  5
7BE
100
AcDbEntity
  8
DEFPOINTS
  6
BYBLOCK
 62
     0
100
AcDbPoint
 10
95.832771
 20
152.725314
 30
0.0
  0
POINT
  5
7BF
100
AcDbEntity
  8
DEFPOINTS
  6
BYBLOCK
 62
     0
100
AcDbPoint
 10
35.832771
 20
152.725314
 30
0.0
  0
POINT
  5
7C0
100
AcDbEntity
  8
DEFPOINTS
  6
BYBLOCK
 62
     0
100
AcDbPoint
 10
35.832771
 20
160.56852
 30
0.0
  0
ENDBLK
  5
7C1
100
AcDbEntity
  8
0
100
AcDbBlockEnd
  0
BLOCK
  5
801
100
AcDbEntity
  8
0
100
AcDbBlockBegin
  2
*D16
 70
    65
 10
0.0
 20
0.0
 30
0.0
  3
*D16
  1

  0
LINE
  5
802
100
AcDbEntity
  8
0
  6
BYBLOCK
 62
     0
100
AcDbLine
 10
35.832771
 20
153.350314
 30
0.0
 11
35.832771
 21
156.185069
 31
0.0
  0
LINE
  5
803
100
AcDbEntity
  8
0
  6
BYBLOCK
 62
     0
100
AcDbLine
 10
43.621736
 20
138.472553
 30
0.0
 11
43.621736
 21
156.185069
 31
0.0
  0
LINE
  5
804
100
AcDbEntity
  8
0
  6
BYBLOCK
 62
     0
100
AcDbLine
 10
33.332771
 20
154.935069
 30
0.0
 11
30.832771
 21
154.935069
 31
0.0
  0
LINE
  5
805
100
AcDbEntity
  8
0
  6
BYBLOCK
 62
     0
100
AcDbLine
 10
46.121736
 20
154.935069
 30
0.0
 11
48.621736
 21
154.935069
 31
0.0
  0
SOLID
  5
806
100
AcDbEntity
  8
0
  6
BYBLOCK
 62
     0
100
AcDbTrace
 10
33.332771
 20
155.351736
 30
0.0
 11
33.332771
 21
154.518403
 31
0.0
 12
35.832771
 22
154.935069
 32
0.0
 13
35.832771
 23
154.935069
 33
0.0
  0
SOLID
  5
807
100
AcDbEntity
  8
0
  6
BYBLOCK
 62
     0
100
AcDbTrace
 10
46.121736
 20
155.351736
 30
0.0
 11
46.121736
 21
154.518403
 31
0.0
 12
43.621736
 22
154.935069
 32
0.0
 13
43.621736
 23
154.935069
 33
0.0
  0
MTEXT
  5
808
100
AcDbEntity
  8
0
  6
BYBLOCK
 62
     0
100
AcDbMText
 10
39.727253
 20
157.060069
 30
0.0
 40
3.0
 41
0.0
 71
     5
 72
     1
  1
\A1;{50}
  0
POINT
  5
809
100
AcDbEntity
  8
DEFPOINTS
  6
BYBLOCK
 62
     0
100
AcDbPoint
 10
35.832771
 20
152.725314
 30
0.0
  0
POINT
  5
80A
100
AcDbEntity
  8
DEFPOINTS
  6
BYBLOCK
 62
     0
100
AcDbPoint
 10
43.621736
 20
137.847553
 30
0.0
  0
POINT
  5
80B
100
AcDbEntity
  8
DEFPOINTS
  6
BYBLOCK
 62
     0
100
AcDbPoint
 10
43.621736
 20
154.935069
 30
0.0
  0
ENDBLK
  5
80C
100
AcDbEntity
  8
0
100
AcDbBlockEnd
  0
BLOCK
  5
832
100
AcDbEntity
  8
0
100
AcDbBlockBegin
  2
*D17
 70
    65
 10
0.0
 20
0.0
 30
0.0
  3
*D17
  1

  0
LINE
  5
833
100
AcDbEntity
  8
0
  6
BYBLOCK
 62
     0
100
AcDbLine
 10
35.207771
 20
152.725314
 30
0.0
 11
24.523365
 21
152.725314
 31
0.0
  0
LINE
  5
834
100
AcDbEntity
  8
0
  6
BYBLOCK
 62
     0
100
AcDbLine
 10
42.996736
 20
137.847553
 30
0.0
 11
24.523365
 21
137.847553
 31
0.0
  0
LINE
  5
835
100
AcDbEntity
  8
0
  6
BYBLOCK
 62
     0
100
AcDbLine
 10
25.773365
 20
150.225314
 30
0.0
 11
25.773365
 21
140.347553
 31
0.0
  0
SOLID
  5
836
100
AcDbEntity
  8
0
  6
BYBLOCK
 62
     0
100
AcDbTrace
 10
25.356699
 20
150.225314
 30
0.0
 11
26.190032
 21
150.225314
 31
0.0
 12
25.773365
 22
152.725314
 32
0.0
 13
25.773365
 23
152.725314
 33
0.0
  0
SOLID
  5
837
100
AcDbEntity
  8
0
  6
BYBLOCK
 62
     0
100
AcDbTrace
 10
25.356699
 20
140.347553
 30
0.0
 11
26.190032
 21
140.347553
 31
0.0
 12
25.773365
 22
137.847553
 32
0.0
 13
25.773365
 23
137.847553
 33
0.0
  0
MTEXT
  5
838
100
AcDbEntity
  8
0
  6
BYBLOCK
 62
     0
100
AcDbMText
 10
23.648365
 20
145.286433
 30
0.0
 40
3.0
 41
0.0
 71
     5
 72
     1
  1
\A1;{25 }
 11
0.0
 21
1.0
 31
0.0
  0
POINT
  5
839
100
AcDbEntity
  8
DEFPOINTS
  6
BYBLOCK
 62
     0
100
AcDbPoint
 10
35.832771
 20
152.725314
 30
0.0
  0
POINT
  5
83A
100
AcDbEntity
  8
DEFPOINTS
  6
BYBLOCK
 62
     0
100
AcDbPoint
 10
43.621736
 20
137.847553
 30
0.0
  0
POINT
  5
83B
100
AcDbEntity
  8
DEFPOINTS
  6
BYBLOCK
 62
     0
100
AcDbPoint
 10
25.773365
 20
137.847553
 30
0.0
  0
ENDBLK
  5
83C
100
AcDbEntity
  8
0
100
AcDbBlockEnd
  0
ENDSEC
  0
SECTION
  2
ENTITIES
  0
LINE
  5
259
100
AcDbEntity
  8
DISEGNO
100
AcDbLine
 10
128.841799
 20
219.385134
 30
0.0
 11
141.841799
 21
219.385134
 31
0.0
  0
LINE
  5
25A
100
AcDbEntity
  8
DISEGNO
100
AcDbLine
 10
128.841799
 20
219.385134
 30
0.0
 11
128.841799
 21
248.385134
 31
0.0
  0
LINE
  5
25B
100
AcDbEntity
  8
DISEGNO
100
AcDbLine
 10
127.841799
 20
249.385134
 30
0.0
 11
116.841799
 21
249.385134
 31
0.0
  0
LINE
  5
25C
100
AcDbEntity
  8
DISEGNO
100
AcDbLine
 10
115.841799
 20
248.385134
 30
0.0
 11
115.841799
 21
232.885134
 31
0.0
  0
LINE
  5
25D
100
AcDbEntity
  8
DISEGNO
100
AcDbLine
 10
116.341799
 20
232.385134
 30
0.0
 11
119.341799
 21
232.385134
 31
0.0
  0
LINE
  5
25E
100
AcDbEntity
  8
DISEGNO
100
AcDbLine
 10
119.341799
 20
232.385134
 30
0.0
 11
119.341799
 21
223.985134
 31
0.0
  0
LINE
  5
25F
100
AcDbEntity
  8
DISEGNO
100
AcDbLine
 10
119.341799
 20
223.985134
 30
0.0
 11
116.341799
 21
223.985134
 31
0.0
  0
LINE
  5
260
100
AcDbEntity
  8
DISEGNO
100
AcDbLine
 10
115.841799
 20
223.485134
 30
0.0
 11
115.841799
 21
203.385134
 31
0.0
  0
LINE
  5
261
100
AcDbEntity
  8
DISEGNO
100
AcDbLine
 10
119.841799
 20
199.385134
 30
0.0
 11
128.841799
 21
199.385134
 31
0.0
  0
LINE
  5
262
100
AcDbEntity
  8
DISEGNO
100
AcDbLine
 10
128.841799
 20
199.385134
 30
0.0
 11
128.841799
 21
129.949136
 31
0.0
  0
LINE
  5
263
100
AcDbEntity
  8
DISEGNO
100
AcDbLine
 10
142.841799
 20
218.385134
 30
0.0
 11
142.841799
 21
129.949136
 31
0.0
  0
LINE
  5
35B
100
AcDbEntity
  8
DISEGNO
100
AcDbLine
 10
116.841799
 20
249.385134
 30
0.0
 11
115.841799
 21
248.385134
 31
0.0
  0
LINE
  5
35C
100
AcDbEntity
  8
DISEGNO
100
AcDbLine
 10
127.841799
 20
249.385134
 30
0.0
 11
128.841799
 21
248.385134
 31
0.0
  0
LINE
  5
35E
100
AcDbEntity
  8
DISEGNO
100
AcDbLine
 10
115.841799
 20
203.385134
 30
0.0
 11
119.841799
 21
199.385134
 31
0.0
  0
LINE
  5
35F
100
AcDbEntity
  8
DISEGNO
100
AcDbLine
 10
115.841799
 20
232.885134
 30
0.0
 11
116.341799
 21
232.385134
 31
0.0
  0
LINE
  5
360
100
AcDbEntity
  8
DISEGNO
100
AcDbLine
 10
115.841799
 20
223.485134
 30
0.0
 11
116.341799
 21
223.985134
 31
0.0
  0
LINE
  5
53A
100
AcDbEntity
  8
DISEGNO
100
AcDbLine
 10
141.841799
 20
219.385134
 30
0.0
 11
142.841799
 21
218.385134
 31
0.0
  0
ARC
  5
5DA
100
AcDbEntity
  8
DISEGNO
100
AcDbCircle
 10
135.841799
 20
103.185134
 30
0.0
 40
0.8
100
AcDbArc
 50
193.0
 51
347.0
  0
LINE
  5
5DB
100
AcDbEntity
  8
DISEGNO
100
AcDbLine
 10
136.621295
 20
103.005173
 30
0.0
 11
142.841799
 21
129.949136
 31
0.0
  0
LINE
  5
5DC
100
AcDbEntity
  8
DISEGNO
100
AcDbLine
 10
135.062303
 20
103.005173
 30
0.0
 11
128.841799
 21
129.949136
 31
0.0
  0
ENDSEC
  0
SECTION
  2
OBJECTS
  0
DICTIONARY
  5
C
100
AcDbDictionary
  3
ACAD_GROUP
350
D
  3
ACAD_MLINESTYLE
350
E
  0
DICTIONARY
  5
D
102
{ACAD_REACTORS
330
C
102
}
100
AcDbDictionary
  0
DICTIONARY
  5
E
102
{ACAD_REACTORS
330
C
102
}
100
AcDbDictionary
  3
STANDARD
350
1C
  0
MLINESTYLE
  5
1C
102
{ACAD_REACTORS
330
E
102
}
100
AcDbMlineStyle
  2
STANDARD
 70
     0
  3

 62
     0
 51
90.0
 52
90.0
 71
     2
 49
0.5
 62
   256
  6
BYLAYER
 49
-0.5
 62
   256
  6
BYLAYER
  0
ENDSEC
  0
EOF
