  0
SECTION
  2
HEADER
  9
$ACADVER
  1
AC1012
  9
$DWGCODEPAGE
  3
iso8859-1
  9
$INSBASE
 10
0.0
 20
0.0
 30
0.0
  9
$EXTMIN
 10
7.0
 20
5.0
 30
0.0
  9
$EXTMAX
 10
202.0
 20
288.0
 30
0.0
  9
$LIMMIN
 10
0.0
 20
0.0
  9
$LIMMAX
 10
210.0
 20
297.0
  9
$ORTHOMODE
 70
     0
  9
$REGENMODE
 70
     1
  9
$FILLMODE
 70
     1
  9
$QTEXTMODE
 70
     0
  9
$MIRRTEXT
 70
     1
  9
$DRAGMODE
 70
     2
  9
$LTSCALE
 40
1.0
  9
$OSMODE
 70
     0
  9
$ATTMODE
 70
     1
  9
$TEXTSIZE
 40
4.0
  9
$TRACEWID
 40
0.05
  9
$TEXTSTYLE
  7
STYLE3
  9
$CLAYER
  8
TEMPRA
  9
$CELTYPE
  6
BYLAYER
  9
$CECOLOR
 62
   256
  9
$CELTSCALE
 40
1.0
  9
$DELOBJ
 70
     1
  9
$DISPSILH
 70
     0
  9
$DIMSCALE
 40
1.0
  9
$DIMASZ
 40
2.5
  9
$DIMEXO
 40
0.625
  9
$DIMDLI
 40
3.75
  9
$DIMRND
 40
0.0
  9
$DIMDLE
 40
0.0
  9
$DIMEXE
 40
1.25
  9
$DIMTP
 40
0.0
  9
$DIMTM
 40
0.0
  9
$DIMTXT
 40
3.0
  9
$DIMCEN
 40
2.5
  9
$DIMTSZ
 40
0.0
  9
$DIMTOL
 70
     0
  9
$DIMLIM
 70
     0
  9
$DIMTIH
 70
     0
  9
$DIMTOH
 70
     0
  9
$DIMSE1
 70
     0
  9
$DIMSE2
 70
     0
  9
$DIMTAD
 70
     1
  9
$DIMZIN
 70
     8
  9
$DIMBLK
  1

  9
$DIMASO
 70
     1
  9
$DIMSHO
 70
     1
  9
$DIMPOST
  1

  9
$DIMAPOST
  1

  9
$DIMALT
 70
     0
  9
$DIMALTD
 70
     2
  9
$DIMALTF
 40
0.03937
  9
$DIMLFAC
 40
1.0
  9
$DIMTOFL
 70
     0
  9
$DIMTVP
 40
0.0
  9
$DIMTIX
 70
     0
  9
$DIMSOXD
 70
     0
  9
$DIMSAH
 70
     0
  9
$DIMBLK1
  1

  9
$DIMBLK2
  1

  9
$DIMSTYLE
  2
STANDARD
  9
$DIMCLRD
 70
     0
  9
$DIMCLRE
 70
     0
  9
$DIMCLRT
 70
     0
  9
$DIMTFAC
 40
1.0
  9
$DIMGAP
 40
0.625
  9
$DIMJUST
 70
     0
  9
$DIMSD1
 70
     0
  9
$DIMSD2
 70
     0
  9
$DIMTOLJ
 70
     1
  9
$DIMTZIN
 70
     8
  9
$DIMALTZ
 70
     0
  9
$DIMALTTZ
 70
     0
  9
$DIMFIT
 70
     3
  9
$DIMUPT
 70
     0
  9
$DIMUNIT
 70
     2
  9
$DIMDEC
 70
     2
  9
$DIMTDEC
 70
     2
  9
$DIMALTU
 70
     2
  9
$DIMALTTD
 70
     2
  9
$DIMTXSTY
  7
STANDARD
  9
$DIMAUNIT
 70
     0
  9
$LUNITS
 70
     2
  9
$LUPREC
 70
     4
  9
$SKETCHINC
 40
0.1
  9
$FILLETRAD
 40
20.0
  9
$AUNITS
 70
     0
  9
$AUPREC
 70
     0
  9
$MENU
  1
acad
  9
$ELEVATION
 40
0.0
  9
$PELEVATION
 40
0.0
  9
$THICKNESS
 40
0.0
  9
$LIMCHECK
 70
     0
  9
$BLIPMODE
 70
     1
  9
$CHAMFERA
 40
0.0
  9
$CHAMFERB
 40
0.0
  9
$CHAMFERC
 40
20.0
  9
$CHAMFERD
 40
0.0
  9
$SKPOLY
 70
     0
  9
$TDCREATE
 40
2451675.687132523
  9
$TDUPDATE
 40
2452630.455657176
  9
$TDINDWG
 40
0.0313724537
  9
$TDUSRTIMER
 40
0.0313724537
  9
$USRTIMER
 70
     1
  9
$ANGBASE
 50
0.0
  9
$ANGDIR
 70
     0
  9
$PDMODE
 70
     0
  9
$PDSIZE
 40
0.0
  9
$PLINEWID
 40
0.0
  9
$COORDS
 70
     1
  9
$SPLFRAME
 70
     0
  9
$SPLINETYPE
 70
     6
  9
$SPLINESEGS
 70
     8
  9
$ATTDIA
 70
     0
  9
$ATTREQ
 70
     1
  9
$HANDLING
 70
     1
  9
$HANDSEED
  5
601
  9
$SURFTAB1
 70
     6
  9
$SURFTAB2
 70
     6
  9
$SURFTYPE
 70
     6
  9
$SURFU
 70
     6
  9
$SURFV
 70
     6
  9
$UCSNAME
  2

  9
$UCSORG
 10
0.0
 20
0.0
 30
0.0
  9
$UCSXDIR
 10
1.0
 20
0.0
 30
0.0
  9
$UCSYDIR
 10
0.0
 20
1.0
 30
0.0
  9
$PUCSNAME
  2

  9
$PUCSORG
 10
0.0
 20
0.0
 30
0.0
  9
$PUCSXDIR
 10
1.0
 20
0.0
 30
0.0
  9
$PUCSYDIR
 10
0.0
 20
1.0
 30
0.0
  9
$USERI1
 70
     0
  9
$USERI2
 70
     0
  9
$USERI3
 70
     0
  9
$USERI4
 70
     0
  9
$USERI5
 70
     0
  9
$USERR1
 40
0.0
  9
$USERR2
 40
0.0
  9
$USERR3
 40
0.0
  9
$USERR4
 40
0.0
  9
$USERR5
 40
0.0
  9
$WORLDVIEW
 70
     1
  9
$SHADEDGE
 70
     3
  9
$SHADEDIF
 70
    70
  9
$TILEMODE
 70
     1
  9
$MAXACTVP
 70
    16
  9
$PINSBASE
 10
0.0
 20
0.0
 30
0.0
  9
$PLIMCHECK
 70
     0
  9
$PEXTMIN
 10
1.000000E+20
 20
1.000000E+20
 30
1.000000E+20
  9
$PEXTMAX
 10
-1.000000E+20
 20
-1.000000E+20
 30
-1.000000E+20
  9
$PLIMMIN
 10
0.0
 20
0.0
  9
$PLIMMAX
 10
12.0
 20
9.0
  9
$UNITMODE
 70
     0
  9
$VISRETAIN
 70
     0
  9
$PLINEGEN
 70
     0
  9
$PSLTSCALE
 70
     1
  9
$TREEDEPTH
 70
  3020
  9
$PICKSTYLE
 70
     1
  9
$CMLSTYLE
  2
STANDARD
  9
$CMLJUST
 70
     0
  9
$CMLSCALE
 40
20.0
  9
$SAVEIMAGES
 70
     0
  0
ENDSEC
  0
SECTION
  2
CLASSES
  0
ENDSEC
  0
SECTION
  2
TABLES
  0
TABLE
  2
VPORT
  5
8
100
AcDbSymbolTable
 70
     3
  0
VPORT
  5
600
100
AcDbSymbolTableRecord
100
AcDbViewportTableRecord
  2
*ACTIVE
 70
     0
 10
0.0
 20
0.0
 11
1.0
 21
1.0
 12
89.087301
 22
149.252774
 13
0.0
 23
0.0
 14
10.0
 24
10.0
 15
10.0
 25
10.0
 16
0.0
 26
0.0
 36
1.0
 17
0.0
 27
0.0
 37
0.0
 40
266.340643
 41
1.873134
 42
50.0
 43
0.0
 44
0.0
 50
0.0
 51
0.0
 71
     0
 72
   100
 73
     1
 74
     0
 75
     0
 76
     0
 77
     0
 78
     0
  0
ENDTAB
  0
TABLE
  2
LTYPE
  5
5
100
AcDbSymbolTable
 70
     4
  0
LTYPE
  5
13
100
AcDbSymbolTableRecord
100
AcDbLinetypeTableRecord
  2
BYBLOCK
 70
     0
  3

 72
    65
 73
     0
 40
0.0
  0
LTYPE
  5
14
100
AcDbSymbolTableRecord
100
AcDbLinetypeTableRecord
  2
BYLAYER
 70
     0
  3

 72
    65
 73
     0
 40
0.0
  0
LTYPE
  5
15
100
AcDbSymbolTableRecord
100
AcDbLinetypeTableRecord
  2
CONTINUOUS
 70
    64
  3
Solid line
 72
    65
 73
     0
 40
0.0
  0
LTYPE
  5
94
100
AcDbSymbolTableRecord
100
AcDbLinetypeTableRecord
  2
ACAD_ISO04W100
 70
    64
  3
____ . ____ . ____ . ____ . ____ . ____ . ____ 
 72
    65
 73
     4
 40
30.5
 49
24.0
 74
     0
 49
-3.0
 74
     0
 49
0.5
 74
     0
 49
-3.0
 74
     0
  0
LTYPE
  5
225
100
AcDbSymbolTableRecord
100
AcDbLinetypeTableRecord
  2
TRATTEGGIATAX2
 70
    64
  3
____  ____  ____  ____  ____  ____  ____  ____ 
 72
    65
 73
     2
 40
1.5
 49
1.0
 74
     0
 49
-0.5
 74
     0
  0
LTYPE
  5
226
100
AcDbSymbolTableRecord
100
AcDbLinetypeTableRecord
  2
NASCOSTA
 70
    64
  3
__ __ __ __ __ __ __ __ __ __ __ __ __ __ __ __
 72
    65
 73
     2
 40
0.375
 49
0.25
 74
     0
 49
-0.125
 74
     0
  0
ENDTAB
  0
TABLE
  2
LAYER
  5
2
100
AcDbSymbolTable
 70
    10
  0
LAYER
  5
F
100
AcDbSymbolTableRecord
100
AcDbLayerTableRecord
  2
0
 70
     0
 62
     7
  6
CONTINUOUS
  0
LAYER
  5
95
100
AcDbSymbolTableRecord
100
AcDbLayerTableRecord
  2
DISEGNO
 70
    64
 62
     7
  6
CONTINUOUS
  0
LAYER
  5
96
100
AcDbSymbolTableRecord
100
AcDbLayerTableRecord
  2
ASSI
 70
    64
 62
     1
  6
ACAD_ISO04W100
  0
LAYER
  5
97
100
AcDbSymbolTableRecord
100
AcDbLayerTableRecord
  2
SEZIONE
 70
    64
 62
     3
  6
CONTINUOUS
  0
LAYER
  5
98
100
AcDbSymbolTableRecord
100
AcDbLayerTableRecord
  2
TEMPRA
 70
    64
 62
     2
  6
CONTINUOUS
  0
LAYER
  5
99
100
AcDbSymbolTableRecord
100
AcDbLayerTableRecord
  2
QUOTE
 70
    64
 62
     5
  6
CONTINUOUS
  0
LAYER
  5
9A
100
AcDbSymbolTableRecord
100
AcDbLayerTableRecord
  2
FOGLIO
 70
    64
 62
     8
  6
CONTINUOUS
  0
LAYER
  5
1A3
100
AcDbSymbolTableRecord
100
AcDbLayerTableRecord
  2
TRATTO
 70
    64
 62
     6
  6
NASCOSTA
  0
LAYER
  5
281
100
AcDbSymbolTableRecord
100
AcDbLayerTableRecord
  2
DEFPOINTS
 70
    64
 62
     7
  6
CONTINUOUS
  0
LAYER
  5
4F7
100
AcDbSymbolTableRecord
100
AcDbLayerTableRecord
  2
TESTO
 70
    64
 62
     6
  6
CONTINUOUS
  0
ENDTAB
  0
TABLE
  2
STYLE
  5
3
100
AcDbSymbolTable
 70
     2
  0
STYLE
  5
10
100
AcDbSymbolTableRecord
100
AcDbTextStyleTableRecord
  2
STANDARD
 70
    64
 40
0.0
 41
1.1
 50
0.0
 71
     0
 42
2.5
  3
C:\Programmi\AutoCAD LT\isocp.shx
  4

  0
STYLE
  5
B0
100
AcDbSymbolTableRecord
100
AcDbTextStyleTableRecord
  2
STYLE3
 70
    64
 40
0.0
 41
1.5
 50
0.0
 71
     0
 42
4.0
  3
C:\Programmi\AutoCAD LT\isocp.shx
  4

  0
ENDTAB
  0
TABLE
  2
VIEW
  5
6
100
AcDbSymbolTable
 70
     0
  0
ENDTAB
  0
TABLE
  2
UCS
  5
7
100
AcDbSymbolTable
 70
     0
  0
ENDTAB
  0
TABLE
  2
APPID
  5
9
100
AcDbSymbolTable
 70
     1
  0
APPID
  5
11
100
AcDbSymbolTableRecord
100
AcDbRegAppTableRecord
  2
ACAD
 70
     0
  0
ENDTAB
  0
TABLE
  2
DIMSTYLE
  5
A
100
AcDbSymbolTable
 70
    14
  0
DIMSTYLE
105
1D
100
AcDbSymbolTableRecord
100
AcDbDimStyleTableRecord
  2
STANDARD
 70
     0
  3

  4

  5

  6

  7

 40
1.0
 41
2.5
 42
0.625
 43
3.75
 44
1.25
 45
0.0
 46
0.0
 47
0.0
 48
0.0
140
3.0
141
2.5
142
0.0
143
0.03937
144
1.0
145
0.0
146
1.0
147
0.625
 71
     0
 72
     0
 73
     0
 74
     0
 75
     0
 76
     0
 77
     1
 78
     8
170
     0
171
     2
172
     0
173
     0
174
     0
175
     0
176
     0
177
     0
178
     0
270
     2
271
     2
272
     2
273
     2
274
     2
340
10
275
     0
280
     0
281
     0
282
     0
283
     1
284
     8
285
     0
286
     0
287
     3
288
     0
  0
DIMSTYLE
105
198
100
AcDbSymbolTableRecord
100
AcDbDimStyleTableRecord
  2
TOLL-06
 70
     0
  3

  4

  5

  6

  7

 40
1.0
 41
2.5
 42
0.625
 43
3.75
 44
1.25
 45
0.0
 46
0.0
 47
-0.05
 48
0.0
140
3.0
141
2.5
142
0.0
143
0.03937
144
1.0
145
0.0
146
0.8
147
0.625
 71
     1
 72
     0
 73
     0
 74
     0
 75
     0
 76
     0
 77
     1
 78
     8
170
     0
171
     2
172
     0
173
     0
174
     0
175
     0
176
     0
177
     0
178
     0
270
     2
271
     2
272
     2
273
     2
274
     2
340
10
275
     0
280
     0
281
     0
282
     0
283
     2
284
     8
285
     0
286
     0
287
     3
288
     0
  0
DIMSTYLE
105
20B
100
AcDbSymbolTableRecord
100
AcDbDimStyleTableRecord
  2
TOLL-01
 70
     0
  3

  4

  5

  6

  7

 40
1.0
 41
2.5
 42
0.625
 43
3.75
 44
1.25
 45
0.0
 46
0.0
 47
0.02
 48
0.0
140
3.0
141
2.5
142
0.0
143
0.03937
144
1.0
145
0.0
146
0.8
147
0.625
 71
     1
 72
     0
 73
     0
 74
     0
 75
     0
 76
     0
 77
     1
 78
     8
170
     0
171
     2
172
     0
173
     0
174
     0
175
     0
176
     0
177
     0
178
     0
270
     2
271
     2
272
     2
273
     2
274
     2
340
10
275
     0
280
     0
281
     0
282
     0
283
     2
284
     8
285
     0
286
     0
287
     3
288
     0
  0
DIMSTYLE
105
232
100
AcDbSymbolTableRecord
100
AcDbDimStyleTableRecord
  2
TOLL-02
 70
     0
  3

  4

  5

  6

  7

 40
1.0
 41
2.5
 42
0.625
 43
3.75
 44
1.25
 45
0.0
 46
0.0
 47
-0.02
 48
0.0
140
3.0
141
2.5
142
0.0
143
0.03937
144
1.0
145
0.0
146
0.8
147
0.625
 71
     1
 72
     0
 73
     0
 74
     0
 75
     0
 76
     0
 77
     1
 78
     8
170
     0
171
     2
172
     0
173
     0
174
     0
175
     0
176
     0
177
     0
178
     0
270
     2
271
     2
272
     2
273
     2
274
     2
340
10
275
     0
280
     0
281
     0
282
     0
283
     2
284
     8
285
     0
286
     0
287
     3
288
     0
  0
DIMSTYLE
105
233
100
AcDbSymbolTableRecord
100
AcDbDimStyleTableRecord
  2
TOLL-03
 70
     0
  3

  4

  5

  6

  7

 40
1.0
 41
2.5
 42
0.625
 43
3.75
 44
1.25
 45
0.0
 46
0.0
 47
0.01
 48
0.01
140
3.0
141
2.5
142
0.0
143
0.03937
144
1.0
145
0.0
146
0.8
147
0.625
 71
     1
 72
     0
 73
     0
 74
     0
 75
     0
 76
     0
 77
     1
 78
     8
170
     0
171
     2
172
     0
173
     0
174
     0
175
     0
176
     0
177
     0
178
     0
270
     2
271
     2
272
     2
273
     2
274
     2
340
10
275
     0
280
     0
281
     0
282
     0
283
     2
284
     8
285
     0
286
     0
287
     3
288
     0
  0
DIMSTYLE
105
234
100
AcDbSymbolTableRecord
100
AcDbDimStyleTableRecord
  2
TOLL-04
 70
     0
  3

  4

  5

  6

  7

 40
1.0
 41
2.5
 42
0.625
 43
3.75
 44
1.25
 45
0.0
 46
0.0
 47
0.05
 48
0.05
140
3.0
141
2.5
142
0.0
143
0.03937
144
1.0
145
0.0
146
0.8
147
0.625
 71
     1
 72
     0
 73
     0
 74
     0
 75
     0
 76
     0
 77
     1
 78
     8
170
     0
171
     2
172
     0
173
     0
174
     0
175
     0
176
     0
177
     0
178
     0
270
     2
271
     2
272
     2
273
     2
274
     2
340
10
275
     0
280
     0
281
     0
282
     0
283
     2
284
     8
285
     0
286
     0
287
     3
288
     0
  0
DIMSTYLE
105
235
100
AcDbSymbolTableRecord
100
AcDbDimStyleTableRecord
  2
TOLL-05
 70
     0
  3

  4

  5

  6

  7

 40
1.0
 41
2.5
 42
0.625
 43
3.75
 44
1.25
 45
0.0
 46
0.0
 47
0.05
 48
0.0
140
3.0
141
2.5
142
0.0
143
0.03937
144
1.0
145
0.0
146
0.8
147
0.625
 71
     1
 72
     0
 73
     0
 74
     0
 75
     0
 76
     0
 77
     1
 78
     8
170
     0
171
     2
172
     0
173
     0
174
     0
175
     0
176
     0
177
     0
178
     0
270
     2
271
     2
272
     2
273
     2
274
     2
340
10
275
     0
280
     0
281
     0
282
     0
283
     2
284
     8
285
     0
286
     0
287
     3
288
     0
  0
DIMSTYLE
105
247
100
AcDbSymbolTableRecord
100
AcDbDimStyleTableRecord
  2
TOLL-07
 70
     0
  3

  4

  5

  6

  7

 40
1.0
 41
2.5
 42
0.625
 43
3.75
 44
1.25
 45
0.0
 46
0.0
 47
0.1
 48
0.1
140
3.0
141
2.5
142
0.0
143
0.03937
144
1.0
145
0.0
146
1.0
147
0.625
 71
     1
 72
     0
 73
     0
 74
     0
 75
     0
 76
     0
 77
     1
 78
     8
170
     0
171
     2
172
     0
173
     0
174
     0
175
     0
176
     0
177
     0
178
     0
270
     2
271
     2
272
     2
273
     2
274
     2
340
10
275
     0
280
     0
281
     0
282
     0
283
     1
284
     8
285
     0
286
     0
287
     3
288
     0
  0
DIMSTYLE
105
251
100
AcDbSymbolTableRecord
100
AcDbDimStyleTableRecord
  2
TOLL-08
 70
     0
  3

  4

  5

  6

  7

 40
1.0
 41
2.5
 42
0.625
 43
3.75
 44
1.25
 45
0.0
 46
0.0
 47
0.1
 48
0.0
140
3.0
141
2.5
142
0.0
143
0.03937
144
1.0
145
0.0
146
1.0
147
0.625
 71
     1
 72
     0
 73
     0
 74
     0
 75
     0
 76
     0
 77
     1
 78
     8
170
     0
171
     2
172
     0
173
     0
174
     0
175
     0
176
     0
177
     0
178
     0
270
     2
271
     2
272
     2
273
     2
274
     2
340
10
275
     0
280
     0
281
     0
282
     0
283
     1
284
     8
285
     0
286
     0
287
     3
288
     0
  0
DIMSTYLE
105
257
100
AcDbSymbolTableRecord
100
AcDbDimStyleTableRecord
  2
TOLL-09
 70
     0
  3

  4

  5

  6

  7

 40
1.0
 41
2.5
 42
0.625
 43
3.75
 44
1.25
 45
0.0
 46
0.0
 47
-0.1
 48
0.0
140
3.0
141
2.5
142
0.0
143
0.03937
144
1.0
145
0.0
146
1.0
147
0.625
 71
     1
 72
     0
 73
     0
 74
     0
 75
     0
 76
     0
 77
     1
 78
     8
170
     0
171
     2
172
     0
173
     0
174
     0
175
     0
176
     0
177
     0
178
     0
270
     2
271
     2
272
     2
273
     2
274
     2
340
10
275
     0
280
     0
281
     0
282
     0
283
     1
284
     8
285
     0
286
     0
287
     3
288
     0
  0
DIMSTYLE
105
258
100
AcDbSymbolTableRecord
100
AcDbDimStyleTableRecord
  2
TOLL-10
 70
     0
  3

  4

  5

  6

  7

 40
1.0
 41
2.5
 42
0.625
 43
3.75
 44
1.25
 45
0.0
 46
0.0
 47
0.2
 48
0.2
140
3.0
141
2.5
142
0.0
143
0.03937
144
1.0
145
0.0
146
1.0
147
0.625
 71
     1
 72
     0
 73
     0
 74
     0
 75
     0
 76
     0
 77
     1
 78
     8
170
     0
171
     2
172
     0
173
     0
174
     0
175
     0
176
     0
177
     0
178
     0
270
     2
271
     2
272
     2
273
     2
274
     2
340
10
275
     0
280
     0
281
     0
282
     0
283
     1
284
     8
285
     0
286
     0
287
     3
288
     0
  0
DIMSTYLE
105
259
100
AcDbSymbolTableRecord
100
AcDbDimStyleTableRecord
  2
TOLL-11
 70
     0
  3

  4

  5

  6

  7

 40
1.0
 41
2.5
 42
0.625
 43
3.75
 44
1.25
 45
0.0
 46
0.0
 47
0.2
 48
0.0
140
3.0
141
2.5
142
0.0
143
0.03937
144
1.0
145
0.0
146
1.0
147
0.625
 71
     1
 72
     0
 73
     0
 74
     0
 75
     0
 76
     0
 77
     1
 78
     8
170
     0
171
     2
172
     0
173
     0
174
     0
175
     0
176
     0
177
     0
178
     0
270
     2
271
     2
272
     2
273
     2
274
     2
340
10
275
     0
280
     0
281
     0
282
     0
283
     1
284
     8
285
     0
286
     0
287
     3
288
     0
  0
DIMSTYLE
105
323
100
AcDbSymbolTableRecord
100
AcDbDimStyleTableRecord
  2
TOLL-13
 70
     0
  3

  4

  5

  6

  7

 40
1.0
 41
2.5
 42
0.625
 43
3.75
 44
1.25
 45
0.0
 46
0.0
 47
0.02
 48
0.02
140
3.0
141
2.5
142
0.0
143
0.03937
144
1.0
145
0.0
146
0.8
147
0.625
 71
     1
 72
     0
 73
     0
 74
     0
 75
     0
 76
     0
 77
     1
 78
     8
170
     0
171
     2
172
     0
173
     0
174
     0
175
     0
176
     0
177
     0
178
     0
270
     2
271
     2
272
     2
273
     2
274
     2
340
10
275
     0
280
     0
281
     0
282
     0
283
     2
284
     8
285
     0
286
     0
287
     3
288
     0
  0
DIMSTYLE
105
4F8
100
AcDbSymbolTableRecord
100
AcDbDimStyleTableRecord
  2
ISO-25
 70
     0
  3

  4

  5

  6

  7

 40
1.0
 41
2.5
 42
0.625
 43
3.75
 44
1.25
 45
0.0
 46
0.0
 47
0.0
 48
0.0
140
2.5
141
2.5
142
0.0
143
0.0394
144
1.0
145
1.0
146
1.0
147
0.625
 71
     0
 72
     0
 73
     1
 74
     0
 75
     0
 76
     0
 77
     1
 78
     8
170
     0
171
     2
172
     1
173
     0
174
     0
175
     0
176
     0
177
     0
178
     0
270
     2
271
     4
272
     4
273
     2
274
     2
340
10
275
     0
280
     0
281
     0
282
     0
283
     1
284
     0
285
     0
286
     0
287
     3
288
     0
  0
ENDTAB
  0
TABLE
  2
BLOCK_RECORD
  5
1
100
AcDbSymbolTable
 70
    21
  0
BLOCK_RECORD
  5
19
100
AcDbSymbolTableRecord
100
AcDbBlockTableRecord
  2
*MODEL_SPACE
  0
BLOCK_RECORD
  5
16
100
AcDbSymbolTableRecord
100
AcDbBlockTableRecord
  2
*PAPER_SPACE
  0
BLOCK_RECORD
  5
279
100
AcDbSymbolTableRecord
100
AcDbBlockTableRecord
  2
*D0
  0
BLOCK_RECORD
  5
287
100
AcDbSymbolTableRecord
100
AcDbBlockTableRecord
  2
*D1
  0
BLOCK_RECORD
  5
295
100
AcDbSymbolTableRecord
100
AcDbBlockTableRecord
  2
*D2
  0
BLOCK_RECORD
  5
2A2
100
AcDbSymbolTableRecord
100
AcDbBlockTableRecord
  2
*D3
  0
BLOCK_RECORD
  5
2BA
100
AcDbSymbolTableRecord
100
AcDbBlockTableRecord
  2
*D4
  0
BLOCK_RECORD
  5
2C7
100
AcDbSymbolTableRecord
100
AcDbBlockTableRecord
  2
*D5
  0
BLOCK_RECORD
  5
2D4
100
AcDbSymbolTableRecord
100
AcDbBlockTableRecord
  2
*D6
  0
BLOCK_RECORD
  5
363
100
AcDbSymbolTableRecord
100
AcDbBlockTableRecord
  2
*D7
  0
BLOCK_RECORD
  5
37F
100
AcDbSymbolTableRecord
100
AcDbBlockTableRecord
  2
*D8
  0
BLOCK_RECORD
  5
410
100
AcDbSymbolTableRecord
100
AcDbBlockTableRecord
  2
*D9
  0
BLOCK_RECORD
  5
419
100
AcDbSymbolTableRecord
100
AcDbBlockTableRecord
  2
*D10
  0
BLOCK_RECORD
  5
4D2
100
AcDbSymbolTableRecord
100
AcDbBlockTableRecord
  2
RUGOSITA
  0
BLOCK_RECORD
  5
4F9
100
AcDbSymbolTableRecord
100
AcDbBlockTableRecord
  2
A$C72B2
  0
BLOCK_RECORD
  5
516
100
AcDbSymbolTableRecord
100
AcDbBlockTableRecord
  2
*D13
  0
BLOCK_RECORD
  5
523
100
AcDbSymbolTableRecord
100
AcDbBlockTableRecord
  2
*D14
  0
BLOCK_RECORD
  5
53E
100
AcDbSymbolTableRecord
100
AcDbBlockTableRecord
  2
A$C7000
  0
BLOCK_RECORD
  5
54D
100
AcDbSymbolTableRecord
100
AcDbBlockTableRecord
  2
*D16
  0
BLOCK_RECORD
  5
569
100
AcDbSymbolTableRecord
100
AcDbBlockTableRecord
  2
*D17
  0
BLOCK_RECORD
  5
574
100
AcDbSymbolTableRecord
100
AcDbBlockTableRecord
  2
*D18
  0
BLOCK_RECORD
  5
582
100
AcDbSymbolTableRecord
100
AcDbBlockTableRecord
  2
*D19
  0
BLOCK_RECORD
  5
5BF
100
AcDbSymbolTableRecord
100
AcDbBlockTableRecord
  2
*X20
  0
ENDTAB
  0
ENDSEC
  0
SECTION
  2
BLOCKS
  0
BLOCK
  5
1A
100
AcDbEntity
  8
0
100
AcDbBlockBegin
  2
*MODEL_SPACE
 70
     0
 10
0.0
 20
0.0
 30
0.0
  3
*MODEL_SPACE
  1

  0
ENDBLK
  5
1B
100
AcDbEntity
  8
0
100
AcDbBlockEnd
  0
BLOCK
  5
17
100
AcDbEntity
 67
     1
  8
0
100
AcDbBlockBegin
  2
*PAPER_SPACE
 70
     0
 10
0.0
 20
0.0
 30
0.0
  3
*PAPER_SPACE
  1

  0
ENDBLK
  5
18
100
AcDbEntity
 67
     1
  8
0
100
AcDbBlockEnd
  0
BLOCK
  5
3A5
100
AcDbEntity
  8
0
100
AcDbBlockBegin
  2
*D0
 70
    65
 10
0.0
 20
0.0
 30
0.0
  3
*D0
  1

  0
LINE
  5
3A6
100
AcDbEntity
  8
0
  6
BYBLOCK
 62
     0
100
AcDbLine
 10
90.730346
 20
226.149397
 30
0.0
 11
90.730346
 21
244.910958
 31
0.0
  0
LINE
  5
3A7
100
AcDbEntity
  8
0
  6
BYBLOCK
 62
     0
100
AcDbLine
 10
103.730346
 20
226.149397
 30
0.0
 11
103.730346
 21
244.910958
 31
0.0
  0
LINE
  5
3A8
100
AcDbEntity
  8
0
  6
BYBLOCK
 62
     0
100
AcDbLine
 10
101.230346
 20
243.660958
 30
0.0
 11
93.230346
 21
243.660958
 31
0.0
  0
LINE
  5
3A9
100
AcDbEntity
  8
0
  6
BYBLOCK
 62
     0
100
AcDbLine
 10
90.730346
 20
243.660958
 30
0.0
 11
70.232136
 21
243.660958
 31
0.0
  0
SOLID
  5
3AA
100
AcDbEntity
  8
0
  6
BYBLOCK
 62
     0
100
AcDbTrace
 10
101.230346
 20
244.077625
 30
0.0
 11
101.230346
 21
243.244291
 31
0.0
 12
103.730346
 22
243.660958
 32
0.0
 13
103.730346
 23
243.660958
 33
0.0
  0
SOLID
  5
3AB
100
AcDbEntity
  8
0
  6
BYBLOCK
 62
     0
100
AcDbTrace
 10
93.230346
 20
244.077625
 30
0.0
 11
93.230346
 21
243.244291
 31
0.0
 12
90.730346
 22
243.660958
 32
0.0
 13
90.730346
 23
243.660958
 33
0.0
  0
MTEXT
  5
3AC
100
AcDbEntity
  8
0
  6
BYBLOCK
 62
     0
100
AcDbMText
 10
76.929136
 20
247.026667
 30
0.0
 40
3.0
 41
0.0
 71
     5
 72
     1
  1
\A2;13{\H2.400000;\S+0.02^  0;}
  0
POINT
  5
3AD
100
AcDbEntity
  8
DEFPOINTS
  6
BYBLOCK
 62
     0
100
AcDbPoint
 10
90.730346
 20
225.524397
 30
0.0
  0
POINT
  5
3AE
100
AcDbEntity
  8
DEFPOINTS
  6
BYBLOCK
 62
     0
100
AcDbPoint
 10
103.730346
 20
225.524397
 30
0.0
  0
POINT
  5
3AF
100
AcDbEntity
  8
DEFPOINTS
  6
BYBLOCK
 62
     0
100
AcDbPoint
 10
103.730346
 20
243.660958
 30
0.0
  0
ENDBLK
  5
3B0
100
AcDbEntity
  8
0
100
AcDbBlockEnd
  0
BLOCK
  5
3BD
100
AcDbEntity
  8
0
100
AcDbBlockBegin
  2
*D1
 70
    65
 10
0.0
 20
0.0
 30
0.0
  3
*D1
  1

  0
LINE
  5
3BE
100
AcDbEntity
  8
0
  6
BYBLOCK
 62
     0
100
AcDbLine
 10
103.730346
 20
226.149397
 30
0.0
 11
103.730346
 21
244.910958
 31
0.0
  0
LINE
  5
3BF
100
AcDbEntity
  8
0
  6
BYBLOCK
 62
     0
100
AcDbLine
 10
110.730346
 20
239.550787
 30
0.0
 11
110.730346
 21
244.910958
 31
0.0
  0
LINE
  5
3C0
100
AcDbEntity
  8
0
  6
BYBLOCK
 62
     0
100
AcDbLine
 10
106.230346
 20
243.660958
 30
0.0
 11
108.230346
 21
243.660958
 31
0.0
  0
LINE
  5
3C1
100
AcDbEntity
  8
0
  6
BYBLOCK
 62
     0
100
AcDbLine
 10
110.730346
 20
243.660958
 30
0.0
 11
131.506703
 21
243.660958
 31
0.0
  0
SOLID
  5
3C2
100
AcDbEntity
  8
0
  6
BYBLOCK
 62
     0
100
AcDbTrace
 10
106.230346
 20
244.077625
 30
0.0
 11
106.230346
 21
243.244291
 31
0.0
 12
103.730346
 22
243.660958
 32
0.0
 13
103.730346
 23
243.660958
 33
0.0
  0
SOLID
  5
3C3
100
AcDbEntity
  8
0
  6
BYBLOCK
 62
     0
100
AcDbTrace
 10
108.230346
 20
244.077625
 30
0.0
 11
108.230346
 21
243.244291
 31
0.0
 12
110.730346
 22
243.660958
 32
0.0
 13
110.730346
 23
243.660958
 33
0.0
  0
MTEXT
  5
3C4
100
AcDbEntity
  8
0
  6
BYBLOCK
 62
     0
100
AcDbMText
 10
126.294703
 20
245.785958
 30
0.0
 40
3.0
 41
0.0
 71
     5
 72
     1
  1
\A2;7{\H2.400000;±0.01}
  0
POINT
  5
3C5
100
AcDbEntity
  8
DEFPOINTS
  6
BYBLOCK
 62
     0
100
AcDbPoint
 10
103.730346
 20
225.524397
 30
0.0
  0
POINT
  5
3C6
100
AcDbEntity
  8
DEFPOINTS
  6
BYBLOCK
 62
     0
100
AcDbPoint
 10
110.730346
 20
238.925787
 30
0.0
  0
POINT
  5
3C7
100
AcDbEntity
  8
DEFPOINTS
  6
BYBLOCK
 62
     0
100
AcDbPoint
 10
110.730346
 20
243.660958
 30
0.0
  0
ENDBLK
  5
3C8
100
AcDbEntity
  8
0
100
AcDbBlockEnd
  0
BLOCK
  5
3FD
100
AcDbEntity
  8
0
100
AcDbBlockBegin
  2
*D2
 70
    65
 10
0.0
 20
0.0
 30
0.0
  3
*D2
  1

  0
LINE
  5
3FE
100
AcDbEntity
  8
0
  6
BYBLOCK
 62
     0
100
AcDbLine
 10
90.730346
 20
226.149397
 30
0.0
 11
90.730346
 21
253.61876
 31
0.0
  0
LINE
  5
3FF
100
AcDbEntity
  8
0
  6
BYBLOCK
 62
     0
100
AcDbLine
 10
61.730346
 20
184.149397
 30
0.0
 11
61.730346
 21
253.61876
 31
0.0
  0
LINE
  5
400
100
AcDbEntity
  8
0
  6
BYBLOCK
 62
     0
100
AcDbLine
 10
88.230346
 20
252.36876
 30
0.0
 11
64.230346
 21
252.36876
 31
0.0
  0
SOLID
  5
401
100
AcDbEntity
  8
0
  6
BYBLOCK
 62
     0
100
AcDbTrace
 10
88.230346
 20
252.785427
 30
0.0
 11
88.230346
 21
251.952093
 31
0.0
 12
90.730346
 22
252.36876
 32
0.0
 13
90.730346
 23
252.36876
 33
0.0
  0
SOLID
  5
402
100
AcDbEntity
  8
0
  6
BYBLOCK
 62
     0
100
AcDbTrace
 10
64.230346
 20
252.785427
 30
0.0
 11
64.230346
 21
251.952093
 31
0.0
 12
61.730346
 22
252.36876
 32
0.0
 13
61.730346
 23
252.36876
 33
0.0
  0
MTEXT
  5
403
100
AcDbEntity
  8
0
  6
BYBLOCK
 62
     0
100
AcDbMText
 10
76.230346
 20
254.49376
 30
0.0
 40
3.0
 41
0.0
 71
     5
 72
     1
  1
\A2;29{\H2.400000;±0.02}
  0
POINT
  5
404
100
AcDbEntity
  8
DEFPOINTS
  6
BYBLOCK
 62
     0
100
AcDbPoint
 10
90.730346
 20
225.524397
 30
0.0
  0
POINT
  5
405
100
AcDbEntity
  8
DEFPOINTS
  6
BYBLOCK
 62
     0
100
AcDbPoint
 10
61.730346
 20
183.524397
 30
0.0
  0
POINT
  5
406
100
AcDbEntity
  8
DEFPOINTS
  6
BYBLOCK
 62
     0
100
AcDbPoint
 10
61.730346
 20
252.36876
 30
0.0
  0
ENDBLK
  5
407
100
AcDbEntity
  8
0
100
AcDbBlockEnd
  0
BLOCK
  5
3F2
100
AcDbEntity
  8
0
100
AcDbBlockBegin
  2
*D3
 70
    65
 10
0.0
 20
0.0
 30
0.0
  3
*D3
  1

  0
LINE
  5
3F3
100
AcDbEntity
  8
0
  6
BYBLOCK
 62
     0
100
AcDbLine
 10
61.730346
 20
184.149397
 30
0.0
 11
61.730346
 21
262.209827
 31
0.0
  0
LINE
  5
3F4
100
AcDbEntity
  8
0
  6
BYBLOCK
 62
     0
100
AcDbLine
 10
117.730346
 20
196.149397
 30
0.0
 11
117.730346
 21
262.209827
 31
0.0
  0
LINE
  5
3F5
100
AcDbEntity
  8
0
  6
BYBLOCK
 62
     0
100
AcDbLine
 10
64.230346
 20
260.959827
 30
0.0
 11
115.230346
 21
260.959827
 31
0.0
  0
SOLID
  5
3F6
100
AcDbEntity
  8
0
  6
BYBLOCK
 62
     0
100
AcDbTrace
 10
64.230346
 20
261.376493
 30
0.0
 11
64.230346
 21
260.54316
 31
0.0
 12
61.730346
 22
260.959827
 32
0.0
 13
61.730346
 23
260.959827
 33
0.0
  0
SOLID
  5
3F7
100
AcDbEntity
  8
0
  6
BYBLOCK
 62
     0
100
AcDbTrace
 10
115.230346
 20
261.376493
 30
0.0
 11
115.230346
 21
260.54316
 31
0.0
 12
117.730346
 22
260.959827
 32
0.0
 13
117.730346
 23
260.959827
 33
0.0
  0
MTEXT
  5
3F8
100
AcDbEntity
  8
0
  6
BYBLOCK
 62
     0
100
AcDbMText
 10
89.730346
 20
263.084827
 30
0.0
 40
3.0
 41
0.0
 71
     5
 72
     1
  1
\A2;56{\H2.400000;±0.05}
  0
POINT
  5
3F9
100
AcDbEntity
  8
DEFPOINTS
  6
BYBLOCK
 62
     0
100
AcDbPoint
 10
61.730346
 20
183.524397
 30
0.0
  0
POINT
  5
3FA
100
AcDbEntity
  8
DEFPOINTS
  6
BYBLOCK
 62
     0
100
AcDbPoint
 10
117.730346
 20
195.524397
 30
0.0
  0
POINT
  5
3FB
100
AcDbEntity
  8
DEFPOINTS
  6
BYBLOCK
 62
     0
100
AcDbPoint
 10
117.730346
 20
260.959827
 30
0.0
  0
ENDBLK
  5
3FC
100
AcDbEntity
  8
0
100
AcDbBlockEnd
  0
BLOCK
  5
2E1
100
AcDbEntity
  8
0
100
AcDbBlockBegin
  2
*D4
 70
    65
 10
0.0
 20
0.0
 30
0.0
  3
*D4
  1

  0
LINE
  5
2E2
100
AcDbEntity
  8
0
  6
BYBLOCK
 62
     0
100
AcDbLine
 10
104.355346
 20
225.524397
 30
0.0
 11
148.694064
 21
225.524397
 31
0.0
  0
LINE
  5
2E3
100
AcDbEntity
  8
0
  6
BYBLOCK
 62
     0
100
AcDbLine
 10
118.355346
 20
195.524397
 30
0.0
 11
148.694064
 21
195.524397
 31
0.0
  0
LINE
  5
2E4
100
AcDbEntity
  8
0
  6
BYBLOCK
 62
     0
100
AcDbLine
 10
147.444064
 20
223.024397
 30
0.0
 11
147.444064
 21
198.024397
 31
0.0
  0
SOLID
  5
2E5
100
AcDbEntity
  8
0
  6
BYBLOCK
 62
     0
100
AcDbTrace
 10
147.027397
 20
223.024397
 30
0.0
 11
147.86073
 21
223.024397
 31
0.0
 12
147.444064
 22
225.524397
 32
0.0
 13
147.444064
 23
225.524397
 33
0.0
  0
SOLID
  5
2E6
100
AcDbEntity
  8
0
  6
BYBLOCK
 62
     0
100
AcDbTrace
 10
147.027397
 20
198.024397
 30
0.0
 11
147.86073
 21
198.024397
 31
0.0
 12
147.444064
 22
195.524397
 32
0.0
 13
147.444064
 23
195.524397
 33
0.0
  0
MTEXT
  5
2E7
100
AcDbEntity
  8
0
  6
BYBLOCK
 62
     0
100
AcDbMText
 10
145.319064
 20
210.524397
 30
0.0
 40
3.0
 41
0.0
 71
     5
 72
     1
  1
\A1;30
 11
0.0
 21
1.0
 31
0.0
  0
POINT
  5
2E8
100
AcDbEntity
  8
DEFPOINTS
  6
BYBLOCK
 62
     0
100
AcDbPoint
 10
103.730346
 20
225.524397
 30
0.0
  0
POINT
  5
2E9
100
AcDbEntity
  8
DEFPOINTS
  6
BYBLOCK
 62
     0
100
AcDbPoint
 10
117.730346
 20
195.524397
 30
0.0
  0
POINT
  5
2EA
100
AcDbEntity
  8
DEFPOINTS
  6
BYBLOCK
 62
     0
100
AcDbPoint
 10
147.444064
 20
195.524397
 30
0.0
  0
ENDBLK
  5
2EB
100
AcDbEntity
  8
0
100
AcDbBlockEnd
  0
BLOCK
  5
2C8
100
AcDbEntity
  8
0
100
AcDbBlockBegin
  2
*D5
 70
    65
 10
0.0
 20
0.0
 30
0.0
  3
*D5
  1

  0
LINE
  5
2C9
100
AcDbEntity
  8
0
  6
BYBLOCK
 62
     0
100
AcDbLine
 10
104.355346
 20
225.524397
 30
0.0
 11
167.091905
 21
225.524397
 31
0.0
  0
LINE
  5
2CA
100
AcDbEntity
  8
0
  6
BYBLOCK
 62
     0
100
AcDbLine
 10
111.355346
 20
105.874397
 30
0.0
 11
167.091905
 21
105.874397
 31
0.0
  0
LINE
  5
2CB
100
AcDbEntity
  8
0
  6
BYBLOCK
 62
     0
100
AcDbLine
 10
165.841905
 20
223.024397
 30
0.0
 11
165.841905
 21
108.374397
 31
0.0
  0
SOLID
  5
2CC
100
AcDbEntity
  8
0
  6
BYBLOCK
 62
     0
100
AcDbTrace
 10
165.425238
 20
223.024397
 30
0.0
 11
166.258572
 21
223.024397
 31
0.0
 12
165.841905
 22
225.524397
 32
0.0
 13
165.841905
 23
225.524397
 33
0.0
  0
SOLID
  5
2CD
100
AcDbEntity
  8
0
  6
BYBLOCK
 62
     0
100
AcDbTrace
 10
165.425238
 20
108.374397
 30
0.0
 11
166.258572
 21
108.374397
 31
0.0
 12
165.841905
 22
105.874397
 32
0.0
 13
165.841905
 23
105.874397
 33
0.0
  0
MTEXT
  5
2CE
100
AcDbEntity
  8
0
  6
BYBLOCK
 62
     0
100
AcDbMText
 10
163.716905
 20
165.699397
 30
0.0
 40
3.0
 41
0.0
 71
     5
 72
     1
  1
\A1;119.65
 11
0.0
 21
1.0
 31
0.0
  0
POINT
  5
2CF
100
AcDbEntity
  8
DEFPOINTS
  6
BYBLOCK
 62
     0
100
AcDbPoint
 10
103.730346
 20
225.524397
 30
0.0
  0
POINT
  5
2D0
100
AcDbEntity
  8
DEFPOINTS
  6
BYBLOCK
 62
     0
100
AcDbPoint
 10
110.730346
 20
105.874397
 30
0.0
  0
POINT
  5
2D1
100
AcDbEntity
  8
DEFPOINTS
  6
BYBLOCK
 62
     0
100
AcDbPoint
 10
165.841905
 20
105.874397
 30
0.0
  0
ENDBLK
  5
2D2
100
AcDbEntity
  8
0
100
AcDbBlockEnd
  0
BLOCK
  5
302
100
AcDbEntity
  8
0
100
AcDbBlockBegin
  2
*D6
 70
    65
 10
0.0
 20
0.0
 30
0.0
  3
*D6
  1

  0
LINE
  5
303
100
AcDbEntity
  8
0
  6
BYBLOCK
 62
     0
100
AcDbLine
 10
118.355346
 20
195.524397
 30
0.0
 11
148.694064
 21
195.524397
 31
0.0
  0
LINE
  5
304
100
AcDbEntity
  8
0
  6
BYBLOCK
 62
     0
100
AcDbLine
 10
111.355346
 20
105.874397
 30
0.0
 11
148.694064
 21
105.874397
 31
0.0
  0
LINE
  5
305
100
AcDbEntity
  8
0
  6
BYBLOCK
 62
     0
100
AcDbLine
 10
147.444064
 20
193.024397
 30
0.0
 11
147.444064
 21
108.374397
 31
0.0
  0
SOLID
  5
306
100
AcDbEntity
  8
0
  6
BYBLOCK
 62
     0
100
AcDbTrace
 10
147.027397
 20
193.024397
 30
0.0
 11
147.86073
 21
193.024397
 31
0.0
 12
147.444064
 22
195.524397
 32
0.0
 13
147.444064
 23
195.524397
 33
0.0
  0
SOLID
  5
307
100
AcDbEntity
  8
0
  6
BYBLOCK
 62
     0
100
AcDbTrace
 10
147.027397
 20
108.374397
 30
0.0
 11
147.86073
 21
108.374397
 31
0.0
 12
147.444064
 22
105.874397
 32
0.0
 13
147.444064
 23
105.874397
 33
0.0
  0
MTEXT
  5
308
100
AcDbEntity
  8
0
  6
BYBLOCK
 62
     0
100
AcDbMText
 10
144.078355
 20
150.699397
 30
0.0
 40
3.0
 41
0.0
 71
     5
 72
     1
  1
\A2;89.65{\H2.400000;\S+0.02^  0;}
 11
0.0
 21
1.0
 31
0.0
  0
POINT
  5
309
100
AcDbEntity
  8
DEFPOINTS
  6
BYBLOCK
 62
     0
100
AcDbPoint
 10
117.730346
 20
195.524397
 30
0.0
  0
POINT
  5
30A
100
AcDbEntity
  8
DEFPOINTS
  6
BYBLOCK
 62
     0
100
AcDbPoint
 10
110.730346
 20
105.874397
 30
0.0
  0
POINT
  5
30B
100
AcDbEntity
  8
DEFPOINTS
  6
BYBLOCK
 62
     0
100
AcDbPoint
 10
147.444064
 20
105.874397
 30
0.0
  0
ENDBLK
  5
30C
100
AcDbEntity
  8
0
100
AcDbBlockEnd
  0
BLOCK
  5
364
100
AcDbEntity
  8
0
100
AcDbBlockBegin
  2
*D7
 70
    65
 10
0.0
 20
0.0
 30
0.0
  3
*D7
  1

  0
LINE
  5
365
100
AcDbEntity
  8
0
  6
BYBLOCK
 62
     0
100
AcDbLine
 10
61.730346
 20
156.039346
 30
0.0
 11
61.730346
 21
134.676746
 31
0.0
  0
ARC
  5
366
100
AcDbEntity
  8
0
  6
BYBLOCK
 62
     0
100
AcDbCircle
 10
61.730346
 20
156.664346
 30
0.0
 40
20.737601
100
AcDbArc
 50
276.911423
 51
308.088577
  0
SOLID
  5
367
100
AcDbEntity
  8
0
  6
BYBLOCK
 62
     0
100
AcDbTrace
 10
64.250916
 20
135.661529
 30
0.0
 11
64.200685
 21
136.493347
 31
0.0
 12
61.730346
 22
135.926746
 32
0.0
 13
61.730346
 23
135.926746
 33
0.0
  0
SOLID
  5
368
100
AcDbEntity
  8
0
  6
BYBLOCK
 62
     0
100
AcDbTrace
 10
74.246603
 20
140.654503
 30
0.0
 11
74.799269
 21
140.0308
 31
0.0
 12
76.394044
 22
142.000648
 32
0.0
 13
76.394044
 23
142.000648
 33
0.0
  0
MTEXT
  5
369
100
AcDbEntity
  8
0
  6
BYBLOCK
 62
     0
100
AcDbMText
 10
68.85308
 20
139.468545
 30
0.0
 40
3.0
 41
0.0
 71
     5
 72
     1
  1
\A1;45°
 11
0.92388
 21
0.382683
 31
0.0
  0
POINT
  5
36A
100
AcDbEntity
  8
DEFPOINTS
  6
BYBLOCK
 62
     0
100
AcDbPoint
 10
67.097632
 20
136.633362
 30
0.0
  0
POINT
  5
36B
100
AcDbEntity
  8
DEFPOINTS
  6
BYBLOCK
 62
     0
100
AcDbPoint
 10
61.730346
 20
183.524397
 30
0.0
  0
POINT
  5
36C
100
AcDbEntity
  8
DEFPOINTS
  6
BYBLOCK
 62
     0
100
AcDbPoint
 10
104.719939
 20
113.674754
 30
0.0
  0
POINT
  5
36D
100
AcDbEntity
  8
DEFPOINTS
  6
BYBLOCK
 62
     0
100
AcDbPoint
 10
61.730346
 20
156.664346
 30
0.0
  0
POINT
  5
36E
100
AcDbEntity
  8
DEFPOINTS
  6
BYBLOCK
 62
     0
100
AcDbPoint
 10
61.730346
 20
156.664346
 30
0.0
  0
ENDBLK
  5
36F
100
AcDbEntity
  8
0
100
AcDbBlockEnd
  0
BLOCK
  5
380
100
AcDbEntity
  8
0
100
AcDbBlockBegin
  2
*D8
 70
    65
 10
0.0
 20
0.0
 30
0.0
  3
*D8
  1

  0
LINE
  5
381
100
AcDbEntity
  8
0
  6
BYBLOCK
 62
     0
100
AcDbLine
 10
117.730346
 20
184.899397
 30
0.0
 11
117.730346
 21
172.762839
 31
0.0
  0
ARC
  5
382
100
AcDbEntity
  8
0
  6
BYBLOCK
 62
     0
100
AcDbCircle
 10
117.730346
 20
185.524397
 30
0.0
 40
11.511558
100
AcDbArc
 50
209.421161
 51
225.0
  0
ARC
  5
383
100
AcDbEntity
  8
0
  6
BYBLOCK
 62
     0
100
AcDbCircle
 10
117.730346
 20
185.524397
 30
0.0
 40
11.511558
100
AcDbArc
 50
237.467682
 51
257.532318
  0
SOLID
  5
384
100
AcDbEntity
  8
0
  6
BYBLOCK
 62
     0
100
AcDbTrace
 10
111.278822
 20
175.494259
 30
0.0
 11
111.800608
 21
176.144016
 31
0.0
 12
109.590445
 22
177.384496
 32
0.0
 13
109.590445
 23
177.384496
 33
0.0
  0
SOLID
  5
385
100
AcDbEntity
  8
0
  6
BYBLOCK
 62
     0
100
AcDbTrace
 10
115.290373
 20
174.698508
 30
0.0
 11
115.199884
 21
173.870102
 31
0.0
 12
117.730346
 22
174.012839
 32
0.0
 13
117.730346
 23
174.012839
 33
0.0
  0
MTEXT
  5
386
100
AcDbEntity
  8
0
  6
BYBLOCK
 62
     0
100
AcDbMText
 10
107.788394
 20
184.044842
 30
0.0
 40
3.0
 41
0.0
 71
     5
 72
     1
  1
\A1;45°
 11
0.491225
 21
-0.871032
 31
0.0
  0
POINT
  5
387
100
AcDbEntity
  8
DEFPOINTS
  6
BYBLOCK
 62
     0
100
AcDbPoint
 10
114.750936
 20
174.405085
 30
0.0
  0
POINT
  5
388
100
AcDbEntity
  8
DEFPOINTS
  6
BYBLOCK
 62
     0
100
AcDbPoint
 10
117.730346
 20
195.524397
 30
0.0
  0
POINT
  5
389
100
AcDbEntity
  8
DEFPOINTS
  6
BYBLOCK
 62
     0
100
AcDbPoint
 10
117.730346
 20
185.524397
 30
0.0
  0
POINT
  5
38A
100
AcDbEntity
  8
DEFPOINTS
  6
BYBLOCK
 62
     0
100
AcDbPoint
 10
105.875138
 20
173.669189
 30
0.0
  0
POINT
  5
38B
100
AcDbEntity
  8
DEFPOINTS
  6
BYBLOCK
 62
     0
100
AcDbPoint
 10
117.730346
 20
185.524397
 30
0.0
  0
ENDBLK
  5
38C
100
AcDbEntity
  8
0
100
AcDbBlockEnd
  0
BLOCK
  5
411
100
AcDbEntity
  8
0
100
AcDbBlockBegin
  2
*D9
 70
    65
 10
0.0
 20
0.0
 30
0.0
  3
*D9
  1

  0
LINE
  5
412
100
AcDbEntity
  8
0
  6
BYBLOCK
 62
     0
100
AcDbLine
 10
120.302717
 20
159.812496
 30
0.0
 11
103.173472
 21
163.395649
 31
0.0
  0
SOLID
  5
413
100
AcDbEntity
  8
0
  6
BYBLOCK
 62
     0
100
AcDbTrace
 10
103.258785
 20
163.803488
 30
0.0
 11
103.088159
 21
162.98781
 31
0.0
 12
100.726437
 22
163.907528
 32
0.0
 13
100.726437
 23
163.907528
 33
0.0
  0
MTEXT
  5
414
100
AcDbEntity
  8
0
  6
BYBLOCK
 62
     0
100
AcDbMText
 10
110.949674
 20
163.939992
 30
0.0
 40
3.0
 41
0.0
 71
     5
 72
     1
  1
\A1;R20
 11
0.978814
 21
-0.204752
 31
0.0
  0
POINT
  5
415
100
AcDbEntity
  8
DEFPOINTS
  6
BYBLOCK
 62
     0
100
AcDbPoint
 10
100.726437
 20
163.907528
 30
0.0
  0
POINT
  5
416
100
AcDbEntity
  8
DEFPOINTS
  6
BYBLOCK
 62
     0
100
AcDbPoint
 10
120.302717
 20
159.812496
 30
0.0
  0
ENDBLK
  5
417
100
AcDbEntity
  8
0
100
AcDbBlockEnd
  0
BLOCK
  5
41A
100
AcDbEntity
  8
0
100
AcDbBlockBegin
  2
*D10
 70
    65
 10
0.0
 20
0.0
 30
0.0
  3
*D10
  1

  0
ARC
  5
41B
100
AcDbEntity
  8
0
  6
BYBLOCK
 62
     0
100
AcDbCircle
 10
110.730346
 20
130.115601
 30
0.0
 40
14.669522
100
AcDbArc
 50
70.447439
 51
80.22372
  0
ARC
  5
41C
100
AcDbEntity
  8
0
  6
BYBLOCK
 62
     0
100
AcDbCircle
 10
110.730346
 20
130.115601
 30
0.0
 40
14.669522
100
AcDbArc
 50
121.77628
 51
131.552561
  0
SOLID
  5
41D
100
AcDbEntity
  8
0
  6
BYBLOCK
 62
     0
100
AcDbTrace
 10
113.185749
 20
144.156944
 30
0.0
 11
113.256758
 21
144.987247
 31
0.0
 12
110.730346
 22
144.785122
 32
0.0
 13
110.730346
 23
144.785122
 33
0.0
  0
SOLID
  5
41E
100
AcDbEntity
  8
0
  6
BYBLOCK
 62
     0
100
AcDbTrace
 10
102.816881
 20
142.95794
 30
0.0
 11
103.193756
 21
142.214698
 31
0.0
 12
105.235047
 22
143.716944
 32
0.0
 13
105.235047
 23
143.716944
 33
0.0
  0
MTEXT
  5
41F
100
AcDbEntity
  8
0
  6
BYBLOCK
 62
     0
100
AcDbMText
 10
118.68325
 20
144.907736
 30
0.0
 40
3.0
 41
0.0
 71
     5
 72
     1
  1
\A1;22°
 11
0.880771
 21
-0.473542
 31
0.0
  0
POINT
  5
420
100
AcDbEntity
  8
DEFPOINTS
  6
BYBLOCK
 62
     0
100
AcDbPoint
 10
107.016094
 20
144.307119
 30
0.0
  0
POINT
  5
421
100
AcDbEntity
  8
DEFPOINTS
  6
BYBLOCK
 62
     0
100
AcDbPoint
 10
117.801414
 20
112.614094
 30
0.0
  0
POINT
  5
422
100
AcDbEntity
  8
DEFPOINTS
  6
BYBLOCK
 62
     0
100
AcDbPoint
 10
110.730346
 20
82.964885
 30
0.0
  0
POINT
  5
423
100
AcDbEntity
  8
DEFPOINTS
  6
BYBLOCK
 62
     0
100
AcDbPoint
 10
110.730346
 20
238.925787
 30
0.0
  0
POINT
  5
424
100
AcDbEntity
  8
DEFPOINTS
  6
BYBLOCK
 62
     0
100
AcDbPoint
 10
101.759039
 20
152.320364
 30
0.0
  0
ENDBLK
  5
425
100
AcDbEntity
  8
0
100
AcDbBlockEnd
  0
BLOCK
  5
4D7
100
AcDbEntity
  8
QUOTE
100
AcDbBlockBegin
  2
RUGOSITA
 70
     2
 10
0.0
 20
0.0
 30
0.0
  3
RUGOSITA
  1

  0
ATTDEF
  5
4D3
100
AcDbEntity
  8
QUOTE
100
AcDbText
 10
-1.071886
 20
3.214106
 30
0.0
 40
1.5
  1
0.8
100
AcDbAttributeDefinition
  3
CHE RUGOSITA ?
  2
RUGOSITA
 70
     0
  0
LINE
  5
4D4
100
AcDbEntity
  8
QUOTE
100
AcDbLine
 10
0.0
 20
0.0
 30
0.0
 11
4.0
 21
6.928203
 31
0.0
  0
LINE
  5
4D5
100
AcDbEntity
  8
QUOTE
100
AcDbLine
 10
0.0
 20
0.0
 30
0.0
 11
-1.75
 21
3.031089
 31
0.0
  0
LINE
  5
4D6
100
AcDbEntity
  8
QUOTE
100
AcDbLine
 10
-1.75
 20
3.031089
 30
0.0
 11
1.75
 21
3.031089
 31
0.0
  0
ENDBLK
  5
4D8
100
AcDbEntity
  8
QUOTE
100
AcDbBlockEnd
  0
BLOCK
  5
503
100
AcDbEntity
  8
QUOTE
100
AcDbBlockBegin
  2
A$C72B2
 70
     0
 10
0.0
 20
0.0
 30
0.0
  3
A$C72B2
  1

  0
TOLERANCE
  5
4FA
100
AcDbEntity
  8
TESTO
  6
CONTINUOUS
100
AcDbFcf
  3
ISO-25
 10
2.929614
 20
2.696533
 30
0.0
  1
{\Fgdt;b}%%v0.02%%v%%v%%v%%v
1001
ACAD
1000
DSTYLE
1002
{
1070
   140
1040
2.6
1070
    47
1040
0.02
1070
    73
1070
     0
1070
   272
1070
     2
1070
   147
1040
0.53
1070
    42
1040
0.5261
1070
    44
1040
1.0522
1070
    43
1040
3.1566
1070
   271
1070
     2
1070
   141
1040
2.1044
1070
    41
1040
2.6
1002
}
  0
TEXT
  5
4FB
100
AcDbEntity
  8
TESTO
100
AcDbText
 10
-0.274941
 20
6.632465
 30
0.0
 40
2.5
  1
TOLLERANZE AL METRO
 41
1.1
100
AcDbText
  0
POLYLINE
  5
4FC
100
AcDbEntity
  8
TESTO
100
AcDb2dPolyline
 66
     1
 10
0.0
 20
0.0
 30
0.0
 70
     1
  0
VERTEX
  5
4FD
100
AcDbEntity
  8
TESTO
100
AcDbVertex
100
AcDb2dVertex
 10
-0.868526
 20
11.096425
 30
0.0
  0
VERTEX
  5
4FE
100
AcDbEntity
  8
TESTO
100
AcDbVertex
100
AcDb2dVertex
 10
-0.868526
 20
-1.618183
 30
0.0
  0
VERTEX
  5
4FF
100
AcDbEntity
  8
TESTO
100
AcDbVertex
100
AcDb2dVertex
 10
40.250514
 20
-1.618183
 30
0.0
  0
VERTEX
  5
500
100
AcDbEntity
  8
TESTO
100
AcDbVertex
100
AcDb2dVertex
 10
40.250514
 20
11.096425
 30
0.0
  0
SEQEND
  5
501
100
AcDbEntity
  8
TESTO
  0
TOLERANCE
  5
502
100
AcDbEntity
  8
TESTO
  6
CONTINUOUS
100
AcDbFcf
  3
ISO-25
 10
18.487572
 20
2.696533
 30
0.0
  1
{\Fgdt;u}%%v0.02%%v%%v%%v%%v
1001
ACAD
1000
DSTYLE
1002
{
1070
   140
1040
2.6
1070
    47
1040
0.02
1070
    73
1070
     0
1070
   272
1070
     2
1070
   147
1040
0.53
1070
    42
1040
0.5261
1070
    44
1040
1.0522
1070
    43
1040
3.1566
1070
   271
1070
     2
1070
   141
1040
2.1044
1070
    41
1040
2.6
1002
}
  0
ENDBLK
  5
504
100
AcDbEntity
  8
QUOTE
100
AcDbBlockEnd
  0
BLOCK
  5
531
100
AcDbEntity
  8
0
100
AcDbBlockBegin
  2
*D13
 70
    65
 10
0.0
 20
0.0
 30
0.0
  3
*D13
  1

  0
LINE
  5
532
100
AcDbEntity
  8
0
  6
BYBLOCK
 62
     0
100
AcDbLine
 10
91.105346
 20
225.524397
 30
0.0
 11
41.223113
 21
225.524397
 31
0.0
  0
LINE
  5
533
100
AcDbEntity
  8
0
  6
BYBLOCK
 62
     0
100
AcDbLine
 10
72.905346
 20
195.324397
 30
0.0
 11
41.223113
 21
195.324397
 31
0.0
  0
LINE
  5
534
100
AcDbEntity
  8
0
  6
BYBLOCK
 62
     0
100
AcDbLine
 10
42.473113
 20
223.024397
 30
0.0
 11
42.473113
 21
197.824397
 31
0.0
  0
SOLID
  5
535
100
AcDbEntity
  8
0
  6
BYBLOCK
 62
     0
100
AcDbTrace
 10
42.056446
 20
223.024397
 30
0.0
 11
42.889779
 21
223.024397
 31
0.0
 12
42.473113
 22
225.524397
 32
0.0
 13
42.473113
 23
225.524397
 33
0.0
  0
SOLID
  5
536
100
AcDbEntity
  8
0
  6
BYBLOCK
 62
     0
100
AcDbTrace
 10
42.056446
 20
197.824397
 30
0.0
 11
42.889779
 21
197.824397
 31
0.0
 12
42.473113
 22
195.324397
 32
0.0
 13
42.473113
 23
195.324397
 33
0.0
  0
MTEXT
  5
537
100
AcDbEntity
  8
0
  6
BYBLOCK
 62
     0
100
AcDbMText
 10
38.496932
 20
210.424397
 30
0.0
 40
3.0
 41
0.0
 71
     5
 72
     1
  1
\A1;30.2\S+0.1^  0;
 11
0.0
 21
1.0
 31
0.0
  0
POINT
  5
538
100
AcDbEntity
  8
DEFPOINTS
  6
BYBLOCK
 62
     0
100
AcDbPoint
 10
91.730346
 20
225.524397
 30
0.0
  0
POINT
  5
539
100
AcDbEntity
  8
DEFPOINTS
  6
BYBLOCK
 62
     0
100
AcDbPoint
 10
73.530346
 20
195.324397
 30
0.0
  0
POINT
  5
53A
100
AcDbEntity
  8
DEFPOINTS
  6
BYBLOCK
 62
     0
100
AcDbPoint
 10
42.473113
 20
195.324397
 30
0.0
  0
ENDBLK
  5
53B
100
AcDbEntity
  8
0
100
AcDbBlockEnd
  0
BLOCK
  5
524
100
AcDbEntity
  8
0
100
AcDbBlockBegin
  2
*D14
 70
    65
 10
0.0
 20
0.0
 30
0.0
  3
*D14
  1

  0
LINE
  5
525
100
AcDbEntity
  8
0
  6
BYBLOCK
 62
     0
100
AcDbLine
 10
72.905346
 20
195.324397
 30
0.0
 11
41.223113
 21
195.324397
 31
0.0
  0
LINE
  5
526
100
AcDbEntity
  8
0
  6
BYBLOCK
 62
     0
100
AcDbLine
 10
61.105346
 20
183.524397
 30
0.0
 11
41.223113
 21
183.524397
 31
0.0
  0
LINE
  5
527
100
AcDbEntity
  8
0
  6
BYBLOCK
 62
     0
100
AcDbLine
 10
42.473113
 20
197.824397
 30
0.0
 11
42.473113
 21
200.324397
 31
0.0
  0
LINE
  5
528
100
AcDbEntity
  8
0
  6
BYBLOCK
 62
     0
100
AcDbLine
 10
42.473113
 20
181.024397
 30
0.0
 11
42.473113
 21
178.524397
 31
0.0
  0
SOLID
  5
529
100
AcDbEntity
  8
0
  6
BYBLOCK
 62
     0
100
AcDbTrace
 10
42.056446
 20
197.824397
 30
0.0
 11
42.889779
 21
197.824397
 31
0.0
 12
42.473113
 22
195.324397
 32
0.0
 13
42.473113
 23
195.324397
 33
0.0
  0
SOLID
  5
52A
100
AcDbEntity
  8
0
  6
BYBLOCK
 62
     0
100
AcDbTrace
 10
42.056446
 20
181.024397
 30
0.0
 11
42.889779
 21
181.024397
 31
0.0
 12
42.473113
 22
183.524397
 32
0.0
 13
42.473113
 23
183.524397
 33
0.0
  0
MTEXT
  5
52B
100
AcDbEntity
  8
0
  6
BYBLOCK
 62
     0
100
AcDbMText
 10
40.348113
 20
189.424397
 30
0.0
 40
3.0
 41
0.0
 71
     5
 72
     1
  1
\A1;11.8
 11
0.0
 21
1.0
 31
0.0
  0
POINT
  5
52C
100
AcDbEntity
  8
DEFPOINTS
  6
BYBLOCK
 62
     0
100
AcDbPoint
 10
73.530346
 20
195.324397
 30
0.0
  0
POINT
  5
52D
100
AcDbEntity
  8
DEFPOINTS
  6
BYBLOCK
 62
     0
100
AcDbPoint
 10
61.730346
 20
183.524397
 30
0.0
  0
POINT
  5
52E
100
AcDbEntity
  8
DEFPOINTS
  6
BYBLOCK
 62
     0
100
AcDbPoint
 10
42.473113
 20
183.524397
 30
0.0
  0
ENDBLK
  5
52F
100
AcDbEntity
  8
0
100
AcDbBlockEnd
  0
BLOCK
  5
540
100
AcDbEntity
  8
QUOTE
100
AcDbBlockBegin
  2
A$C7000
 70
     0
 10
0.0
 20
0.0
 30
0.0
  3
A$C7000
  1

  0
TEXT
  5
53F
100
AcDbEntity
  8
QUOTE
100
AcDbText
 10
2.878813
 20
0.151377
 30
0.0
 40
2.5
  1
01    VARIATO QUOTA DA 30 A 30.2                       30/10/00 P.S.        ROLLERI M.
 50
90.0
 41
1.1
100
AcDbText
  0
ENDBLK
  5
541
100
AcDbEntity
  8
QUOTE
100
AcDbBlockEnd
  0
BLOCK
  5
55C
100
AcDbEntity
  8
0
100
AcDbBlockBegin
  2
*D16
 70
    65
 10
0.0
 20
0.0
 30
0.0
  3
*D16
  1

  0
LINE
  5
55D
100
AcDbEntity
  8
0
  6
BYBLOCK
 62
     0
100
AcDbLine
 10
110.296185
 20
105.073164
 30
0.0
 11
91.405393
 21
85.511176
 31
0.0
  0
LINE
  5
55E
100
AcDbEntity
  8
0
  6
BYBLOCK
 62
     0
100
AcDbLine
 10
111.164508
 20
105.073164
 30
0.0
 11
130.0553
 21
85.511176
 31
0.0
  0
ARC
  5
55F
100
AcDbEntity
  8
0
  6
BYBLOCK
 62
     0
100
AcDbCircle
 10
110.730346
 20
105.522751
 30
0.0
 40
26.569363
100
AcDbArc
 50
231.393142
 51
308.606858
  0
SOLID
  5
560
100
AcDbEntity
  8
0
  6
BYBLOCK
 62
     0
100
AcDbTrace
 10
93.876758
 20
84.447224
 30
0.0
 11
94.426797
 21
85.073245
 31
0.0
 12
92.273716
 22
86.410351
 32
0.0
 13
92.273716
 23
86.410351
 33
0.0
  0
SOLID
  5
561
100
AcDbEntity
  8
0
  6
BYBLOCK
 62
     0
100
AcDbTrace
 10
127.033896
 20
85.073245
 30
0.0
 11
127.583934
 21
84.447224
 31
0.0
 12
129.186977
 22
86.410351
 32
0.0
 13
129.186977
 23
86.410351
 33
0.0
  0
MTEXT
  5
562
100
AcDbEntity
  8
0
  6
BYBLOCK
 62
     0
100
AcDbMText
 10
110.730346
 20
81.078388
 30
0.0
 40
3.0
 41
0.0
 71
     5
 72
     1
  1
\A1;88°
  0
POINT
  5
563
100
AcDbEntity
  8
DEFPOINTS
  6
BYBLOCK
 62
     0
100
AcDbPoint
 10
104.003112
 20
79.819145
 30
0.0
  0
POINT
  5
564
100
AcDbEntity
  8
DEFPOINTS
  6
BYBLOCK
 62
     0
100
AcDbPoint
 10
110.154874
 20
106.11867
 30
0.0
  0
POINT
  5
565
100
AcDbEntity
  8
DEFPOINTS
  6
BYBLOCK
 62
     0
100
AcDbPoint
 10
111.305818
 20
106.11867
 30
0.0
  0
POINT
  5
566
100
AcDbEntity
  8
DEFPOINTS
  6
BYBLOCK
 62
     0
100
AcDbPoint
 10
117.735624
 20
112.776929
 30
0.0
  0
POINT
  5
567
100
AcDbEntity
  8
DEFPOINTS
  6
BYBLOCK
 62
     0
100
AcDbPoint
 10
103.772744
 20
112.727559
 30
0.0
  0
ENDBLK
  5
568
100
AcDbEntity
  8
0
100
AcDbBlockEnd
  0
BLOCK
  5
59C
100
AcDbEntity
  8
0
100
AcDbBlockBegin
  2
*D17
 70
    65
 10
0.0
 20
0.0
 30
0.0
  3
*D17
  1

  0
LINE
  5
59D
100
AcDbEntity
  8
0
  6
BYBLOCK
 62
     0
100
AcDbLine
 10
111.525504
 20
103.471628
 30
0.0
 11
114.895961
 21
89.895964
 31
0.0
  0
SOLID
  5
59E
100
AcDbEntity
  8
0
  6
BYBLOCK
 62
     0
100
AcDbTrace
 10
111.929894
 20
103.572027
 30
0.0
 11
111.121114
 21
103.37123
 31
0.0
 12
110.923112
 22
105.897968
 32
0.0
 13
110.923112
 23
105.897968
 33
0.0
  0
MTEXT
  5
59F
100
AcDbEntity
  8
0
  6
BYBLOCK
 62
     0
100
AcDbMText
 10
115.933078
 20
94.537627
 30
0.0
 40
3.0
 41
0.0
 71
     5
 72
     1
  1
\A1;R0.8
 11
0.240957
 21
-0.970536
 31
0.0
  0
LINE
  5
5A0
100
AcDbEntity
  8
0
  6
BYBLOCK
 62
     0
100
AcDbLine
 10
108.230346
 20
106.674397
 30
0.0
 11
113.230346
 21
106.674397
 31
0.0
  0
LINE
  5
5A1
100
AcDbEntity
  8
0
  6
BYBLOCK
 62
     0
100
AcDbLine
 10
110.730346
 20
104.174397
 30
0.0
 11
110.730346
 21
109.174397
 31
0.0
  0
POINT
  5
5A2
100
AcDbEntity
  8
DEFPOINTS
  6
BYBLOCK
 62
     0
100
AcDbPoint
 10
110.923112
 20
105.897968
 30
0.0
  0
POINT
  5
5A3
100
AcDbEntity
  8
DEFPOINTS
  6
BYBLOCK
 62
     0
100
AcDbPoint
 10
110.730346
 20
106.674397
 30
0.0
  0
ENDBLK
  5
5A4
100
AcDbEntity
  8
0
100
AcDbBlockEnd
  0
BLOCK
  5
575
100
AcDbEntity
  8
0
100
AcDbBlockBegin
  2
*D18
 70
    65
 10
0.0
 20
0.0
 30
0.0
  3
*D18
  1

  0
LINE
  5
576
100
AcDbEntity
  8
0
  6
BYBLOCK
 62
     0
100
AcDbLine
 10
103.338583
 20
112.277972
 30
0.0
 11
91.331586
 21
99.844363
 31
0.0
  0
LINE
  5
577
100
AcDbEntity
  8
0
  6
BYBLOCK
 62
     0
100
AcDbLine
 10
110.539001
 20
105.324608
 30
0.0
 11
98.532005
 21
92.890999
 31
0.0
  0
LINE
  5
578
100
AcDbEntity
  8
0
  6
BYBLOCK
 62
     0
100
AcDbLine
 10
90.401559
 20
102.480183
 30
0.0
 11
88.60321
 21
104.216829
 31
0.0
  0
LINE
  5
579
100
AcDbEntity
  8
0
  6
BYBLOCK
 62
     0
100
AcDbLine
 10
101.198677
 20
92.053528
 30
0.0
 11
102.997027
 21
90.316882
 31
0.0
  0
SOLID
  5
57A
100
AcDbEntity
  8
0
  6
BYBLOCK
 62
     0
100
AcDbTrace
 10
90.691
 20
102.779908
 30
0.0
 11
90.112118
 21
102.180458
 31
0.0
 12
92.199909
 22
100.743537
 32
0.0
 13
92.199909
 23
100.743537
 33
0.0
  0
SOLID
  5
57B
100
AcDbEntity
  8
0
  6
BYBLOCK
 62
     0
100
AcDbTrace
 10
101.488118
 20
92.353253
 30
0.0
 11
100.909236
 21
91.753803
 31
0.0
 12
99.400328
 22
93.790174
 32
0.0
 13
99.400328
 23
93.790174
 33
0.0
  0
MTEXT
  5
57C
100
AcDbEntity
  8
0
  6
BYBLOCK
 62
     0
100
AcDbMText
 10
97.276267
 20
98.795453
 30
0.0
 40
3.0
 41
0.0
 71
     5
 72
     1
  1
\A1;10.01
 11
0.71934
 21
-0.694658
 31
0.0
  0
POINT
  5
57D
100
AcDbEntity
  8
DEFPOINTS
  6
BYBLOCK
 62
     0
100
AcDbPoint
 10
103.772744
 20
112.727559
 30
0.0
  0
POINT
  5
57E
100
AcDbEntity
  8
DEFPOINTS
  6
BYBLOCK
 62
     0
100
AcDbPoint
 10
110.973163
 20
105.774196
 30
0.0
  0
POINT
  5
57F
100
AcDbEntity
  8
DEFPOINTS
  6
BYBLOCK
 62
     0
100
AcDbPoint
 10
99.400328
 20
93.790174
 30
0.0
  0
ENDBLK
  5
580
100
AcDbEntity
  8
0
100
AcDbBlockEnd
  0
BLOCK
  5
590
100
AcDbEntity
  8
0
100
AcDbBlockBegin
  2
*D19
 70
    65
 10
0.0
 20
0.0
 30
0.0
  3
*D19
  1

  0
LINE
  5
591
100
AcDbEntity
  8
0
  6
BYBLOCK
 62
     0
100
AcDbLine
 10
103.330802
 20
113.169501
 30
0.0
 11
95.083278
 21
121.417025
 31
0.0
  0
LINE
  5
592
100
AcDbEntity
  8
0
  6
BYBLOCK
 62
     0
100
AcDbLine
 10
104.277997
 20
114.116695
 30
0.0
 11
96.030473
 21
122.36422
 31
0.0
  0
LINE
  5
593
100
AcDbEntity
  8
0
  6
BYBLOCK
 62
     0
100
AcDbLine
 10
98.682123
 20
123.248103
 30
0.0
 11
100.44989
 21
125.01587
 31
0.0
  0
LINE
  5
594
100
AcDbEntity
  8
0
  6
BYBLOCK
 62
     0
100
AcDbLine
 10
94.199395
 20
118.765375
 30
0.0
 11
88.075106
 21
112.641086
 31
0.0
  0
SOLID
  5
595
100
AcDbEntity
  8
0
  6
BYBLOCK
 62
     0
100
AcDbTrace
 10
98.387495
 20
123.542731
 30
0.0
 11
98.976751
 21
122.953475
 31
0.0
 12
96.914356
 22
121.480336
 32
0.0
 13
96.914356
 23
121.480336
 33
0.0
  0
SOLID
  5
596
100
AcDbEntity
  8
0
  6
BYBLOCK
 62
     0
100
AcDbTrace
 10
93.904767
 20
119.060002
 30
0.0
 11
94.494023
 21
118.470747
 31
0.0
 12
95.967162
 22
120.533142
 32
0.0
 13
95.967162
 23
120.533142
 33
0.0
  0
MTEXT
  5
597
100
AcDbEntity
  8
0
  6
BYBLOCK
 62
     0
100
AcDbMText
 10
89.347898
 20
116.919082
 30
0.0
 40
3.0
 41
0.0
 71
     5
 72
     1
  1
\A1;1.34
 11
0.707107
 21
0.707107
 31
0.0
  0
POINT
  5
598
100
AcDbEntity
  8
DEFPOINTS
  6
BYBLOCK
 62
     0
100
AcDbPoint
 10
103.772744
 20
112.727559
 30
0.0
  0
POINT
  5
599
100
AcDbEntity
  8
DEFPOINTS
  6
BYBLOCK
 62
     0
100
AcDbPoint
 10
104.719939
 20
113.674754
 30
0.0
  0
POINT
  5
59A
100
AcDbEntity
  8
DEFPOINTS
  6
BYBLOCK
 62
     0
100
AcDbPoint
 10
96.914356
 20
121.480336
 30
0.0
  0
ENDBLK
  5
59B
100
AcDbEntity
  8
0
100
AcDbBlockEnd
  0
BLOCK
  5
5C0
100
AcDbEntity
  8
0
100
AcDbBlockBegin
  2
*X20
 70
    65
 10
0.0
 20
0.0
 30
0.0
  3
*X20
  1

  0
LINE
  5
5C2
100
AcDbEntity
  8
0
 62
     0
100
AcDbLine
 10
109.495524
 20
106.801447
 30
0.0
 11
110.730346
 21
108.036269
 31
0.0
  0
LINE
  5
5C3
100
AcDbEntity
  8
0
 62
     0
100
AcDbLine
 10
110.730346
 20
108.036269
 30
0.0
 11
111.149136
 21
108.455059
 31
0.0
  0
LINE
  5
5C4
100
AcDbEntity
  8
0
 62
     0
100
AcDbLine
 10
109.38523
 20
106.91566
 30
0.0
 11
110.730346
 21
108.260776
 31
0.0
  0
LINE
  5
5C5
100
AcDbEntity
  8
0
 62
     0
100
AcDbLine
 10
110.730346
 20
108.260776
 30
0.0
 11
110.914514
 21
108.444944
 31
0.0
  0
LINE
  5
5C6
100
AcDbEntity
  8
0
 62
     0
100
AcDbLine
 10
109.274936
 20
107.029872
 30
0.0
 11
110.687715
 21
108.44265
 31
0.0
  0
LINE
  5
5C7
100
AcDbEntity
  8
0
 62
     0
100
AcDbLine
 10
109.164643
 20
107.144085
 30
0.0
 11
110.467996
 21
108.447439
 31
0.0
  0
LINE
  5
5C8
100
AcDbEntity
  8
0
 62
     0
100
AcDbLine
 10
109.054349
 20
107.258297
 30
0.0
 11
110.254747
 21
108.458696
 31
0.0
  0
LINE
  5
5C9
100
AcDbEntity
  8
0
 62
     0
100
AcDbLine
 10
108.944055
 20
107.37251
 30
0.0
 11
110.047455
 21
108.47591
 31
0.0
  0
LINE
  5
5CA
100
AcDbEntity
  8
0
 62
     0
100
AcDbLine
 10
108.833761
 20
107.486723
 30
0.0
 11
109.845686
 21
108.498647
 31
0.0
  0
LINE
  5
5CB
100
AcDbEntity
  8
0
 62
     0
100
AcDbLine
 10
108.723467
 20
107.600935
 30
0.0
 11
109.649068
 21
108.526536
 31
0.0
  0
LINE
  5
5CC
100
AcDbEntity
  8
0
 62
     0
100
AcDbLine
 10
108.613173
 20
107.715148
 30
0.0
 11
109.457283
 21
108.559258
 31
0.0
  0
LINE
  5
5CD
100
AcDbEntity
  8
0
 62
     0
100
AcDbLine
 10
108.50288
 20
107.82936
 30
0.0
 11
109.270053
 21
108.596533
 31
0.0
  0
LINE
  5
5CE
100
AcDbEntity
  8
0
 62
     0
100
AcDbLine
 10
108.392586
 20
107.943573
 30
0.0
 11
109.087134
 21
108.638121
 31
0.0
  0
LINE
  5
5CF
100
AcDbEntity
  8
0
 62
     0
100
AcDbLine
 10
108.282292
 20
108.057786
 30
0.0
 11
108.908314
 21
108.683808
 31
0.0
  0
LINE
  5
5D0
100
AcDbEntity
  8
0
 62
     0
100
AcDbLine
 10
108.171998
 20
108.171998
 30
0.0
 11
108.733405
 21
108.733405
 31
0.0
  0
LINE
  5
5D1
100
AcDbEntity
  8
0
 62
     0
100
AcDbLine
 10
108.061704
 20
108.286211
 30
0.0
 11
108.562241
 21
108.786747
 31
0.0
  0
LINE
  5
5D2
100
AcDbEntity
  8
0
 62
     0
100
AcDbLine
 10
107.951411
 20
108.400423
 30
0.0
 11
108.394672
 21
108.843685
 31
0.0
  0
LINE
  5
5D3
100
AcDbEntity
  8
0
 62
     0
100
AcDbLine
 10
107.841117
 20
108.514636
 30
0.0
 11
108.230568
 21
108.904087
 31
0.0
  0
LINE
  5
5D4
100
AcDbEntity
  8
0
 62
     0
100
AcDbLine
 10
107.730823
 20
108.628849
 30
0.0
 11
108.06981
 21
108.967836
 31
0.0
  0
LINE
  5
5D5
100
AcDbEntity
  8
0
 62
     0
100
AcDbLine
 10
107.620529
 20
108.743061
 30
0.0
 11
107.912292
 21
109.034824
 31
0.0
  0
LINE
  5
5D6
100
AcDbEntity
  8
0
 62
     0
100
AcDbLine
 10
107.510235
 20
108.857274
 30
0.0
 11
107.757921
 21
109.104959
 31
0.0
  0
LINE
  5
5D7
100
AcDbEntity
  8
0
 62
     0
100
AcDbLine
 10
107.399941
 20
108.971486
 30
0.0
 11
107.60661
 21
109.178155
 31
0.0
  0
LINE
  5
5D8
100
AcDbEntity
  8
0
 62
     0
100
AcDbLine
 10
107.289648
 20
109.085699
 30
0.0
 11
107.458286
 21
109.254337
 31
0.0
  0
LINE
  5
5D9
100
AcDbEntity
  8
0
 62
     0
100
AcDbLine
 10
107.179354
 20
109.199911
 30
0.0
 11
107.312878
 21
109.333436
 31
0.0
  0
LINE
  5
5DA
100
AcDbEntity
  8
0
 62
     0
100
AcDbLine
 10
107.06906
 20
109.314124
 30
0.0
 11
107.170328
 21
109.415392
 31
0.0
  0
LINE
  5
5DB
100
AcDbEntity
  8
0
 62
     0
100
AcDbLine
 10
106.958766
 20
109.428337
 30
0.0
 11
107.030582
 21
109.500152
 31
0.0
  0
LINE
  5
5DC
100
AcDbEntity
  8
0
 62
     0
100
AcDbLine
 10
106.848472
 20
109.542549
 30
0.0
 11
106.893591
 21
109.587667
 31
0.0
  0
LINE
  5
5DD
100
AcDbEntity
  8
0
 62
     0
100
AcDbLine
 10
106.738179
 20
109.656762
 30
0.0
 11
106.759313
 21
109.677896
 31
0.0
  0
LINE
  5
5DE
100
AcDbEntity
  8
0
 62
     0
100
AcDbLine
 10
109.605818
 20
106.687235
 30
0.0
 11
110.730346
 21
107.811763
 31
0.0
  0
LINE
  5
5DF
100
AcDbEntity
  8
0
 62
     0
100
AcDbLine
 10
110.730346
 20
107.811763
 30
0.0
 11
111.392491
 21
108.473908
 31
0.0
  0
LINE
  5
5E0
100
AcDbEntity
  8
0
 62
     0
100
AcDbLine
 10
109.716112
 20
106.573022
 30
0.0
 11
110.730346
 21
107.587257
 31
0.0
  0
LINE
  5
5E1
100
AcDbEntity
  8
0
 62
     0
100
AcDbLine
 10
110.730346
 20
107.587257
 30
0.0
 11
111.645719
 21
108.502629
 31
0.0
  0
LINE
  5
5E2
100
AcDbEntity
  8
0
 62
     0
100
AcDbLine
 10
109.826405
 20
106.458809
 30
0.0
 11
110.730346
 21
107.36275
 31
0.0
  0
LINE
  5
5E3
100
AcDbEntity
  8
0
 62
     0
100
AcDbLine
 10
110.730346
 20
107.36275
 30
0.0
 11
111.910279
 21
108.542683
 31
0.0
  0
LINE
  5
5E4
100
AcDbEntity
  8
0
 62
     0
100
AcDbLine
 10
109.936699
 20
106.344597
 30
0.0
 11
110.730346
 21
107.138244
 31
0.0
  0
LINE
  5
5E5
100
AcDbEntity
  8
0
 62
     0
100
AcDbLine
 10
110.730346
 20
107.138244
 30
0.0
 11
112.188093
 21
108.595991
 31
0.0
  0
LINE
  5
5E6
100
AcDbEntity
  8
0
 62
     0
100
AcDbLine
 10
110.046993
 20
106.230384
 30
0.0
 11
110.730346
 21
106.913737
 31
0.0
  0
LINE
  5
5E7
100
AcDbEntity
  8
0
 62
     0
100
AcDbLine
 10
110.730346
 20
106.913737
 30
0.0
 11
112.481779
 21
108.66517
 31
0.0
  0
LINE
  5
5E8
100
AcDbEntity
  8
0
 62
     0
100
AcDbLine
 10
110.157292
 20
106.116177
 30
0.0
 11
110.730346
 21
106.689231
 31
0.0
  0
LINE
  5
5E9
100
AcDbEntity
  8
0
 62
     0
100
AcDbLine
 10
110.730346
 20
106.689231
 30
0.0
 11
112.79507
 21
108.753955
 31
0.0
  0
LINE
  5
5EA
100
AcDbEntity
  8
0
 62
     0
100
AcDbLine
 10
110.279296
 20
106.013674
 30
0.0
 11
110.730346
 21
106.464724
 31
0.0
  0
LINE
  5
5EB
100
AcDbEntity
  8
0
 62
     0
100
AcDbLine
 10
110.730346
 20
106.464724
 30
0.0
 11
113.133628
 21
108.868007
 31
0.0
  0
LINE
  5
5EC
100
AcDbEntity
  8
0
 62
     0
100
AcDbLine
 10
110.425064
 20
105.934936
 30
0.0
 11
110.730346
 21
106.240218
 31
0.0
  0
LINE
  5
5ED
100
AcDbEntity
  8
0
 62
     0
100
AcDbLine
 10
110.730346
 20
106.240218
 30
0.0
 11
113.506831
 21
109.016703
 31
0.0
  0
LINE
  5
5EE
100
AcDbEntity
  8
0
 62
     0
100
AcDbLine
 10
110.599761
 20
105.885126
 30
0.0
 11
110.730346
 21
106.015712
 31
0.0
  0
LINE
  5
5EF
100
AcDbEntity
  8
0
 62
     0
100
AcDbLine
 10
110.730346
 20
106.015712
 30
0.0
 11
113.93252
 21
109.217885
 31
0.0
  0
LINE
  5
5F0
100
AcDbEntity
  8
0
 62
     0
100
AcDbLine
 10
110.818398
 20
105.879257
 30
0.0
 11
114.454628
 21
109.515487
 31
0.0
  0
LINE
  5
5F1
100
AcDbEntity
  8
0
 62
     0
100
AcDbLine
 10
111.16908
 20
106.005433
 30
0.0
 11
111.967249
 21
106.803602
 31
0.0
  0
ENDBLK
  5
5F2
100
AcDbEntity
  8
0
100
AcDbBlockEnd
  0
ENDSEC
  0
SECTION
  2
ENTITIES
  0
LINE
  5
261
100
AcDbEntity
  8
DISEGNO
100
AcDbLine
 10
91.730346
 20
225.524397
 30
0.0
 11
102.730346
 21
225.524397
 31
0.0
  0
LINE
  5
262
100
AcDbEntity
  8
DISEGNO
100
AcDbLine
 10
103.730346
 20
224.524397
 30
0.0
 11
103.730346
 21
195.524397
 31
0.0
  0
LINE
  5
263
100
AcDbEntity
  8
DISEGNO
100
AcDbLine
 10
103.730346
 20
195.524397
 30
0.0
 11
116.730346
 21
195.524397
 31
0.0
  0
LINE
  5
264
100
AcDbEntity
  8
DISEGNO
100
AcDbLine
 10
117.730346
 20
194.524397
 30
0.0
 11
117.730346
 21
185.524397
 31
0.0
  0
LINE
  5
265
100
AcDbEntity
  8
DISEGNO
100
AcDbLine
 10
90.730346
 20
224.524397
 30
0.0
 11
90.730346
 21
209.024397
 31
0.0
  0
LINE
  5
266
100
AcDbEntity
  8
DISEGNO
100
AcDbLine
 10
91.230346
 20
208.524397
 30
0.0
 11
94.230346
 21
208.524397
 31
0.0
  0
LINE
  5
267
100
AcDbEntity
  8
DISEGNO
100
AcDbLine
 10
94.230346
 20
208.524397
 30
0.0
 11
94.230346
 21
200.124397
 31
0.0
  0
LINE
  5
268
100
AcDbEntity
  8
DISEGNO
100
AcDbLine
 10
94.230346
 20
200.124397
 30
0.0
 11
91.230346
 21
200.124397
 31
0.0
  0
LINE
  5
269
100
AcDbEntity
  8
DISEGNO
100
AcDbLine
 10
90.730346
 20
199.624397
 30
0.0
 11
90.730346
 21
195.324397
 31
0.0
  0
LINE
  5
26A
100
AcDbEntity
  8
DISEGNO
100
AcDbLine
 10
90.730346
 20
195.324397
 30
0.0
 11
73.530346
 21
195.324397
 31
0.0
  0
LINE
  5
26B
100
AcDbEntity
  8
DISEGNO
100
AcDbLine
 10
61.730346
 20
183.524397
 30
0.0
 11
61.730346
 21
156.664346
 31
0.0
  0
ARC
  5
26D
100
AcDbEntity
  8
DISEGNO
100
AcDbCircle
 10
110.730346
 20
106.674397
 30
0.0
 40
0.8
100
AcDbArc
 50
224.0
 51
316.0
1001
ACAD
1000
ASC_BOUNDS
1002
{
1070
    19
1002
}
  0
LINE
  5
271
100
AcDbEntity
  8
DISEGNO
100
AcDbLine
 10
103.772744
 20
112.727559
 30
0.0
 11
104.719939
 21
113.674754
 31
0.0
  0
LINE
  5
273
100
AcDbEntity
  8
DISEGNO
100
AcDbLine
 10
104.719939
 20
113.674754
 30
0.0
 11
61.730346
 21
156.664346
 31
0.0
  0
LINE
  5
275
100
AcDbEntity
  8
DISEGNO
100
AcDbLine
 10
117.730346
 20
185.524397
 30
0.0
 11
106.160581
 21
173.954631
 31
0.0
  0
LINE
  5
276
100
AcDbEntity
  8
DISEGNO
100
AcDbLine
 10
117.735624
 20
112.776929
 30
0.0
 11
101.759039
 21
152.320364
 31
0.0
  0
LINE
  5
278
100
AcDbEntity
  8
DISEGNO
100
AcDbLine
 10
73.530346
 20
195.324397
 30
0.0
 11
61.730346
 21
183.524397
 31
0.0
  0
LINE
  5
3E8
100
AcDbEntity
  8
DISEGNO
100
AcDbLine
 10
91.730346
 20
225.524397
 30
0.0
 11
90.730346
 21
224.524397
 31
0.0
  0
LINE
  5
3E9
100
AcDbEntity
  8
DISEGNO
100
AcDbLine
 10
102.730346
 20
225.524397
 30
0.0
 11
103.730346
 21
224.524397
 31
0.0
  0
LINE
  5
3EA
100
AcDbEntity
  8
DISEGNO
100
AcDbLine
 10
116.730346
 20
195.524397
 30
0.0
 11
117.730346
 21
194.524397
 31
0.0
  0
LINE
  5
3EB
100
AcDbEntity
  8
DISEGNO
100
AcDbLine
 10
90.730346
 20
209.024397
 30
0.0
 11
91.230346
 21
208.524397
 31
0.0
  0
LINE
  5
3EC
100
AcDbEntity
  8
DISEGNO
100
AcDbLine
 10
90.730346
 20
199.624397
 30
0.0
 11
91.230346
 21
200.124397
 31
0.0
  0
ARC
  5
40F
100
AcDbEntity
  8
DISEGNO
100
AcDbCircle
 10
120.302717
 20
159.812496
 30
0.0
 40
20.0
100
AcDbArc
 50
135.0
 51
202.0
  0
LINE
  5
54B
100
AcDbEntity
  8
DISEGNO
100
AcDbLine
 10
111.305818
 20
106.11867
 30
0.0
 11
117.735624
 21
112.776929
 31
0.0
1001
ACAD
1000
ASC_BOUNDS
1002
{
1070
    19
1002
}
  0
LINE
  5
54C
100
AcDbEntity
  8
DISEGNO
100
AcDbLine
 10
110.154874
 20
106.11867
 30
0.0
 11
103.772744
 21
112.727559
 31
0.0
1001
ACAD
1000
ASC_BOUNDS
1002
{
1070
    19
1002
}
  0
ENDSEC
  0
SECTION
  2
OBJECTS
  0
DICTIONARY
  5
C
100
AcDbDictionary
  3
ACAD_GROUP
350
D
  3
ACAD_MLINESTYLE
350
E
  0
DICTIONARY
  5
D
102
{ACAD_REACTORS
330
C
102
}
100
AcDbDictionary
  0
DICTIONARY
  5
E
102
{ACAD_REACTORS
330
C
102
}
100
AcDbDictionary
  3
STANDARD
350
1C
  0
MLINESTYLE
  5
1C
102
{ACAD_REACTORS
330
E
102
}
100
AcDbMlineStyle
  2
STANDARD
 70
     0
  3

 62
     0
 51
90.0
 52
90.0
 71
     2
 49
0.5
 62
   256
  6
BYLAYER
 49
-0.5
 62
   256
  6
BYLAYER
  0
ENDSEC
  0
EOF
