  0
SECTION
  2
HEADER
  9
$ACADVER
  1
AC1012
  9
$DWGCODEPAGE
  3
iso8859-1
  9
$INSBASE
 10
0.0
 20
0.0
 30
0.0
  9
$EXTMIN
 10
-1940.234365
 20
-1659.251698
 30
0.0
  9
$EXTMAX
 10
-1478.57649
 20
-1372.037392
 30
0.0
  9
$LIMMIN
 10
0.0
 20
0.0
  9
$LIMMAX
 10
210.0
 20
297.0
  9
$ORTHOMODE
 70
     0
  9
$REGENMODE
 70
     1
  9
$FILLMODE
 70
     1
  9
$QTEXTMODE
 70
     0
  9
$MIRRTEXT
 70
     1
  9
$DRAGMODE
 70
     2
  9
$LTSCALE
 40
1.0
  9
$OSMODE
 70
     0
  9
$ATTMODE
 70
     1
  9
$TEXTSIZE
 40
4.0
  9
$TRACEWID
 40
0.05
  9
$TEXTSTYLE
  7
STYLE3
  9
$CLAYER
  8
QUOTE
  9
$CELTYPE
  6
BYLAYER
  9
$CECOLOR
 62
   256
  9
$CELTSCALE
 40
1.0
  9
$DELOBJ
 70
     1
  9
$DISPSILH
 70
     0
  9
$DIMSCALE
 40
1.0
  9
$DIMASZ
 40
2.5
  9
$DIMEXO
 40
0.625
  9
$DIMDLI
 40
3.75
  9
$DIMRND
 40
0.0
  9
$DIMDLE
 40
0.0
  9
$DIMEXE
 40
1.25
  9
$DIMTP
 40
0.0
  9
$DIMTM
 40
0.0
  9
$DIMTXT
 40
3.0
  9
$DIMCEN
 40
0.0
  9
$DIMTSZ
 40
0.0
  9
$DIMTOL
 70
     0
  9
$DIMLIM
 70
     0
  9
$DIMTIH
 70
     0
  9
$DIMTOH
 70
     0
  9
$DIMSE1
 70
     0
  9
$DIMSE2
 70
     0
  9
$DIMTAD
 70
     1
  9
$DIMZIN
 70
     8
  9
$DIMBLK
  1

  9
$DIMASO
 70
     1
  9
$DIMSHO
 70
     1
  9
$DIMPOST
  1

  9
$DIMAPOST
  1

  9
$DIMALT
 70
     0
  9
$DIMALTD
 70
     2
  9
$DIMALTF
 40
0.03937
  9
$DIMLFAC
 40
1.0
  9
$DIMTOFL
 70
     0
  9
$DIMTVP
 40
0.0
  9
$DIMTIX
 70
     0
  9
$DIMSOXD
 70
     0
  9
$DIMSAH
 70
     0
  9
$DIMBLK1
  1

  9
$DIMBLK2
  1

  9
$DIMSTYLE
  2
STANDARD
  9
$DIMCLRD
 70
     0
  9
$DIMCLRE
 70
     0
  9
$DIMCLRT
 70
     0
  9
$DIMTFAC
 40
1.0
  9
$DIMGAP
 40
0.625
  9
$DIMJUST
 70
     0
  9
$DIMSD1
 70
     0
  9
$DIMSD2
 70
     0
  9
$DIMTOLJ
 70
     1
  9
$DIMTZIN
 70
     8
  9
$DIMALTZ
 70
     0
  9
$DIMALTTZ
 70
     0
  9
$DIMFIT
 70
     3
  9
$DIMUPT
 70
     0
  9
$DIMUNIT
 70
     2
  9
$DIMDEC
 70
     2
  9
$DIMTDEC
 70
     2
  9
$DIMALTU
 70
     2
  9
$DIMALTTD
 70
     2
  9
$DIMTXSTY
  7
STANDARD
  9
$DIMAUNIT
 70
     0
  9
$LUNITS
 70
     2
  9
$LUPREC
 70
     4
  9
$SKETCHINC
 40
0.1
  9
$FILLETRAD
 40
4.1
  9
$AUNITS
 70
     0
  9
$AUPREC
 70
     0
  9
$MENU
  1
acad
  9
$ELEVATION
 40
0.0
  9
$PELEVATION
 40
0.0
  9
$THICKNESS
 40
0.0
  9
$LIMCHECK
 70
     0
  9
$BLIPMODE
 70
     1
  9
$CHAMFERA
 40
0.0
  9
$CHAMFERB
 40
0.0
  9
$CHAMFERC
 40
20.0
  9
$CHAMFERD
 40
0.0
  9
$SKPOLY
 70
     0
  9
$TDCREATE
 40
2452222.660825463
  9
$TDUPDATE
 40
2452611.649012616
  9
$TDINDWG
 40
0.0299591435
  9
$TDUSRTIMER
 40
0.0299591435
  9
$USRTIMER
 70
     1
  9
$ANGBASE
 50
0.0
  9
$ANGDIR
 70
     0
  9
$PDMODE
 70
     0
  9
$PDSIZE
 40
0.0
  9
$PLINEWID
 40
0.0
  9
$COORDS
 70
     1
  9
$SPLFRAME
 70
     0
  9
$SPLINETYPE
 70
     6
  9
$SPLINESEGS
 70
     8
  9
$ATTDIA
 70
     0
  9
$ATTREQ
 70
     1
  9
$HANDLING
 70
     1
  9
$HANDSEED
  5
D07
  9
$SURFTAB1
 70
     6
  9
$SURFTAB2
 70
     6
  9
$SURFTYPE
 70
     6
  9
$SURFU
 70
     6
  9
$SURFV
 70
     6
  9
$UCSNAME
  2

  9
$UCSORG
 10
0.0
 20
0.0
 30
0.0
  9
$UCSXDIR
 10
1.0
 20
0.0
 30
0.0
  9
$UCSYDIR
 10
0.0
 20
1.0
 30
0.0
  9
$PUCSNAME
  2

  9
$PUCSORG
 10
0.0
 20
0.0
 30
0.0
  9
$PUCSXDIR
 10
1.0
 20
0.0
 30
0.0
  9
$PUCSYDIR
 10
0.0
 20
1.0
 30
0.0
  9
$USERI1
 70
     0
  9
$USERI2
 70
     0
  9
$USERI3
 70
     0
  9
$USERI4
 70
     0
  9
$USERI5
 70
     0
  9
$USERR1
 40
0.0
  9
$USERR2
 40
0.0
  9
$USERR3
 40
0.0
  9
$USERR4
 40
0.0
  9
$USERR5
 40
0.0
  9
$WORLDVIEW
 70
     1
  9
$SHADEDGE
 70
     3
  9
$SHADEDIF
 70
    70
  9
$TILEMODE
 70
     1
  9
$MAXACTVP
 70
    16
  9
$PINSBASE
 10
0.0
 20
0.0
 30
0.0
  9
$PLIMCHECK
 70
     0
  9
$PEXTMIN
 10
1.000000E+20
 20
1.000000E+20
 30
1.000000E+20
  9
$PEXTMAX
 10
-1.000000E+20
 20
-1.000000E+20
 30
-1.000000E+20
  9
$PLIMMIN
 10
0.0
 20
0.0
  9
$PLIMMAX
 10
12.0
 20
9.0
  9
$UNITMODE
 70
     0
  9
$VISRETAIN
 70
     0
  9
$PLINEGEN
 70
     0
  9
$PSLTSCALE
 70
     1
  9
$TREEDEPTH
 70
  3020
  9
$PICKSTYLE
 70
     1
  9
$CMLSTYLE
  2
STANDARD
  9
$CMLJUST
 70
     0
  9
$CMLSCALE
 40
20.0
  9
$SAVEIMAGES
 70
     0
  0
ENDSEC
  0
SECTION
  2
CLASSES
  0
ENDSEC
  0
SECTION
  2
TABLES
  0
TABLE
  2
VPORT
  5
8
100
AcDbSymbolTable
 70
     2
  0
VPORT
  5
D06
100
AcDbSymbolTableRecord
100
AcDbViewportTableRecord
  2
*ACTIVE
 70
     0
 10
0.0
 20
0.0
 11
1.0
 21
1.0
 12
-1842.321162
 22
-1497.832047
 13
0.0
 23
0.0
 14
10.0
 24
10.0
 15
10.0
 25
10.0
 16
0.0
 26
0.0
 36
1.0
 17
0.0
 27
0.0
 37
0.0
 40
246.775291
 41
1.873134
 42
50.0
 43
0.0
 44
0.0
 50
0.0
 51
0.0
 71
     0
 72
   100
 73
     1
 74
     0
 75
     0
 76
     0
 77
     0
 78
     0
  0
ENDTAB
  0
TABLE
  2
LTYPE
  5
5
100
AcDbSymbolTable
 70
     4
  0
LTYPE
  5
13
100
AcDbSymbolTableRecord
100
AcDbLinetypeTableRecord
  2
BYBLOCK
 70
     0
  3

 72
    65
 73
     0
 40
0.0
  0
LTYPE
  5
14
100
AcDbSymbolTableRecord
100
AcDbLinetypeTableRecord
  2
BYLAYER
 70
     0
  3

 72
    65
 73
     0
 40
0.0
  0
LTYPE
  5
15
100
AcDbSymbolTableRecord
100
AcDbLinetypeTableRecord
  2
CONTINUOUS
 70
    64
  3
Solid line
 72
    65
 73
     0
 40
0.0
  0
LTYPE
  5
94
100
AcDbSymbolTableRecord
100
AcDbLinetypeTableRecord
  2
ACAD_ISO04W100
 70
    64
  3
____ . ____ . ____ . ____ . ____ . ____ . ____ 
 72
    65
 73
     4
 40
30.5
 49
24.0
 74
     0
 49
-3.0
 74
     0
 49
0.5
 74
     0
 49
-3.0
 74
     0
  0
LTYPE
  5
225
100
AcDbSymbolTableRecord
100
AcDbLinetypeTableRecord
  2
TRATTEGGIATAX2
 70
    64
  3
____  ____  ____  ____  ____  ____  ____  ____ 
 72
    65
 73
     2
 40
1.5
 49
1.0
 74
     0
 49
-0.5
 74
     0
  0
LTYPE
  5
226
100
AcDbSymbolTableRecord
100
AcDbLinetypeTableRecord
  2
NASCOSTA
 70
    64
  3
__ __ __ __ __ __ __ __ __ __ __ __ __ __ __ __
 72
    65
 73
     2
 40
0.375
 49
0.25
 74
     0
 49
-0.125
 74
     0
  0
ENDTAB
  0
TABLE
  2
LAYER
  5
2
100
AcDbSymbolTable
 70
    11
  0
LAYER
  5
F
100
AcDbSymbolTableRecord
100
AcDbLayerTableRecord
  2
0
 70
     0
 62
     7
  6
CONTINUOUS
  0
LAYER
  5
95
100
AcDbSymbolTableRecord
100
AcDbLayerTableRecord
  2
DISEGNO
 70
    64
 62
     7
  6
CONTINUOUS
  0
LAYER
  5
96
100
AcDbSymbolTableRecord
100
AcDbLayerTableRecord
  2
ASSI
 70
    64
 62
     1
  6
ACAD_ISO04W100
  0
LAYER
  5
97
100
AcDbSymbolTableRecord
100
AcDbLayerTableRecord
  2
SEZIONE
 70
    64
 62
     3
  6
CONTINUOUS
  0
LAYER
  5
98
100
AcDbSymbolTableRecord
100
AcDbLayerTableRecord
  2
TEMPRA
 70
    64
 62
     2
  6
CONTINUOUS
  0
LAYER
  5
99
100
AcDbSymbolTableRecord
100
AcDbLayerTableRecord
  2
QUOTE
 70
    64
 62
     5
  6
CONTINUOUS
  0
LAYER
  5
9A
100
AcDbSymbolTableRecord
100
AcDbLayerTableRecord
  2
FOGLIO
 70
    64
 62
     8
  6
CONTINUOUS
  0
LAYER
  5
1A3
100
AcDbSymbolTableRecord
100
AcDbLayerTableRecord
  2
TRATTO
 70
    64
 62
     6
  6
NASCOSTA
  0
LAYER
  5
28A
100
AcDbSymbolTableRecord
100
AcDbLayerTableRecord
  2
DEFPOINTS
 70
    64
 62
     7
  6
CONTINUOUS
  0
LAYER
  5
4A6
100
AcDbSymbolTableRecord
100
AcDbLayerTableRecord
  2
TABELLA
 70
    64
 62
     8
  6
CONTINUOUS
  0
LAYER
  5
9B6
100
AcDbSymbolTableRecord
100
AcDbLayerTableRecord
  2
OGGETTO
 70
    64
 62
   250
  6
CONTINUOUS
  0
ENDTAB
  0
TABLE
  2
STYLE
  5
3
100
AcDbSymbolTable
 70
     3
  0
STYLE
  5
10
100
AcDbSymbolTableRecord
100
AcDbTextStyleTableRecord
  2
STANDARD
 70
    64
 40
0.0
 41
1.1
 50
0.0
 71
     0
 42
3.0
  3
C:\Programmi\AutoCAD LT\isocp.shx
  4

  0
STYLE
  5
B0
100
AcDbSymbolTableRecord
100
AcDbTextStyleTableRecord
  2
STYLE3
 70
    64
 40
0.0
 41
1.5
 50
0.0
 71
     0
 42
4.0
  3
C:\Programmi\AutoCAD LT\isocp.shx
  4

  0
STYLE
  5
9B7
100
AcDbSymbolTableRecord
100
AcDbTextStyleTableRecord
  2
ARIAL
 70
    64
 40
5.0
 41
1.0
 50
0.0
 71
     0
 42
5.0
  3
C:\WINDOWS\FONTS\Arial.ttf
  4

  0
ENDTAB
  0
TABLE
  2
VIEW
  5
6
100
AcDbSymbolTable
 70
     0
  0
ENDTAB
  0
TABLE
  2
UCS
  5
7
100
AcDbSymbolTable
 70
     0
  0
ENDTAB
  0
TABLE
  2
APPID
  5
9
100
AcDbSymbolTable
 70
     1
  0
APPID
  5
11
100
AcDbSymbolTableRecord
100
AcDbRegAppTableRecord
  2
ACAD
 70
     0
  0
ENDTAB
  0
TABLE
  2
DIMSTYLE
  5
A
100
AcDbSymbolTable
 70
    13
  0
DIMSTYLE
105
1D
100
AcDbSymbolTableRecord
100
AcDbDimStyleTableRecord
  2
STANDARD
 70
     0
  3

  4

  5

  6

  7

 40
1.0
 41
2.5
 42
0.625
 43
3.75
 44
1.25
 45
0.0
 46
0.0
 47
0.0
 48
0.0
140
3.0
141
2.5
142
0.0
143
0.03937
144
1.0
145
0.0
146
1.0
147
0.625
 71
     0
 72
     0
 73
     0
 74
     0
 75
     0
 76
     0
 77
     1
 78
     8
170
     0
171
     2
172
     0
173
     0
174
     0
175
     0
176
     0
177
     0
178
     0
270
     2
271
     2
272
     2
273
     2
274
     2
340
10
275
     0
280
     0
281
     0
282
     0
283
     1
284
     8
285
     0
286
     0
287
     3
288
     0
  0
DIMSTYLE
105
198
100
AcDbSymbolTableRecord
100
AcDbDimStyleTableRecord
  2
TOLL-06
 70
     0
  3

  4

  5

  6

  7

 40
1.0
 41
2.5
 42
0.625
 43
3.75
 44
1.25
 45
0.0
 46
0.0
 47
-0.05
 48
0.0
140
3.0
141
2.5
142
0.0
143
0.03937
144
1.0
145
0.0
146
0.8
147
0.625
 71
     1
 72
     0
 73
     0
 74
     0
 75
     0
 76
     0
 77
     1
 78
     8
170
     0
171
     2
172
     0
173
     0
174
     0
175
     0
176
     0
177
     0
178
     0
270
     2
271
     2
272
     2
273
     2
274
     2
340
10
275
     0
280
     0
281
     0
282
     0
283
     2
284
     8
285
     0
286
     0
287
     3
288
     0
  0
DIMSTYLE
105
20B
100
AcDbSymbolTableRecord
100
AcDbDimStyleTableRecord
  2
TOLL-01
 70
     0
  3

  4

  5

  6

  7

 40
1.0
 41
2.5
 42
0.625
 43
3.75
 44
1.25
 45
0.0
 46
0.0
 47
0.02
 48
0.0
140
3.0
141
2.5
142
0.0
143
0.03937
144
1.0
145
0.0
146
0.8
147
0.625
 71
     1
 72
     0
 73
     0
 74
     0
 75
     0
 76
     0
 77
     1
 78
     8
170
     0
171
     2
172
     0
173
     0
174
     0
175
     0
176
     0
177
     0
178
     0
270
     2
271
     2
272
     2
273
     2
274
     2
340
10
275
     0
280
     0
281
     0
282
     0
283
     2
284
     8
285
     0
286
     0
287
     3
288
     0
  0
DIMSTYLE
105
232
100
AcDbSymbolTableRecord
100
AcDbDimStyleTableRecord
  2
TOLL-02
 70
     0
  3

  4

  5

  6

  7

 40
1.0
 41
2.5
 42
0.625
 43
3.75
 44
1.25
 45
0.0
 46
0.0
 47
-0.02
 48
0.0
140
3.0
141
2.5
142
0.0
143
0.03937
144
1.0
145
0.0
146
0.8
147
0.625
 71
     1
 72
     0
 73
     0
 74
     0
 75
     0
 76
     0
 77
     1
 78
     8
170
     0
171
     2
172
     0
173
     0
174
     0
175
     0
176
     0
177
     0
178
     0
270
     2
271
     2
272
     2
273
     2
274
     2
340
10
275
     0
280
     0
281
     0
282
     0
283
     2
284
     8
285
     0
286
     0
287
     3
288
     0
  0
DIMSTYLE
105
233
100
AcDbSymbolTableRecord
100
AcDbDimStyleTableRecord
  2
TOLL-03
 70
     0
  3

  4

  5

  6

  7

 40
1.0
 41
2.5
 42
0.625
 43
3.75
 44
1.25
 45
0.0
 46
0.0
 47
0.01
 48
0.01
140
3.0
141
2.5
142
0.0
143
0.03937
144
1.0
145
0.0
146
0.8
147
0.625
 71
     1
 72
     0
 73
     0
 74
     0
 75
     0
 76
     0
 77
     1
 78
     8
170
     0
171
     2
172
     0
173
     0
174
     0
175
     0
176
     0
177
     0
178
     0
270
     2
271
     2
272
     2
273
     2
274
     2
340
10
275
     0
280
     0
281
     0
282
     0
283
     2
284
     8
285
     0
286
     0
287
     3
288
     0
  0
DIMSTYLE
105
234
100
AcDbSymbolTableRecord
100
AcDbDimStyleTableRecord
  2
TOLL-04
 70
     0
  3

  4

  5

  6

  7

 40
1.0
 41
2.5
 42
0.625
 43
3.75
 44
1.25
 45
0.0
 46
0.0
 47
0.05
 48
0.05
140
3.0
141
2.5
142
0.0
143
0.03937
144
1.0
145
0.0
146
0.8
147
0.625
 71
     1
 72
     0
 73
     0
 74
     0
 75
     0
 76
     0
 77
     1
 78
     8
170
     0
171
     2
172
     0
173
     0
174
     0
175
     0
176
     0
177
     0
178
     0
270
     2
271
     2
272
     2
273
     2
274
     2
340
10
275
     0
280
     0
281
     0
282
     0
283
     2
284
     8
285
     0
286
     0
287
     3
288
     0
  0
DIMSTYLE
105
235
100
AcDbSymbolTableRecord
100
AcDbDimStyleTableRecord
  2
TOLL-05
 70
     0
  3

  4

  5

  6

  7

 40
1.0
 41
2.5
 42
0.625
 43
3.75
 44
1.25
 45
0.0
 46
0.0
 47
0.05
 48
0.0
140
3.0
141
2.5
142
0.0
143
0.03937
144
1.0
145
0.0
146
0.8
147
0.625
 71
     1
 72
     0
 73
     0
 74
     0
 75
     0
 76
     0
 77
     1
 78
     8
170
     0
171
     2
172
     0
173
     0
174
     0
175
     0
176
     0
177
     0
178
     0
270
     2
271
     2
272
     2
273
     2
274
     2
340
10
275
     0
280
     0
281
     0
282
     0
283
     2
284
     8
285
     0
286
     0
287
     3
288
     0
  0
DIMSTYLE
105
247
100
AcDbSymbolTableRecord
100
AcDbDimStyleTableRecord
  2
TOLL-07
 70
     0
  3

  4

  5

  6

  7

 40
1.0
 41
2.5
 42
0.625
 43
3.75
 44
1.25
 45
0.0
 46
0.0
 47
0.1
 48
0.1
140
3.0
141
2.5
142
0.0
143
0.03937
144
1.0
145
0.0
146
1.0
147
0.625
 71
     1
 72
     0
 73
     0
 74
     0
 75
     0
 76
     0
 77
     1
 78
     8
170
     0
171
     2
172
     0
173
     0
174
     0
175
     0
176
     0
177
     0
178
     0
270
     2
271
     2
272
     2
273
     2
274
     2
340
10
275
     0
280
     0
281
     0
282
     0
283
     1
284
     8
285
     0
286
     0
287
     3
288
     0
  0
DIMSTYLE
105
251
100
AcDbSymbolTableRecord
100
AcDbDimStyleTableRecord
  2
TOLL-08
 70
     0
  3

  4

  5

  6

  7

 40
1.0
 41
2.5
 42
0.625
 43
3.75
 44
1.25
 45
0.0
 46
0.0
 47
0.1
 48
0.0
140
3.0
141
2.5
142
0.0
143
0.03937
144
1.0
145
0.0
146
1.0
147
0.625
 71
     1
 72
     0
 73
     0
 74
     0
 75
     0
 76
     0
 77
     1
 78
     8
170
     0
171
     2
172
     0
173
     0
174
     0
175
     0
176
     0
177
     0
178
     0
270
     2
271
     2
272
     2
273
     2
274
     2
340
10
275
     0
280
     0
281
     0
282
     0
283
     1
284
     8
285
     0
286
     0
287
     3
288
     0
  0
DIMSTYLE
105
257
100
AcDbSymbolTableRecord
100
AcDbDimStyleTableRecord
  2
TOLL-09
 70
     0
  3

  4

  5

  6

  7

 40
1.0
 41
2.5
 42
0.625
 43
3.75
 44
1.25
 45
0.0
 46
0.0
 47
-0.1
 48
0.0
140
3.0
141
2.5
142
0.0
143
0.03937
144
1.0
145
0.0
146
1.0
147
0.625
 71
     1
 72
     0
 73
     0
 74
     0
 75
     0
 76
     0
 77
     1
 78
     8
170
     0
171
     2
172
     0
173
     0
174
     0
175
     0
176
     0
177
     0
178
     0
270
     2
271
     2
272
     2
273
     2
274
     2
340
10
275
     0
280
     0
281
     0
282
     0
283
     1
284
     8
285
     0
286
     0
287
     3
288
     0
  0
DIMSTYLE
105
258
100
AcDbSymbolTableRecord
100
AcDbDimStyleTableRecord
  2
TOLL-10
 70
     0
  3

  4

  5

  6

  7

 40
1.0
 41
2.5
 42
0.625
 43
3.75
 44
1.25
 45
0.0
 46
0.0
 47
0.2
 48
0.2
140
3.0
141
2.5
142
0.0
143
0.03937
144
1.0
145
0.0
146
1.0
147
0.625
 71
     1
 72
     0
 73
     0
 74
     0
 75
     0
 76
     0
 77
     1
 78
     8
170
     0
171
     2
172
     0
173
     0
174
     0
175
     0
176
     0
177
     0
178
     0
270
     2
271
     2
272
     2
273
     2
274
     2
340
10
275
     0
280
     0
281
     0
282
     0
283
     1
284
     8
285
     0
286
     0
287
     3
288
     0
  0
DIMSTYLE
105
259
100
AcDbSymbolTableRecord
100
AcDbDimStyleTableRecord
  2
TOLL-11
 70
     0
  3

  4

  5

  6

  7

 40
1.0
 41
2.5
 42
0.625
 43
3.75
 44
1.25
 45
0.0
 46
0.0
 47
0.2
 48
0.0
140
3.0
141
2.5
142
0.0
143
0.03937
144
1.0
145
0.0
146
1.0
147
0.625
 71
     1
 72
     0
 73
     0
 74
     0
 75
     0
 76
     0
 77
     1
 78
     8
170
     0
171
     2
172
     0
173
     0
174
     0
175
     0
176
     0
177
     0
178
     0
270
     2
271
     2
272
     2
273
     2
274
     2
340
10
275
     0
280
     0
281
     0
282
     0
283
     1
284
     8
285
     0
286
     0
287
     3
288
     0
  0
DIMSTYLE
105
4A7
100
AcDbSymbolTableRecord
100
AcDbDimStyleTableRecord
  2
ISO-25
 70
     0
  3

  4

  5

  6

  7

 40
1.0
 41
2.5
 42
0.625
 43
3.75
 44
1.25
 45
0.0
 46
0.0
 47
0.0
 48
0.0
140
2.5
141
2.5
142
0.0
143
0.0394
144
1.0
145
1.0
146
1.0
147
0.625
 71
     0
 72
     0
 73
     1
 74
     0
 75
     0
 76
     0
 77
     1
 78
     8
170
     0
171
     2
172
     1
173
     0
174
     0
175
     0
176
     0
177
     0
178
     0
270
     2
271
     4
272
     4
273
     2
274
     2
340
10
275
     0
280
     0
281
     0
282
     0
283
     1
284
     0
285
     0
286
     0
287
     3
288
     0
  0
ENDTAB
  0
TABLE
  2
BLOCK_RECORD
  5
1
100
AcDbSymbolTable
 70
    38
  0
BLOCK_RECORD
  5
19
100
AcDbSymbolTableRecord
100
AcDbBlockTableRecord
  2
*MODEL_SPACE
  0
BLOCK_RECORD
  5
16
100
AcDbSymbolTableRecord
100
AcDbBlockTableRecord
  2
*PAPER_SPACE
  0
BLOCK_RECORD
  5
3A2
100
AcDbSymbolTableRecord
100
AcDbBlockTableRecord
  2
RUGOSITA
  0
BLOCK_RECORD
  5
4A8
100
AcDbSymbolTableRecord
100
AcDbBlockTableRecord
  2
A$C52B2
  0
BLOCK_RECORD
  5
97D
100
AcDbSymbolTableRecord
100
AcDbBlockTableRecord
  2
*X2
  0
BLOCK_RECORD
  5
9B8
100
AcDbSymbolTableRecord
100
AcDbBlockTableRecord
  2
A$C31D0
  0
BLOCK_RECORD
  5
A2D
100
AcDbSymbolTableRecord
100
AcDbBlockTableRecord
  2
*D4
  0
BLOCK_RECORD
  5
A36
100
AcDbSymbolTableRecord
100
AcDbBlockTableRecord
  2
*D5
  0
BLOCK_RECORD
  5
A51
100
AcDbSymbolTableRecord
100
AcDbBlockTableRecord
  2
*D6
  0
BLOCK_RECORD
  5
A5F
100
AcDbSymbolTableRecord
100
AcDbBlockTableRecord
  2
*D7
  0
BLOCK_RECORD
  5
A77
100
AcDbSymbolTableRecord
100
AcDbBlockTableRecord
  2
*D8
  0
BLOCK_RECORD
  5
A85
100
AcDbSymbolTableRecord
100
AcDbBlockTableRecord
  2
*D9
  0
BLOCK_RECORD
  5
AA0
100
AcDbSymbolTableRecord
100
AcDbBlockTableRecord
  2
*D10
  0
BLOCK_RECORD
  5
AAD
100
AcDbSymbolTableRecord
100
AcDbBlockTableRecord
  2
*D11
  0
BLOCK_RECORD
  5
ABB
100
AcDbSymbolTableRecord
100
AcDbBlockTableRecord
  2
*D12
  0
BLOCK_RECORD
  5
AC8
100
AcDbSymbolTableRecord
100
AcDbBlockTableRecord
  2
*D13
  0
BLOCK_RECORD
  5
AD5
100
AcDbSymbolTableRecord
100
AcDbBlockTableRecord
  2
*D14
  0
BLOCK_RECORD
  5
AE4
100
AcDbSymbolTableRecord
100
AcDbBlockTableRecord
  2
*D15
  0
BLOCK_RECORD
  5
AFE
100
AcDbSymbolTableRecord
100
AcDbBlockTableRecord
  2
*D16
  0
BLOCK_RECORD
  5
B19
100
AcDbSymbolTableRecord
100
AcDbBlockTableRecord
  2
*D17
  0
BLOCK_RECORD
  5
B26
100
AcDbSymbolTableRecord
100
AcDbBlockTableRecord
  2
*D18
  0
BLOCK_RECORD
  5
B43
100
AcDbSymbolTableRecord
100
AcDbBlockTableRecord
  2
*D19
  0
BLOCK_RECORD
  5
B51
100
AcDbSymbolTableRecord
100
AcDbBlockTableRecord
  2
*D20
  0
BLOCK_RECORD
  5
B69
100
AcDbSymbolTableRecord
100
AcDbBlockTableRecord
  2
*D21
  0
BLOCK_RECORD
  5
B76
100
AcDbSymbolTableRecord
100
AcDbBlockTableRecord
  2
*D22
  0
BLOCK_RECORD
  5
B85
100
AcDbSymbolTableRecord
100
AcDbBlockTableRecord
  2
*D23
  0
BLOCK_RECORD
  5
B92
100
AcDbSymbolTableRecord
100
AcDbBlockTableRecord
  2
*D24
  0
BLOCK_RECORD
  5
B9F
100
AcDbSymbolTableRecord
100
AcDbBlockTableRecord
  2
*D25
  0
BLOCK_RECORD
  5
BA8
100
AcDbSymbolTableRecord
100
AcDbBlockTableRecord
  2
*D26
  0
BLOCK_RECORD
  5
BB5
100
AcDbSymbolTableRecord
100
AcDbBlockTableRecord
  2
*D27
  0
BLOCK_RECORD
  5
BC3
100
AcDbSymbolTableRecord
100
AcDbBlockTableRecord
  2
*D28
  0
BLOCK_RECORD
  5
BDC
100
AcDbSymbolTableRecord
100
AcDbBlockTableRecord
  2
*D29
  0
BLOCK_RECORD
  5
BEA
100
AcDbSymbolTableRecord
100
AcDbBlockTableRecord
  2
*D30
  0
BLOCK_RECORD
  5
BF7
100
AcDbSymbolTableRecord
100
AcDbBlockTableRecord
  2
*D31
  0
BLOCK_RECORD
  5
C1C
100
AcDbSymbolTableRecord
100
AcDbBlockTableRecord
  2
*D32
  0
BLOCK_RECORD
  5
C3B
100
AcDbSymbolTableRecord
100
AcDbBlockTableRecord
  2
*X33
  0
BLOCK_RECORD
  5
C6C
100
AcDbSymbolTableRecord
100
AcDbBlockTableRecord
  2
*D34
  0
BLOCK_RECORD
  5
C87
100
AcDbSymbolTableRecord
100
AcDbBlockTableRecord
  2
*D35
  0
BLOCK_RECORD
  5
CD2
100
AcDbSymbolTableRecord
100
AcDbBlockTableRecord
  2
*D36
  0
BLOCK_RECORD
  5
CDF
100
AcDbSymbolTableRecord
100
AcDbBlockTableRecord
  2
*D37
  0
ENDTAB
  0
ENDSEC
  0
SECTION
  2
BLOCKS
  0
BLOCK
  5
1A
100
AcDbEntity
  8
0
100
AcDbBlockBegin
  2
*MODEL_SPACE
 70
     0
 10
0.0
 20
0.0
 30
0.0
  3
*MODEL_SPACE
  1

  0
ENDBLK
  5
1B
100
AcDbEntity
  8
0
100
AcDbBlockEnd
  0
BLOCK
  5
17
100
AcDbEntity
 67
     1
  8
0
100
AcDbBlockBegin
  2
*PAPER_SPACE
 70
     0
 10
0.0
 20
0.0
 30
0.0
  3
*PAPER_SPACE
  1

  0
ENDBLK
  5
18
100
AcDbEntity
 67
     1
  8
0
100
AcDbBlockEnd
  0
BLOCK
  5
3A7
100
AcDbEntity
  8
DISEGNO
100
AcDbBlockBegin
  2
RUGOSITA
 70
     2
 10
0.0
 20
0.0
 30
0.0
  3
RUGOSITA
  1

  0
ATTDEF
  5
3A3
100
AcDbEntity
  8
QUOTE
100
AcDbText
 10
-1.071886
 20
3.214106
 30
0.0
 40
1.5
  1
0.8
100
AcDbAttributeDefinition
  3
CHE RUGOSITA ?
  2
RUGOSITA
 70
     0
  0
LINE
  5
3A4
100
AcDbEntity
  8
QUOTE
100
AcDbLine
 10
0.0
 20
0.0
 30
0.0
 11
4.0
 21
6.928203
 31
0.0
  0
LINE
  5
3A5
100
AcDbEntity
  8
QUOTE
100
AcDbLine
 10
0.0
 20
0.0
 30
0.0
 11
-1.75
 21
3.031089
 31
0.0
  0
LINE
  5
3A6
100
AcDbEntity
  8
QUOTE
100
AcDbLine
 10
-1.75
 20
3.031089
 30
0.0
 11
1.75
 21
3.031089
 31
0.0
  0
ENDBLK
  5
3A8
100
AcDbEntity
  8
DISEGNO
100
AcDbBlockEnd
  0
BLOCK
  5
547
100
AcDbEntity
  8
QUOTE
100
AcDbBlockBegin
  2
A$C52B2
 70
     0
 10
0.0
 20
0.0
 30
0.0
  3
A$C52B2
  1

  0
LINE
  5
4A9
100
AcDbEntity
  8
TABELLA
  6
CONTINUOUS
100
AcDbLine
 10
100.781064
 20
5.387067
 30
0.0
 11
103.281064
 21
0.387067
 31
0.0
  0
LINE
  5
4AA
100
AcDbEntity
  8
TABELLA
  6
CONTINUOUS
100
AcDbLine
 10
100.781064
 20
0.387067
 30
0.0
 11
103.281064
 21
0.387067
 31
0.0
  0
LINE
  5
4AB
100
AcDbEntity
  8
TABELLA
  6
CONTINUOUS
100
AcDbLine
 10
103.281064
 20
287.387067
 30
0.0
 11
100.781064
 21
282.387067
 31
0.0
  0
LINE
  5
4AC
100
AcDbEntity
  8
TABELLA
  6
CONTINUOUS
100
AcDbLine
 10
100.781064
 20
287.387067
 30
0.0
 11
103.281064
 21
287.387067
 31
0.0
  0
TEXT
  5
4AD
100
AcDbEntity
  8
TABELLA
  6
CONTINUOUS
100
AcDbText
 10
83.891226
 20
14.123583
 30
0.0
 40
6.0
  1
ROLLERI
100
AcDbText
  0
LINE
  5
4AE
100
AcDbEntity
  8
TABELLA
  6
CONTINUOUS
100
AcDbLine
 10
115.706968
 20
22.612261
 30
0.0
 11
84.107383
 21
22.612261
 31
0.0
1001
ACAD
1000
ASC_BOUNDS
1002
{
1070
    19
1002
}
  0
LINE
  5
4AF
100
AcDbEntity
  8
TABELLA
  6
CONTINUOUS
100
AcDbLine
 10
82.055262
 20
11.456564
 30
0.0
 11
113.654847
 21
11.456564
 31
0.0
1001
ACAD
1000
ASC_BOUNDS
1002
{
1070
    19
1002
}
  0
LINE
  5
4B0
100
AcDbEntity
  8
TABELLA
  6
CONTINUOUS
100
AcDbLine
 10
116.407176
 20
23.612261
 30
0.0
 11
83.407176
 21
23.612261
 31
0.0
1001
ACAD
1000
ASC_BOUNDS
1002
{
1070
    19
1002
}
  0
LINE
  5
4B1
100
AcDbEntity
  8
TABELLA
  6
CONTINUOUS
100
AcDbLine
 10
81.355055
 20
10.456564
 30
0.0
 11
114.355055
 21
10.456564
 31
0.0
1001
ACAD
1000
ASC_BOUNDS
1002
{
1070
    19
1002
}
  0
TEXT
  5
4B2
100
AcDbEntity
  8
TABELLA
  6
CONTINUOUS
100
AcDbText
 10
79.770815
 20
6.679292
 30
0.0
 40
2.0
  1
Vigolzone ( Piacenza ) - ITALIA
100
AcDbText
  0
LINE
  5
4B3
100
AcDbEntity
  8
TABELLA
  6
CONTINUOUS
100
AcDbLine
 10
125.782064
 20
35.387067
 30
0.0
 11
75.782064
 21
35.387067
 31
0.0
  0
LINE
  5
4B4
100
AcDbEntity
  8
TABELLA
  6
CONTINUOUS
100
AcDbLine
 10
195.782064
 20
45.387067
 30
0.0
 11
5.697058
 21
45.395351
 31
0.0
  0
LINE
  5
4B5
100
AcDbEntity
  8
TABELLA
  6
CONTINUOUS
100
AcDbLine
 10
125.782064
 20
25.387067
 30
0.0
 11
75.782064
 21
25.387067
 31
0.0
  0
LINE
  5
4B6
100
AcDbEntity
  8
TABELLA
  6
CONTINUOUS
100
AcDbLine
 10
195.782064
 20
5.387067
 30
0.0
 11
5.782064
 21
5.387067
 31
0.0
  0
LINE
  5
4B7
100
AcDbEntity
  8
TABELLA
  6
CONTINUOUS
100
AcDbLine
 10
5.782064
 20
282.387067
 30
0.0
 11
195.782064
 21
282.387067
 31
0.0
  0
LINE
  5
4B8
100
AcDbEntity
  8
TABELLA
  6
CONTINUOUS
100
AcDbLine
 10
5.782064
 20
143.887067
 30
0.0
 11
0.782064
 21
141.387067
 31
0.0
  0
LINE
  5
4B9
100
AcDbEntity
  8
TABELLA
  6
CONTINUOUS
100
AcDbLine
 10
0.782064
 20
143.887067
 30
0.0
 11
0.782064
 21
141.387067
 31
0.0
  0
LINE
  5
4BA
100
AcDbEntity
  8
TABELLA
  6
CONTINUOUS
100
AcDbLine
 10
5.782064
 20
5.387067
 30
0.0
 11
5.782064
 21
282.387067
 31
0.0
  0
POLYLINE
  5
4BB
100
AcDbEntity
  8
QUOTE
100
AcDb2dPolyline
 66
     1
 10
0.0
 20
0.0
 30
0.0
 70
     1
  0
VERTEX
  5
4BC
100
AcDbEntity
  8
QUOTE
100
AcDbVertex
100
AcDb2dVertex
 10
11.507487
 20
62.582414
 30
0.0
  0
VERTEX
  5
4BD
100
AcDbEntity
  8
QUOTE
100
AcDbVertex
100
AcDb2dVertex
 10
11.507487
 20
49.867806
 30
0.0
  0
VERTEX
  5
4BE
100
AcDbEntity
  8
QUOTE
100
AcDbVertex
100
AcDb2dVertex
 10
52.626527
 20
49.867806
 30
0.0
  0
VERTEX
  5
4BF
100
AcDbEntity
  8
QUOTE
100
AcDbVertex
100
AcDb2dVertex
 10
52.626527
 20
62.582414
 30
0.0
  0
SEQEND
  5
4C0
100
AcDbEntity
  8
QUOTE
  0
TOLERANCE
  5
4C1
100
AcDbEntity
  8
QUOTE
  6
CONTINUOUS
100
AcDbFcf
  3
ISO-25
 10
30.863585
 20
54.182522
 30
0.0
  1
{\Fgdt;u}%%v0.02%%v%%v%%v%%v
1001
ACAD
1000
DSTYLE
1002
{
1070
   140
1040
2.6
1070
    47
1040
0.02
1070
    73
1070
     0
1070
   272
1070
     2
1070
   147
1040
0.53
1070
    42
1040
0.5261
1070
    44
1040
1.0522
1070
    43
1040
3.1566
1070
   271
1070
     2
1070
   141
1040
2.1044
1070
    41
1040
2.6
1002
}
  0
TEXT
  5
4C2
100
AcDbEntity
  8
QUOTE
100
AcDbText
 10
12.101072
 20
58.118453
 30
0.0
 40
2.5
  1
TOLLERANZE AL METRO
 41
1.1
100
AcDbText
  0
TEXT
  5
4C3
100
AcDbEntity
  8
TABELLA
  6
CONTINUOUS
100
AcDbText
 10
7.271803
 20
15.7314
 30
0.0
 40
2.0
  1
- Angoli su superfici lavorate = +/- 30'
100
AcDbText
  0
TEXT
  5
4C4
100
AcDbEntity
  8
TABELLA
  6
CONTINUOUS
100
AcDbText
 10
7.271803
 20
23.3314
 30
0.0
 40
2.0
  1
   da mm 151 a mm 500 = +/- 0.4
100
AcDbText
  0
TEXT
  5
4C5
100
AcDbEntity
  8
TABELLA
  6
CONTINUOUS
100
AcDbText
 10
7.271803
 20
27.1314
 30
0.0
 40
2.0
  1
   da mm 51 a mm 150 = +/- 0.3
100
AcDbText
  0
TEXT
  5
4C6
100
AcDbEntity
  8
TABELLA
  6
CONTINUOUS
100
AcDbText
 10
7.271803
 20
30.9314
 30
0.0
 40
2.0
  1
- Superfici lavorate da mm 1 a mm 50 = +/- 0.2
100
AcDbText
  0
TEXT
  5
4C7
100
AcDbEntity
  8
TABELLA
  6
CONTINUOUS
100
AcDbText
 10
7.271803
 20
34.7314
 30
0.0
 40
2.0
  1
- Parti fuse con spessori >10 mm = +/- 10%
100
AcDbText
  0
TEXT
  5
4C8
100
AcDbEntity
  8
TABELLA
  6
CONTINUOUS
100
AcDbText
 10
7.271803
 20
38.5314
 30
0.0
 40
2.0
  1
- Parti fuse con spessori <10 mm = +/- 1 mm
100
AcDbText
  0
TOLERANCE
  5
4C9
100
AcDbEntity
  8
QUOTE
  6
CONTINUOUS
100
AcDbFcf
  3
ISO-25
 10
15.305627
 20
54.182522
 30
0.0
  1
{\Fgdt;b}%%v0.02%%v%%v%%v%%v
1001
ACAD
1000
DSTYLE
1002
{
1070
   140
1040
2.6
1070
    47
1040
0.02
1070
    73
1070
     0
1070
   272
1070
     2
1070
   147
1040
0.53
1070
    42
1040
0.5261
1070
    44
1040
1.0522
1070
    43
1040
3.1566
1070
   271
1070
     2
1070
   141
1040
2.1044
1070
    41
1040
2.6
1002
}
  0
TEXT
  5
4CA
100
AcDbEntity
  8
TABELLA
  6
CONTINUOUS
100
AcDbText
 10
0.769342
 20
51.259863
 30
0.0
 40
4.0
  1
B
100
AcDbText
  0
TEXT
  5
4CB
100
AcDbEntity
  8
TABELLA
  6
CONTINUOUS
100
AcDbText
 10
0.353187
 20
15.100813
 30
0.0
 40
4.0
  1
A
100
AcDbText
  0
LINE
  5
4CC
100
AcDbEntity
  8
TABELLA
  6
CONTINUOUS
100
AcDbLine
 10
5.782064
 20
36.262067
 30
0.0
 11
0.782064
 21
36.262067
 31
0.0
  0
TEXT
  5
4CD
100
AcDbEntity
  8
TABELLA
  6
CONTINUOUS
100
AcDbText
 10
15.583223
 20
0.138446
 30
0.0
 40
4.0
  1
6
100
AcDbText
  0
LINE
  5
4CE
100
AcDbEntity
  8
TABELLA
  6
CONTINUOUS
100
AcDbLine
 10
34.115064
 20
5.387067
 30
0.0
 11
34.115064
 21
0.387067
 31
0.0
  0
TEXT
  5
4CF
100
AcDbEntity
  8
TABELLA
  6
CONTINUOUS
100
AcDbText
 10
7.271803
 20
11.9314
 30
0.0
 40
2.0
  1
- Interassi fori = +/- 0.25
100
AcDbText
  0
TEXT
  5
4D0
100
AcDbEntity
  8
TABELLA
  6
CONTINUOUS
100
AcDbText
 10
7.271803
 20
19.5314
 30
0.0
 40
2.0
  1
   oltre 500 mm = +/- 0.5
100
AcDbText
  0
TEXT
  5
4D1
100
AcDbEntity
  8
TABELLA
  6
CONTINUOUS
100
AcDbText
 10
7.271803
 20
42.3314
 30
0.0
 40
2.0
  1
TOLLERANZE GENERALI :
100
AcDbText
  0
LINE
  5
4D2
100
AcDbEntity
  8
TABELLA
  6
CONTINUOUS
100
AcDbLine
 10
5.782064
 20
72.137067
 30
0.0
 11
0.782064
 21
72.137067
 31
0.0
  0
TEXT
  5
4D3
100
AcDbEntity
  8
TABELLA
  6
CONTINUOUS
100
AcDbText
 10
0.769342
 20
87.459725
 30
0.0
 40
4.0
  1
C
100
AcDbText
  0
LINE
  5
4D4
100
AcDbEntity
  8
TABELLA
  6
CONTINUOUS
100
AcDbLine
 10
5.782064
 20
108.012067
 30
0.0
 11
0.782064
 21
108.012067
 31
0.0
  0
TEXT
  5
4D5
100
AcDbEntity
  8
TABELLA
  6
CONTINUOUS
100
AcDbText
 10
0.769342
 20
124.034397
 30
0.0
 40
4.0
  1
D
100
AcDbText
  0
LINE
  5
4D6
100
AcDbEntity
  8
TABELLA
  6
CONTINUOUS
100
AcDbLine
 10
65.792444
 20
45.394891
 30
0.0
 11
65.782064
 21
5.389662
 31
0.0
  0
TEXT
  5
4D7
100
AcDbEntity
  8
TABELLA
  6
CONTINUOUS
100
AcDbText
 10
68.438556
 20
7.454028
 30
0.0
 40
1.5
  1
A termine di legge la Rolleri si riserva la
 50
90.0
100
AcDbText
  0
TEXT
  5
4D8
100
AcDbEntity
  8
TABELLA
  6
CONTINUOUS
100
AcDbText
 10
49.29176
 20
0.138446
 30
0.0
 40
4.0
  1
5
100
AcDbText
  0
LINE
  5
4D9
100
AcDbEntity
  8
TABELLA
  6
CONTINUOUS
100
AcDbLine
 10
67.448064
 20
5.387067
 30
0.0
 11
67.448064
 21
0.387067
 31
0.0
  0
LINE
  5
4DA
100
AcDbEntity
  8
TABELLA
  6
CONTINUOUS
100
AcDbLine
 10
75.792442
 20
45.387067
 30
0.0
 11
75.792442
 21
5.387067
 31
0.0
  0
TEXT
  5
4DB
100
AcDbEntity
  8
TABELLA
  6
CONTINUOUS
100
AcDbText
 10
74.138556
 20
7.454028
 30
0.0
 40
1.5
  1
di riprodurlo e di comunicarlo a terzi.
 50
90.0
100
AcDbText
  0
TEXT
  5
4DC
100
AcDbEntity
  8
TABELLA
  6
CONTINUOUS
100
AcDbText
 10
71.288556
 20
7.454028
 30
0.0
 40
1.5
  1
proprietà di questo disegno, con divieto
 50
90.0
100
AcDbText
  0
TEXT
  5
4DD
100
AcDbEntity
  8
TABELLA
  6
CONTINUOUS
100
AcDbText
 10
83.416451
 20
0.554068
 30
0.0
 40
4.0
  1
4
100
AcDbText
  0
LINE
  5
4DE
100
AcDbEntity
  8
TABELLA
  6
CONTINUOUS
100
AcDbLine
 10
98.281064
 20
0.387067
 30
0.0
 11
100.781064
 21
5.387067
 31
0.0
  0
LINE
  5
4DF
100
AcDbEntity
  8
TABELLA
  6
CONTINUOUS
100
AcDbLine
 10
100.781064
 20
5.387067
 30
0.0
 11
100.781064
 21
0.387067
 31
0.0
  0
LINE
  5
4E0
100
AcDbEntity
  8
TABELLA
  6
CONTINUOUS
100
AcDbLine
 10
100.781064
 20
0.387067
 30
0.0
 11
98.281064
 21
0.387067
 31
0.0
  0
TEXT
  5
4E1
100
AcDbEntity
  8
TABELLA
  6
CONTINUOUS
100
AcDbText
 10
77.180326
 20
42.484843
 30
0.0
 40
2.0
  1
Materiale
100
AcDbText
  0
TEXT
  5
4E2
100
AcDbEntity
  8
TABELLA
  6
CONTINUOUS
100
AcDbText
 10
76.949018
 20
32.320687
 30
0.0
 40
2.0
  1
Disegnato da
100
AcDbText
  0
LINE
  5
4E3
100
AcDbEntity
  8
TABELLA
  6
CONTINUOUS
100
AcDbLine
 10
84.107383
 20
22.612261
 30
0.0
 11
81.051152
 21
14.215335
 31
0.0
1001
ACAD
1000
ASC_BOUNDS
1002
{
1070
    19
1002
}
  0
LINE
  5
4E4
100
AcDbEntity
  8
TABELLA
  6
CONTINUOUS
100
AcDbLine
 10
83.407176
 20
23.612261
 30
0.0
 11
79.986974
 21
14.215335
 31
0.0
1001
ACAD
1000
ASC_BOUNDS
1002
{
1070
    19
1002
}
  0
LINE
  5
4E5
100
AcDbEntity
  8
TABELLA
  6
CONTINUOUS
100
AcDbLine
 10
81.051152
 20
14.215335
 30
0.0
 11
82.055262
 21
11.456564
 31
0.0
1001
ACAD
1000
ASC_BOUNDS
1002
{
1070
    19
1002
}
  0
LINE
  5
4E6
100
AcDbEntity
  8
TABELLA
  6
CONTINUOUS
100
AcDbLine
 10
79.986974
 20
14.215335
 30
0.0
 11
81.355055
 21
10.456564
 31
0.0
1001
ACAD
1000
ASC_BOUNDS
1002
{
1070
    19
1002
}
  0
LINE
  5
4E7
100
AcDbEntity
  8
TABELLA
  6
CONTINUOUS
100
AcDbLine
 10
100.782064
 20
35.387067
 30
0.0
 11
100.782064
 21
25.387067
 31
0.0
  0
TEXT
  5
4E8
100
AcDbEntity
  8
TABELLA
  6
CONTINUOUS
100
AcDbText
 10
1.185497
 20
230.800736
 30
0.0
 40
4.0
  1
G
100
AcDbText
  0
LINE
  5
4E9
100
AcDbEntity
  8
TABELLA
  6
CONTINUOUS
100
AcDbLine
 10
0.782064
 20
146.387067
 30
0.0
 11
5.782064
 21
143.887067
 31
0.0
  0
LINE
  5
4EA
100
AcDbEntity
  8
TABELLA
  6
CONTINUOUS
100
AcDbLine
 10
5.782064
 20
143.887067
 30
0.0
 11
0.782064
 21
143.887067
 31
0.0
  0
LINE
  5
4EB
100
AcDbEntity
  8
TABELLA
  6
CONTINUOUS
100
AcDbLine
 10
0.782064
 20
143.887067
 30
0.0
 11
0.782064
 21
146.387067
 31
0.0
  0
TEXT
  5
4EC
100
AcDbEntity
  8
TABELLA
  6
CONTINUOUS
100
AcDbText
 10
1.601651
 20
158.319393
 30
0.0
 40
4.0
  1
E
100
AcDbText
  0
LINE
  5
4ED
100
AcDbEntity
  8
TABELLA
  6
CONTINUOUS
100
AcDbLine
 10
5.782064
 20
179.762067
 30
0.0
 11
0.782064
 21
179.762067
 31
0.0
  0
TEXT
  5
4EE
100
AcDbEntity
  8
TABELLA
  6
CONTINUOUS
100
AcDbText
 10
1.185497
 20
195.309687
 30
0.0
 40
4.0
  1
F
100
AcDbText
  0
LINE
  5
4EF
100
AcDbEntity
  8
TABELLA
  6
CONTINUOUS
100
AcDbLine
 10
5.782064
 20
215.637067
 30
0.0
 11
0.782064
 21
215.637067
 31
0.0
  0
LINE
  5
4F0
100
AcDbEntity
  8
TABELLA
  6
CONTINUOUS
100
AcDbLine
 10
5.782064
 20
251.512067
 30
0.0
 11
0.782064
 21
251.512067
 31
0.0
  0
TEXT
  5
4F1
100
AcDbEntity
  8
TABELLA
  6
CONTINUOUS
100
AcDbText
 10
1.185497
 20
268.206651
 30
0.0
 40
4.0
  1
H
100
AcDbText
  0
TEXT
  5
4F2
100
AcDbEntity
  8
TABELLA
  6
CONTINUOUS
100
AcDbText
 10
15.583224
 20
283.209827
 30
0.0
 40
4.0
  1
6
100
AcDbText
  0
LINE
  5
4F3
100
AcDbEntity
  8
TABELLA
  6
CONTINUOUS
100
AcDbLine
 10
34.115064
 20
282.387067
 30
0.0
 11
34.115064
 21
287.387067
 31
0.0
  0
TEXT
  5
4F4
100
AcDbEntity
  8
TABELLA
  6
CONTINUOUS
100
AcDbText
 10
50.12407
 20
283.250638
 30
0.0
 40
4.0
  1
5
100
AcDbText
  0
LINE
  5
4F5
100
AcDbEntity
  8
TABELLA
  6
CONTINUOUS
100
AcDbLine
 10
67.448064
 20
282.387067
 30
0.0
 11
67.448064
 21
287.387067
 31
0.0
  0
TEXT
  5
4F6
100
AcDbEntity
  8
TABELLA
  6
CONTINUOUS
100
AcDbText
 10
83.832607
 20
283.250638
 30
0.0
 40
4.0
  1
4
100
AcDbText
  0
LINE
  5
4F7
100
AcDbEntity
  8
TABELLA
  6
CONTINUOUS
100
AcDbLine
 10
100.781064
 20
282.387067
 30
0.0
 11
98.281064
 21
287.387067
 31
0.0
  0
LINE
  5
4F8
100
AcDbEntity
  8
TABELLA
  6
CONTINUOUS
100
AcDbLine
 10
100.781064
 20
282.387067
 30
0.0
 11
100.781064
 21
287.387067
 31
0.0
  0
LINE
  5
4F9
100
AcDbEntity
  8
TABELLA
  6
CONTINUOUS
100
AcDbLine
 10
100.781064
 20
287.387067
 30
0.0
 11
98.281064
 21
287.387067
 31
0.0
  0
LINE
  5
4FA
100
AcDbEntity
  8
TABELLA
  6
CONTINUOUS
100
AcDbLine
 10
200.782064
 20
141.387067
 30
0.0
 11
195.782064
 21
143.887067
 31
0.0
  0
LINE
  5
4FB
100
AcDbEntity
  8
TABELLA
  6
CONTINUOUS
100
AcDbLine
 10
200.782064
 20
143.887067
 30
0.0
 11
200.782064
 21
141.387067
 31
0.0
  0
LINE
  5
4FC
100
AcDbEntity
  8
TABELLA
  6
CONTINUOUS
100
AcDbLine
 10
191.781227
 20
165.387241
 30
0.0
 11
191.781227
 21
45.387241
 31
0.0
  0
LINE
  5
4FD
100
AcDbEntity
  8
TABELLA
  6
CONTINUOUS
100
AcDbLine
 10
195.782064
 20
5.387067
 30
0.0
 11
195.782064
 21
282.387067
 31
0.0
  0
TEXT
  5
4FE
100
AcDbEntity
  8
TABELLA
  6
CONTINUOUS
100
AcDbText
 10
147.267168
 20
42.484843
 30
0.0
 40
2.0
  1
Trattamento Termico
100
AcDbText
  0
TEXT
  5
4FF
100
AcDbEntity
  8
TABELLA
  6
CONTINUOUS
100
AcDbText
 10
161.83968
 20
32.089683
 30
0.0
 40
2.0
  1
Scala
100
AcDbText
  0
TEXT
  5
500
100
AcDbEntity
  8
TABELLA
  6
CONTINUOUS
100
AcDbText
 10
162.070991
 20
12.223377
 30
0.0
 40
2.0
  1
Data
100
AcDbText
  0
LINE
  5
501
100
AcDbEntity
  8
TABELLA
  6
CONTINUOUS
100
AcDbLine
 10
125.782064
 20
35.387067
 30
0.0
 11
195.782064
 21
35.387067
 31
0.0
  0
LINE
  5
502
100
AcDbEntity
  8
TABELLA
  6
CONTINUOUS
100
AcDbLine
 10
125.782064
 20
25.387067
 30
0.0
 11
195.782064
 21
25.387067
 31
0.0
  0
LINE
  5
503
100
AcDbEntity
  8
TABELLA
  6
CONTINUOUS
100
AcDbLine
 10
120.666552
 20
15.457427
 30
0.0
 11
195.782064
 21
15.387067
 31
0.0
  0
TEXT
  5
504
100
AcDbEntity
  8
TABELLA
  6
CONTINUOUS
100
AcDbText
 10
116.965597
 20
42.484843
 30
0.0
 40
2.0
  1
Dimensioni di prelievo
100
AcDbText
  0
TEXT
  5
505
100
AcDbEntity
  8
TABELLA
  6
CONTINUOUS
100
AcDbText
 10
126.911915
 20
32.089683
 30
0.0
 40
2.0
  1
Approvato da - data
100
AcDbText
  0
TEXT
  5
506
100
AcDbEntity
  8
TABELLA
  6
CONTINUOUS
100
AcDbText
 10
121.823101
 20
22.387534
 30
0.0
 40
2.0
  1
Particolare
100
AcDbText
  0
LINE
  5
507
100
AcDbEntity
  8
TABELLA
  6
CONTINUOUS
100
AcDbLine
 10
120.782064
 20
15.387067
 30
0.0
 11
120.782064
 21
5.387067
 31
0.0
  0
TEXT
  5
508
100
AcDbEntity
  8
TABELLA
  6
CONTINUOUS
100
AcDbText
 10
116.708833
 20
0.138446
 30
0.0
 40
4.0
  1
3
100
AcDbText
  0
LINE
  5
509
100
AcDbEntity
  8
TABELLA
  6
CONTINUOUS
100
AcDbLine
 10
116.711078
 20
19.853491
 30
0.0
 11
115.706968
 21
22.612261
 31
0.0
1001
ACAD
1000
ASC_BOUNDS
1002
{
1070
    19
1002
}
  0
LINE
  5
50A
100
AcDbEntity
  8
TABELLA
  6
CONTINUOUS
100
AcDbLine
 10
113.654847
 20
11.456564
 30
0.0
 11
116.711078
 21
19.853491
 31
0.0
1001
ACAD
1000
ASC_BOUNDS
1002
{
1070
    19
1002
}
  0
LINE
  5
50B
100
AcDbEntity
  8
TABELLA
  6
CONTINUOUS
100
AcDbLine
 10
114.355055
 20
10.456564
 30
0.0
 11
117.775256
 21
19.853491
 31
0.0
1001
ACAD
1000
ASC_BOUNDS
1002
{
1070
    19
1002
}
  0
TEXT
  5
50C
100
AcDbEntity
  8
TABELLA
  6
CONTINUOUS
100
AcDbText
 10
101.930465
 20
32.089683
 30
0.0
 40
2.0
  1
Controllato da
100
AcDbText
  0
LINE
  5
50D
100
AcDbEntity
  8
TABELLA
  6
CONTINUOUS
100
AcDbLine
 10
115.782064
 20
35.387067
 30
0.0
 11
115.782064
 21
45.387067
 31
0.0
  0
LINE
  5
50E
100
AcDbEntity
  8
TABELLA
  6
CONTINUOUS
100
AcDbLine
 10
125.782064
 20
35.387067
 30
0.0
 11
125.782064
 21
25.387067
 31
0.0
  0
TEXT
  5
50F
100
AcDbEntity
  8
TABELLA
  6
CONTINUOUS
100
AcDbText
 10
121.591791
 20
12.223377
 30
0.0
 40
2.0
  1
Disegno
100
AcDbText
  0
LINE
  5
510
100
AcDbEntity
  8
TABELLA
  6
CONTINUOUS
100
AcDbLine
 10
117.775256
 20
19.853491
 30
0.0
 11
116.407176
 21
23.612261
 31
0.0
1001
ACAD
1000
ASC_BOUNDS
1002
{
1070
    19
1002
}
  0
LINE
  5
511
100
AcDbEntity
  8
TABELLA
  6
CONTINUOUS
100
AcDbLine
 10
120.782064
 20
25.387067
 30
0.0
 11
120.782064
 21
15.387067
 31
0.0
  0
LINE
  5
512
100
AcDbEntity
  8
TABELLA
  6
CONTINUOUS
100
AcDbLine
 10
160.782064
 20
15.387067
 30
0.0
 11
160.782064
 21
5.387067
 31
0.0
  0
LINE
  5
513
100
AcDbEntity
  8
TABELLA
  6
CONTINUOUS
100
AcDbLine
 10
134.114064
 20
5.387067
 30
0.0
 11
134.114064
 21
0.387067
 31
0.0
  0
TEXT
  5
514
100
AcDbEntity
  8
TABELLA
  6
CONTINUOUS
100
AcDbText
 10
150.41737
 20
0.138446
 30
0.0
 40
4.0
  1
2
100
AcDbText
  0
LINE
  5
515
100
AcDbEntity
  8
TABELLA
  6
CONTINUOUS
100
AcDbLine
 10
145.782064
 20
35.387067
 30
0.0
 11
145.782064
 21
45.387067
 31
0.0
  0
LINE
  5
516
100
AcDbEntity
  8
TABELLA
  6
CONTINUOUS
100
AcDbLine
 10
160.782064
 20
35.387067
 30
0.0
 11
160.782064
 21
25.387067
 31
0.0
  0
TEXT
  5
517
100
AcDbEntity
  8
TABELLA
  6
CONTINUOUS
100
AcDbText
 10
197.026704
 20
51.259863
 30
0.0
 40
4.0
  1
B
100
AcDbText
  0
TEXT
  5
518
100
AcDbEntity
  8
TABELLA
  6
CONTINUOUS
100
AcDbText
 10
195.001816
 20
46.303578
 30
0.0
 40
2.0
  1
N° rev.
 50
90.0
100
AcDbText
  0
LINE
  5
519
100
AcDbEntity
  8
TABELLA
  6
CONTINUOUS
100
AcDbLine
 10
176.747411
 20
30.474182
 30
0.0
 11
194.673913
 21
30.474182
 31
0.0
  0
LINE
  5
51A
100
AcDbEntity
  8
TABELLA
  6
CONTINUOUS
100
AcDbLine
 10
180.782064
 20
15.387067
 30
0.0
 11
180.782064
 21
5.387067
 31
0.0
  0
LINE
  5
51B
100
AcDbEntity
  8
TABELLA
  6
CONTINUOUS
100
AcDbLine
 10
167.447064
 20
5.387067
 30
0.0
 11
167.447064
 21
0.387067
 31
0.0
  0
TEXT
  5
51C
100
AcDbEntity
  8
TABELLA
  6
CONTINUOUS
100
AcDbText
 10
184.542061
 20
0.138446
 30
0.0
 40
4.0
  1
1
100
AcDbText
  0
LINE
  5
51D
100
AcDbEntity
  8
TABELLA
  6
CONTINUOUS
100
AcDbLine
 10
176.747411
 20
31.974182
 30
0.0
 11
182.656258
 21
33.016071
 31
0.0
  0
LINE
  5
51E
100
AcDbEntity
  8
TABELLA
  6
CONTINUOUS
100
AcDbLine
 10
176.747411
 20
28.974182
 30
0.0
 11
182.656258
 21
27.932293
 31
0.0
  0
LINE
  5
51F
100
AcDbEntity
  8
TABELLA
  6
CONTINUOUS
100
AcDbLine
 10
176.747411
 20
31.974182
 30
0.0
 11
176.747411
 21
28.974182
 31
0.0
  0
LINE
  5
520
100
AcDbEntity
  8
TABELLA
  6
CONTINUOUS
100
AcDbLine
 10
175.782064
 20
35.387067
 30
0.0
 11
175.782064
 21
25.387067
 31
0.0
  0
CIRCLE
  5
521
100
AcDbEntity
  8
TABELLA
  6
CONTINUOUS
100
AcDbCircle
 10
189.932065
 20
30.474182
 30
0.0
 40
1.5
  0
LINE
  5
522
100
AcDbEntity
  8
TABELLA
  6
CONTINUOUS
100
AcDbLine
 10
189.932065
 20
28.369782
 30
0.0
 11
189.932065
 21
32.578582
 31
0.0
  0
CIRCLE
  5
523
100
AcDbEntity
  8
TABELLA
  6
CONTINUOUS
100
AcDbCircle
 10
189.932065
 20
30.474182
 30
0.0
 40
2.54
  0
LINE
  5
524
100
AcDbEntity
  8
TABELLA
  6
CONTINUOUS
100
AcDbLine
 10
182.656258
 20
33.016071
 30
0.0
 11
182.656258
 21
27.932293
 31
0.0
  0
TEXT
  5
525
100
AcDbEntity
  8
TABELLA
  6
CONTINUOUS
100
AcDbText
 10
181.963625
 20
11.992375
 30
0.0
 40
2.0
  1
Formato
100
AcDbText
  0
LINE
  5
526
100
AcDbEntity
  8
TABELLA
  6
CONTINUOUS
100
AcDbLine
 10
187.827665
 20
30.474182
 30
0.0
 11
192.036465
 21
30.474182
 31
0.0
  0
LINE
  5
527
100
AcDbEntity
  8
TABELLA
  6
CONTINUOUS
100
AcDbLine
 10
195.782064
 20
5.387067
 30
0.0
 11
195.782064
 21
35.387067
 31
0.0
  0
TEXT
  5
528
100
AcDbEntity
  8
TABELLA
  6
CONTINUOUS
100
AcDbText
 10
197.026704
 20
14.685191
 30
0.0
 40
4.0
  1
A
100
AcDbText
  0
LINE
  5
529
100
AcDbEntity
  8
TABELLA
  6
CONTINUOUS
100
AcDbLine
 10
195.782064
 20
36.262067
 30
0.0
 11
200.782064
 21
36.262067
 31
0.0
  0
TEXT
  5
52A
100
AcDbEntity
  8
TABELLA
  6
CONTINUOUS
100
AcDbText
 10
195.209894
 20
130.984517
 30
0.0
 40
2.0
  1
Data
 50
90.0
100
AcDbText
  0
TEXT
  5
52B
100
AcDbEntity
  8
TABELLA
  6
CONTINUOUS
100
AcDbText
 10
195.209894
 20
56.278486
 30
0.0
 40
2.0
  1
Nota di revisione
 50
90.0
100
AcDbText
  0
LINE
  5
52C
100
AcDbEntity
  8
TABELLA
  6
CONTINUOUS
100
AcDbLine
 10
191.781227
 20
55.387241
 30
0.0
 11
195.782064
 21
55.387241
 31
0.0
  0
LINE
  5
52D
100
AcDbEntity
  8
TABELLA
  6
CONTINUOUS
100
AcDbLine
 10
191.781227
 20
130.387241
 30
0.0
 11
195.782064
 21
130.387241
 31
0.0
  0
LINE
  5
52E
100
AcDbEntity
  8
TABELLA
  6
CONTINUOUS
100
AcDbLine
 10
195.782064
 20
72.137067
 30
0.0
 11
200.782064
 21
72.137067
 31
0.0
  0
TEXT
  5
52F
100
AcDbEntity
  8
TABELLA
  6
CONTINUOUS
100
AcDbText
 10
197.442859
 20
87.459725
 30
0.0
 40
4.0
  1
C
100
AcDbText
  0
LINE
  5
530
100
AcDbEntity
  8
TABELLA
  6
CONTINUOUS
100
AcDbLine
 10
195.782064
 20
108.012067
 30
0.0
 11
200.782064
 21
108.012067
 31
0.0
  0
TEXT
  5
531
100
AcDbEntity
  8
TABELLA
  6
CONTINUOUS
100
AcDbText
 10
197.442859
 20
123.618776
 30
0.0
 40
4.0
  1
D
100
AcDbText
  0
TEXT
  5
532
100
AcDbEntity
  8
TABELLA
  6
CONTINUOUS
100
AcDbText
 10
116.708835
 20
283.250638
 30
0.0
 40
4.0
  1
3
100
AcDbText
  0
LINE
  5
533
100
AcDbEntity
  8
TABELLA
  6
CONTINUOUS
100
AcDbLine
 10
134.114064
 20
282.387067
 30
0.0
 11
134.114064
 21
287.387067
 31
0.0
  0
TEXT
  5
534
100
AcDbEntity
  8
TABELLA
  6
CONTINUOUS
100
AcDbText
 10
150.417372
 20
283.250638
 30
0.0
 40
4.0
  1
2
100
AcDbText
  0
TEXT
  5
535
100
AcDbEntity
  8
TABELLA
  6
CONTINUOUS
100
AcDbText
 10
197.026704
 20
230.800736
 30
0.0
 40
4.0
  1
G
100
AcDbText
  0
TEXT
  5
536
100
AcDbEntity
  8
TABELLA
  6
CONTINUOUS
100
AcDbText
 10
195.209894
 20
155.7956
 30
0.0
 40
2.0
  1
Control.
 50
90.0
100
AcDbText
  0
TEXT
  5
537
100
AcDbEntity
  8
TABELLA
  6
CONTINUOUS
100
AcDbText
 10
195.209894
 20
146.028502
 30
0.0
 40
2.0
  1
Firma
 50
90.0
100
AcDbText
  0
LINE
  5
538
100
AcDbEntity
  8
TABELLA
  6
CONTINUOUS
100
AcDbLine
 10
191.781227
 20
145.387241
 30
0.0
 11
195.782064
 21
145.387241
 31
0.0
  0
LINE
  5
539
100
AcDbEntity
  8
TABELLA
  6
CONTINUOUS
100
AcDbLine
 10
191.781227
 20
155.387241
 30
0.0
 11
195.782064
 21
155.387241
 31
0.0
  0
LINE
  5
53A
100
AcDbEntity
  8
TABELLA
  6
CONTINUOUS
100
AcDbLine
 10
191.781227
 20
165.387241
 30
0.0
 11
195.782064
 21
165.387241
 31
0.0
  0
LINE
  5
53B
100
AcDbEntity
  8
TABELLA
  6
CONTINUOUS
100
AcDbLine
 10
195.782064
 20
143.887067
 30
0.0
 11
200.782064
 21
146.387067
 31
0.0
  0
LINE
  5
53C
100
AcDbEntity
  8
TABELLA
  6
CONTINUOUS
100
AcDbLine
 10
195.782064
 20
143.887067
 30
0.0
 11
200.782064
 21
143.887067
 31
0.0
  0
LINE
  5
53D
100
AcDbEntity
  8
TABELLA
  6
CONTINUOUS
100
AcDbLine
 10
200.782064
 20
143.887067
 30
0.0
 11
200.782064
 21
146.387067
 31
0.0
  0
TEXT
  5
53E
100
AcDbEntity
  8
TABELLA
  6
CONTINUOUS
100
AcDbText
 10
197.442859
 20
158.319393
 30
0.0
 40
4.0
  1
E
100
AcDbText
  0
LINE
  5
53F
100
AcDbEntity
  8
TABELLA
  6
CONTINUOUS
100
AcDbLine
 10
195.782064
 20
179.762067
 30
0.0
 11
200.782064
 21
179.762067
 31
0.0
  0
TEXT
  5
540
100
AcDbEntity
  8
TABELLA
  6
CONTINUOUS
100
AcDbText
 10
197.859013
 20
195.309687
 30
0.0
 40
4.0
  1
F
100
AcDbText
  0
LINE
  5
541
100
AcDbEntity
  8
TABELLA
  6
CONTINUOUS
100
AcDbLine
 10
195.782064
 20
215.637067
 30
0.0
 11
200.782064
 21
215.637067
 31
0.0
  0
LINE
  5
542
100
AcDbEntity
  8
TABELLA
  6
CONTINUOUS
100
AcDbLine
 10
167.447064
 20
282.387067
 30
0.0
 11
167.447064
 21
287.387067
 31
0.0
  0
TEXT
  5
543
100
AcDbEntity
  8
TABELLA
  6
CONTINUOUS
100
AcDbText
 10
184.958217
 20
283.250638
 30
0.0
 40
4.0
  1
1
100
AcDbText
  0
LINE
  5
544
100
AcDbEntity
  8
TABELLA
  6
CONTINUOUS
100
AcDbLine
 10
195.782064
 20
282.387067
 30
0.0
 11
195.782064
 21
278.387067
 31
0.0
  0
LINE
  5
545
100
AcDbEntity
  8
TABELLA
  6
CONTINUOUS
100
AcDbLine
 10
195.782064
 20
251.512067
 30
0.0
 11
200.782064
 21
251.512067
 31
0.0
  0
TEXT
  5
546
100
AcDbEntity
  8
TABELLA
  6
CONTINUOUS
100
AcDbText
 10
197.026704
 20
268.206651
 30
0.0
 40
4.0
  1
H
100
AcDbText
  0
ENDBLK
  5
548
100
AcDbEntity
  8
QUOTE
100
AcDbBlockEnd
  0
BLOCK
  5
9B4
100
AcDbEntity
  8
0
100
AcDbBlockBegin
  2
*X2
 70
    65
 10
0.0
 20
0.0
 30
0.0
  3
*X2
  1

  0
LINE
  5
97E
100
AcDbEntity
  8
0
  6
CONTINUOUS
 62
     0
100
AcDbLine
 10
19.038869
 20
56.082425
 30
0.0
 11
20.115684
 21
57.15924
 31
0.0
  0
LINE
  5
97F
100
AcDbEntity
  8
0
  6
CONTINUOUS
 62
     0
100
AcDbLine
 10
20.115684
 20
57.15924
 30
0.0
 11
21.896429
 21
58.939986
 31
0.0
  0
LINE
  5
980
100
AcDbEntity
  8
0
  6
CONTINUOUS
 62
     0
100
AcDbLine
 10
18.928575
 20
56.196638
 30
0.0
 11
20.115684
 21
57.383747
 31
0.0
  0
LINE
  5
981
100
AcDbEntity
  8
0
  6
CONTINUOUS
 62
     0
100
AcDbLine
 10
20.115684
 20
57.383747
 30
0.0
 11
21.650202
 21
58.918265
 31
0.0
  0
LINE
  5
982
100
AcDbEntity
  8
0
  6
CONTINUOUS
 62
     0
100
AcDbLine
 10
18.818281
 20
56.310851
 30
0.0
 11
20.115684
 21
57.608253
 31
0.0
  0
LINE
  5
983
100
AcDbEntity
  8
0
  6
CONTINUOUS
 62
     0
100
AcDbLine
 10
20.115684
 20
57.608253
 30
0.0
 11
21.407461
 21
58.90003
 31
0.0
  0
LINE
  5
984
100
AcDbEntity
  8
0
  6
CONTINUOUS
 62
     0
100
AcDbLine
 10
18.707987
 20
56.425063
 30
0.0
 11
20.115684
 21
57.83276
 31
0.0
  0
LINE
  5
985
100
AcDbEntity
  8
0
  6
CONTINUOUS
 62
     0
100
AcDbLine
 10
20.115684
 20
57.83276
 30
0.0
 11
21.16805
 21
58.885126
 31
0.0
  0
LINE
  5
986
100
AcDbEntity
  8
0
  6
CONTINUOUS
 62
     0
100
AcDbLine
 10
18.597694
 20
56.539276
 30
0.0
 11
20.115684
 21
58.057266
 31
0.0
  0
LINE
  5
987
100
AcDbEntity
  8
0
  6
CONTINUOUS
 62
     0
100
AcDbLine
 10
20.115684
 20
58.057266
 30
0.0
 11
20.931831
 21
58.873413
 31
0.0
  0
LINE
  5
988
100
AcDbEntity
  8
0
  6
CONTINUOUS
 62
     0
100
AcDbLine
 10
18.4874
 20
56.653488
 30
0.0
 11
20.115684
 21
58.281772
 31
0.0
  0
LINE
  5
989
100
AcDbEntity
  8
0
  6
CONTINUOUS
 62
     0
100
AcDbLine
 10
20.115684
 20
58.281772
 30
0.0
 11
20.698672
 21
58.864761
 31
0.0
  0
LINE
  5
98A
100
AcDbEntity
  8
0
  6
CONTINUOUS
 62
     0
100
AcDbLine
 10
18.377106
 20
56.767701
 30
0.0
 11
20.115684
 21
58.506279
 31
0.0
  0
LINE
  5
98B
100
AcDbEntity
  8
0
  6
CONTINUOUS
 62
     0
100
AcDbLine
 10
20.115684
 20
58.506279
 30
0.0
 11
20.468454
 21
58.859049
 31
0.0
  0
LINE
  5
98C
100
AcDbEntity
  8
0
  6
CONTINUOUS
 62
     0
100
AcDbLine
 10
18.266812
 20
56.881913
 30
0.0
 11
20.115684
 21
58.730785
 31
0.0
  0
LINE
  5
98D
100
AcDbEntity
  8
0
  6
CONTINUOUS
 62
     0
100
AcDbLine
 10
20.115684
 20
58.730785
 30
0.0
 11
20.241066
 21
58.856167
 31
0.0
  0
LINE
  5
98E
100
AcDbEntity
  8
0
  6
CONTINUOUS
 62
     0
100
AcDbLine
 10
18.156518
 20
56.996126
 30
0.0
 11
20.016404
 21
58.856011
 31
0.0
  0
LINE
  5
98F
100
AcDbEntity
  8
0
  6
CONTINUOUS
 62
     0
100
AcDbLine
 10
18.046225
 20
57.110339
 30
0.0
 11
19.794373
 21
58.858487
 31
0.0
  0
LINE
  5
990
100
AcDbEntity
  8
0
  6
CONTINUOUS
 62
     0
100
AcDbLine
 10
17.935931
 20
57.224551
 30
0.0
 11
19.574883
 21
58.863503
 31
0.0
  0
LINE
  5
991
100
AcDbEntity
  8
0
  6
CONTINUOUS
 62
     0
100
AcDbLine
 10
17.825637
 20
57.338764
 30
0.0
 11
19.357851
 21
58.870978
 31
0.0
  0
LINE
  5
992
100
AcDbEntity
  8
0
  6
CONTINUOUS
 62
     0
100
AcDbLine
 10
17.715343
 20
57.452976
 30
0.0
 11
19.1432
 21
58.880833
 31
0.0
  0
LINE
  5
993
100
AcDbEntity
  8
0
  6
CONTINUOUS
 62
     0
100
AcDbLine
 10
17.605049
 20
57.567189
 30
0.0
 11
18.930855
 21
58.892995
 31
0.0
  0
LINE
  5
994
100
AcDbEntity
  8
0
  6
CONTINUOUS
 62
     0
100
AcDbLine
 10
17.494755
 20
57.681402
 30
0.0
 11
18.720748
 21
58.907395
 31
0.0
  0
LINE
  5
995
100
AcDbEntity
  8
0
  6
CONTINUOUS
 62
     0
100
AcDbLine
 10
17.384462
 20
57.795614
 30
0.0
 11
18.512816
 21
58.923969
 31
0.0
  0
LINE
  5
996
100
AcDbEntity
  8
0
  6
CONTINUOUS
 62
     0
100
AcDbLine
 10
17.274168
 20
57.909827
 30
0.0
 11
18.306997
 21
58.942656
 31
0.0
  0
LINE
  5
997
100
AcDbEntity
  8
0
  6
CONTINUOUS
 62
     0
100
AcDbLine
 10
17.163874
 20
58.024039
 30
0.0
 11
18.103234
 21
58.963399
 31
0.0
  0
LINE
  5
998
100
AcDbEntity
  8
0
  6
CONTINUOUS
 62
     0
100
AcDbLine
 10
17.05358
 20
58.138252
 30
0.0
 11
17.901474
 21
58.986145
 31
0.0
  0
LINE
  5
999
100
AcDbEntity
  8
0
  6
CONTINUOUS
 62
     0
100
AcDbLine
 10
16.943286
 20
58.252465
 30
0.0
 11
17.701664
 21
59.010843
 31
0.0
  0
LINE
  5
99A
100
AcDbEntity
  8
0
  6
CONTINUOUS
 62
     0
100
AcDbLine
 10
16.832993
 20
58.366677
 30
0.0
 11
17.503759
 21
59.037443
 31
0.0
  0
LINE
  5
99B
100
AcDbEntity
  8
0
  6
CONTINUOUS
 62
     0
100
AcDbLine
 10
16.722699
 20
58.48089
 30
0.0
 11
17.30771
 21
59.065901
 31
0.0
  0
LINE
  5
99C
100
AcDbEntity
  8
0
  6
CONTINUOUS
 62
     0
100
AcDbLine
 10
16.612405
 20
58.595102
 30
0.0
 11
17.113477
 21
59.096174
 31
0.0
  0
LINE
  5
99D
100
AcDbEntity
  8
0
  6
CONTINUOUS
 62
     0
100
AcDbLine
 10
16.502111
 20
58.709315
 30
0.0
 11
16.921017
 21
59.12822
 31
0.0
  0
LINE
  5
99E
100
AcDbEntity
  8
0
  6
CONTINUOUS
 62
     0
100
AcDbLine
 10
16.391817
 20
58.823528
 30
0.0
 11
16.730291
 21
59.162001
 31
0.0
  0
LINE
  5
99F
100
AcDbEntity
  8
0
  6
CONTINUOUS
 62
     0
100
AcDbLine
 10
16.281524
 20
58.93774
 30
0.0
 11
16.541263
 21
59.19748
 31
0.0
  0
LINE
  5
9A0
100
AcDbEntity
  8
0
  6
CONTINUOUS
 62
     0
100
AcDbLine
 10
16.17123
 20
59.051953
 30
0.0
 11
16.353898
 21
59.234621
 31
0.0
  0
LINE
  5
9A1
100
AcDbEntity
  8
0
  6
CONTINUOUS
 62
     0
100
AcDbLine
 10
16.060936
 20
59.166165
 30
0.0
 11
16.168162
 21
59.273391
 31
0.0
  0
LINE
  5
9A2
100
AcDbEntity
  8
0
  6
CONTINUOUS
 62
     0
100
AcDbLine
 10
15.950642
 20
59.280378
 30
0.0
 11
15.984023
 21
59.313759
 31
0.0
  0
LINE
  5
9A3
100
AcDbEntity
  8
0
  6
CONTINUOUS
 62
     0
100
AcDbLine
 10
19.149163
 20
55.968213
 30
0.0
 11
20.115684
 21
56.934734
 31
0.0
  0
LINE
  5
9A4
100
AcDbEntity
  8
0
  6
CONTINUOUS
 62
     0
100
AcDbLine
 10
20.115684
 20
56.934734
 30
0.0
 11
22.146308
 21
58.965358
 31
0.0
  0
LINE
  5
9A5
100
AcDbEntity
  8
0
  6
CONTINUOUS
 62
     0
100
AcDbLine
 10
19.259457
 20
55.854
 30
0.0
 11
20.115684
 21
56.710228
 31
0.0
  0
LINE
  5
9A6
100
AcDbEntity
  8
0
  6
CONTINUOUS
 62
     0
100
AcDbLine
 10
20.115684
 20
56.710228
 30
0.0
 11
22.400023
 21
58.994567
 31
0.0
  0
LINE
  5
9A7
100
AcDbEntity
  8
0
  6
CONTINUOUS
 62
     0
100
AcDbLine
 10
19.36975
 20
55.739788
 30
0.0
 11
20.115684
 21
56.485721
 31
0.0
  0
LINE
  5
9A8
100
AcDbEntity
  8
0
  6
CONTINUOUS
 62
     0
100
AcDbLine
 10
20.115684
 20
56.485721
 30
0.0
 11
22.657776
 21
59.027813
 31
0.0
  0
LINE
  5
9A9
100
AcDbEntity
  8
0
  6
CONTINUOUS
 62
     0
100
AcDbLine
 10
19.480044
 20
55.625575
 30
0.0
 11
20.115684
 21
56.261215
 31
0.0
  0
LINE
  5
9AA
100
AcDbEntity
  8
0
  6
CONTINUOUS
 62
     0
100
AcDbLine
 10
20.115684
 20
56.261215
 30
0.0
 11
22.919789
 21
59.065319
 31
0.0
  0
LINE
  5
9AB
100
AcDbEntity
  8
0
  6
CONTINUOUS
 62
     0
100
AcDbLine
 10
19.592641
 20
55.513665
 30
0.0
 11
20.115684
 21
56.036708
 31
0.0
  0
LINE
  5
9AC
100
AcDbEntity
  8
0
  6
CONTINUOUS
 62
     0
100
AcDbLine
 10
20.115684
 20
56.036708
 30
0.0
 11
23.186307
 21
59.107332
 31
0.0
  0
LINE
  5
9AD
100
AcDbEntity
  8
0
  6
CONTINUOUS
 62
     0
100
AcDbLine
 10
19.724591
 20
55.421109
 30
0.0
 11
20.115684
 21
55.812202
 31
0.0
  0
LINE
  5
9AE
100
AcDbEntity
  8
0
  6
CONTINUOUS
 62
     0
100
AcDbLine
 10
20.115684
 20
55.812202
 30
0.0
 11
23.457606
 21
59.154124
 31
0.0
  0
LINE
  5
9AF
100
AcDbEntity
  8
0
  6
CONTINUOUS
 62
     0
100
AcDbLine
 10
19.881904
 20
55.353916
 30
0.0
 11
20.115684
 21
55.587696
 31
0.0
  0
LINE
  5
9B0
100
AcDbEntity
  8
0
  6
CONTINUOUS
 62
     0
100
AcDbLine
 10
20.115684
 20
55.587696
 30
0.0
 11
23.733991
 21
59.206003
 31
0.0
  0
LINE
  5
9B1
100
AcDbEntity
  8
0
  6
CONTINUOUS
 62
     0
100
AcDbLine
 10
20.072649
 20
55.320154
 30
0.0
 11
20.115684
 21
55.363189
 31
0.0
  0
LINE
  5
9B2
100
AcDbEntity
  8
0
  6
CONTINUOUS
 62
     0
100
AcDbLine
 10
20.115684
 20
55.363189
 30
0.0
 11
24.015807
 21
59.263312
 31
0.0
  0
LINE
  5
9B3
100
AcDbEntity
  8
0
  6
CONTINUOUS
 62
     0
100
AcDbLine
 10
20.323446
 20
55.346445
 30
0.0
 11
24.303442
 21
59.326441
 31
0.0
  0
ENDBLK
  5
9B5
100
AcDbEntity
  8
0
100
AcDbBlockEnd
  0
BLOCK
  5
9D4
100
AcDbEntity
  8
DISEGNO
100
AcDbBlockBegin
  2
A$C31D0
 70
     0
 10
0.0
 20
0.0
 30
0.0
  3
A$C31D0
  1

  0
ARC
  5
9B9
100
AcDbEntity
  8
OGGETTO
  6
CONTINUOUS
100
AcDbCircle
 10
18.604157
 20
55.35362
 30
0.0
 40
22.0
100
AcDbArc
 50
331.96589
 51
54.290314
  0
LINE
  5
9BA
100
AcDbEntity
  8
OGGETTO
  6
CONTINUOUS
100
AcDbLine
 10
65.404157
 20
90.00362
 30
0.0
 11
65.404157
 21
48.040395
 31
0.0
  0
LINE
  5
9BB
100
AcDbEntity
  8
OGGETTO
  6
CONTINUOUS
100
AcDbLine
 10
27.352786
 20
8.637047
 30
0.0
 11
65.404157
 21
48.040395
 31
0.0
1001
ACAD
1000
ASC_BOUNDS
1002
{
1070
    19
1002
}
  0
LINE
  5
9BC
100
AcDbEntity
  8
OGGETTO
  6
CONTINUOUS
100
AcDbLine
 10
13.46103
 20
7.191794
 30
0.0
 11
38.022852
 21
45.013683
 31
0.0
  0
INSERT
  5
9BD
100
AcDbEntity
  8
OGGETTO
  6
CONTINUOUS
100
AcDbBlockReference
  2
*X2
 10
0.288473
 20
-54.965376
 30
0.0
1001
ACAD
1000
HATCH
1002
{
1070
    19
1000
ANSI31
1040
0.05
1040
6.238117
1000
ASC_BOUNDS
1070
     2
1070
     1
1070
     4
1005
9BE
1005
9BF
1005
9C1
1005
0
1070
     1
1070
     4
1005
9BE
1005
0
1005
9C1
1005
9C0
1000
ASC_SEEDPOINT
1011
21.707577
1021
2.635656
1031
0.0
1002
}
  0
ARC
  5
9BE
100
AcDbEntity
  8
OGGETTO
  6
CONTINUOUS
100
AcDbCircle
 10
20.404157
 20
22.755071
 30
0.0
 40
18.864697
100
AcDbArc
 50
257.298648
 51
282.912899
1001
ACAD
1000
ASC_BOUNDS
1002
{
1070
    19
1005
9BD
1005
9BD
1002
}
  0
LINE
  5
9BF
100
AcDbEntity
  8
OGGETTO
  6
CONTINUOUS
100
AcDbLine
 10
19.828685
 20
0.597893
 30
0.0
 11
13.46103
 21
7.191794
 31
0.0
1001
ACAD
1000
ASC_BOUNDS
1002
{
1070
    19
1005
9BD
1002
}
  0
LINE
  5
9C0
100
AcDbEntity
  8
OGGETTO
  6
CONTINUOUS
100
AcDbLine
 10
20.979629
 20
0.597893
 30
0.0
 11
27.352786
 21
7.197491
 31
0.0
1001
ACAD
1000
ASC_BOUNDS
1002
{
1070
    19
1005
9BD
1002
}
  0
ARC
  5
9C1
100
AcDbEntity
  8
OGGETTO
  6
CONTINUOUS
100
AcDbCircle
 10
20.404157
 20
1.15362
 30
0.0
 40
0.8
100
AcDbArc
 50
224.0
 51
316.0
1001
ACAD
1000
ASC_BOUNDS
1002
{
1070
    19
1005
9BD
1005
9BD
1002
}
  0
LINE
  5
9C2
100
AcDbEntity
  8
OGGETTO
  6
CONTINUOUS
100
AcDbLine
 10
27.352786
 20
7.197491
 30
0.0
 11
27.352786
 21
8.637047
 31
0.0
  0
LINE
  5
9C3
100
AcDbEntity
  8
OGGETTO
  6
CONTINUOUS
100
AcDbLine
 10
31.445084
 20
73.217287
 30
0.0
 11
0.404157
 21
91.138774
 31
0.0
  0
LINE
  5
9C4
100
AcDbEntity
  8
OGGETTO
  6
CONTINUOUS
 48
2.0
100
AcDbLine
 10
1.404157
 20
134.85362
 30
0.0
 11
12.404157
 21
134.85362
 31
0.0
  0
LINE
  5
9C5
100
AcDbEntity
  8
OGGETTO
  6
CONTINUOUS
100
AcDbLine
 10
0.404157
 20
109.30362
 30
0.0
 11
0.404157
 21
91.138774
 31
0.0
  0
LINE
  5
9C6
100
AcDbEntity
  8
OGGETTO
  6
CONTINUOUS
 48
2.0
100
AcDbLine
 10
0.404157
 20
133.85362
 30
0.0
 11
0.404157
 21
118.30362
 31
0.0
  0
LINE
  5
9C7
100
AcDbEntity
  8
OGGETTO
  6
CONTINUOUS
 48
2.0
100
AcDbLine
 10
3.904157
 20
118.00362
 30
0.0
 11
3.904157
 21
109.60362
 31
0.0
  0
LINE
  5
9C8
100
AcDbEntity
  8
OGGETTO
  6
CONTINUOUS
 48
2.0
100
AcDbLine
 10
3.904157
 20
109.60362
 30
0.0
 11
0.704157
 21
109.60362
 31
0.0
  0
LINE
  5
9C9
100
AcDbEntity
  8
OGGETTO
  6
CONTINUOUS
100
AcDbLine
 10
0.704157
 20
109.60362
 30
0.0
 11
0.404157
 21
109.30362
 31
0.0
  0
LINE
  5
9CA
100
AcDbEntity
  8
OGGETTO
  6
CONTINUOUS
 48
2.0
100
AcDbLine
 10
0.704157
 20
118.00362
 30
0.0
 11
3.904157
 21
118.00362
 31
0.0
  0
LINE
  5
9CB
100
AcDbEntity
  8
OGGETTO
  6
CONTINUOUS
 48
2.0
100
AcDbLine
 10
0.704157
 20
118.00362
 30
0.0
 11
0.404157
 21
118.30362
 31
0.0
  0
LINE
  5
9CC
100
AcDbEntity
  8
OGGETTO
  6
CONTINUOUS
 48
2.0
100
AcDbLine
 10
0.404157
 20
133.85362
 30
0.0
 11
1.404157
 21
134.85362
 31
0.0
  0
LINE
  5
9CD
100
AcDbEntity
  8
OGGETTO
  6
CONTINUOUS
 48
2.0
100
AcDbLine
 10
0.404157
 20
133.85362
 30
0.0
 11
1.404157
 21
134.85362
 31
0.0
  0
LINE
  5
9CE
100
AcDbEntity
  8
OGGETTO
  6
CONTINUOUS
100
AcDbLine
 10
28.904157
 20
104.50362
 30
0.0
 11
50.904157
 21
104.50362
 31
0.0
  0
LINE
  5
9CF
100
AcDbEntity
  8
OGGETTO
  6
CONTINUOUS
 48
2.0
100
AcDbLine
 10
13.404157
 20
133.85362
 30
0.0
 11
13.404157
 21
105.00362
 31
0.0
  0
LINE
  5
9D0
100
AcDbEntity
  8
OGGETTO
  6
CONTINUOUS
100
AcDbLine
 10
13.404157
 20
105.00362
 30
0.0
 11
28.404157
 21
105.00362
 31
0.0
  0
LINE
  5
9D1
100
AcDbEntity
  8
OGGETTO
  6
CONTINUOUS
100
AcDbLine
 10
28.404157
 20
105.00362
 30
0.0
 11
28.904157
 21
104.50362
 31
0.0
  0
LINE
  5
9D2
100
AcDbEntity
  8
OGGETTO
  6
CONTINUOUS
 48
2.0
100
AcDbLine
 10
12.404157
 20
134.85362
 30
0.0
 11
13.404157
 21
133.85362
 31
0.0
  0
LINE
  5
9D3
100
AcDbEntity
  8
OGGETTO
  6
CONTINUOUS
100
AcDbLine
 10
50.904157
 20
104.50362
 30
0.0
 11
65.404157
 21
90.00362
 31
0.0
  0
ENDBLK
  5
9D5
100
AcDbEntity
  8
DISEGNO
100
AcDbBlockEnd
  0
BLOCK
  5
A4A
100
AcDbEntity
  8
0
100
AcDbBlockBegin
  2
*D4
 70
    65
 10
0.0
 20
0.0
 30
0.0
  3
*D4
  1

  0
LINE
  5
A4B
100
AcDbEntity
  8
0
  6
BYBLOCK
 62
     0
100
AcDbLine
 10
-1586.973737
 20
-1510.938809
 30
0.0
 11
-1569.186179
 21
-1502.948015
 31
0.0
  0
SOLID
  5
A4C
100
AcDbEntity
  8
0
  6
BYBLOCK
 62
     0
100
AcDbTrace
 10
-1569.356923
 20
-1502.567939
 30
0.0
 11
-1569.015436
 21
-1503.328091
 31
0.0
 12
-1566.905723
 22
-1501.923554
 32
0.0
 13
-1566.905723
 23
-1501.923554
 33
0.0
  0
MTEXT
  5
A4D
100
AcDbEntity
  8
0
  6
BYBLOCK
 62
     0
100
AcDbMText
 10
-1577.810642
 20
-1504.492524
 30
0.0
 40
3.0
 41
0.0
 71
     5
 72
     1
  1
\A1;R22
 11
0.912182
 21
0.409784
 31
0.0
  0
POINT
  5
A4E
100
AcDbEntity
  8
DEFPOINTS
  6
BYBLOCK
 62
     0
100
AcDbPoint
 10
-1566.905723
 20
-1501.923554
 30
0.0
  0
POINT
  5
A4F
100
AcDbEntity
  8
DEFPOINTS
  6
BYBLOCK
 62
     0
100
AcDbPoint
 10
-1586.973737
 20
-1510.938809
 30
0.0
  0
ENDBLK
  5
A50
100
AcDbEntity
  8
0
100
AcDbBlockEnd
  0
BLOCK
  5
A37
100
AcDbEntity
  8
0
100
AcDbBlockBegin
  2
*D5
 70
    65
 10
0.0
 20
0.0
 30
0.0
  3
*D5
  1

  0
LINE
  5
A38
100
AcDbEntity
  8
0
  6
BYBLOCK
 62
     0
100
AcDbLine
 10
-1586.211537
 20
-1566.438809
 30
0.0
 11
-1616.622034
 21
-1566.438809
 31
0.0
  0
LINE
  5
A39
100
AcDbEntity
  8
0
  6
BYBLOCK
 62
     0
100
AcDbLine
 10
-1587.598737
 20
-1510.938809
 30
0.0
 11
-1616.622034
 21
-1510.938809
 31
0.0
  0
LINE
  5
A3A
100
AcDbEntity
  8
0
  6
BYBLOCK
 62
     0
100
AcDbLine
 10
-1615.372034
 20
-1563.938809
 30
0.0
 11
-1615.372034
 21
-1513.438809
 31
0.0
  0
SOLID
  5
A3B
100
AcDbEntity
  8
0
  6
BYBLOCK
 62
     0
100
AcDbTrace
 10
-1615.7887
 20
-1563.938809
 30
0.0
 11
-1614.955367
 21
-1563.938809
 31
0.0
 12
-1615.372034
 22
-1566.438809
 32
0.0
 13
-1615.372034
 23
-1566.438809
 33
0.0
  0
SOLID
  5
A3C
100
AcDbEntity
  8
0
  6
BYBLOCK
 62
     0
100
AcDbTrace
 10
-1615.7887
 20
-1513.438809
 30
0.0
 11
-1614.955367
 21
-1513.438809
 31
0.0
 12
-1615.372034
 22
-1510.938809
 32
0.0
 13
-1615.372034
 23
-1510.938809
 33
0.0
  0
MTEXT
  5
A3D
100
AcDbEntity
  8
0
  6
BYBLOCK
 62
     0
100
AcDbMText
 10
-1617.497034
 20
-1538.688809
 30
0.0
 40
3.0
 41
0.0
 71
     5
 72
     1
  1
\A1;55.5
 11
0.0
 21
1.0
 31
0.0
  0
POINT
  5
A3E
100
AcDbEntity
  8
DEFPOINTS
  6
BYBLOCK
 62
     0
100
AcDbPoint
 10
-1585.586537
 20
-1566.438809
 30
0.0
  0
POINT
  5
A3F
100
AcDbEntity
  8
DEFPOINTS
  6
BYBLOCK
 62
     0
100
AcDbPoint
 10
-1586.973737
 20
-1510.938809
 30
0.0
  0
POINT
  5
A40
100
AcDbEntity
  8
DEFPOINTS
  6
BYBLOCK
 62
     0
100
AcDbPoint
 10
-1615.372034
 20
-1510.938809
 30
0.0
  0
ENDBLK
  5
A41
100
AcDbEntity
  8
0
100
AcDbBlockEnd
  0
BLOCK
  5
A52
100
AcDbEntity
  8
0
100
AcDbBlockBegin
  2
*D6
 70
    65
 10
0.0
 20
0.0
 30
0.0
  3
*D6
  1

  0
LINE
  5
A53
100
AcDbEntity
  8
0
  6
BYBLOCK
 62
     0
100
AcDbLine
 10
-1584.135936
 20
-1566.438809
 30
0.0
 11
-1517.511207
 21
-1566.438809
 31
0.0
  0
LINE
  5
A54
100
AcDbEntity
  8
0
  6
BYBLOCK
 62
     0
100
AcDbLine
 10
-1576.848737
 20
-1460.988809
 30
0.0
 11
-1517.511207
 21
-1460.988809
 31
0.0
  0
LINE
  5
A55
100
AcDbEntity
  8
0
  6
BYBLOCK
 62
     0
100
AcDbLine
 10
-1518.761207
 20
-1563.938809
 30
0.0
 11
-1518.761207
 21
-1463.488809
 31
0.0
  0
SOLID
  5
A56
100
AcDbEntity
  8
0
  6
BYBLOCK
 62
     0
100
AcDbTrace
 10
-1519.177874
 20
-1563.938809
 30
0.0
 11
-1518.344541
 21
-1563.938809
 31
0.0
 12
-1518.761207
 22
-1566.438809
 32
0.0
 13
-1518.761207
 23
-1566.438809
 33
0.0
  0
SOLID
  5
A57
100
AcDbEntity
  8
0
  6
BYBLOCK
 62
     0
100
AcDbTrace
 10
-1519.177874
 20
-1463.488809
 30
0.0
 11
-1518.344541
 21
-1463.488809
 31
0.0
 12
-1518.761207
 22
-1460.988809
 32
0.0
 13
-1518.761207
 23
-1460.988809
 33
0.0
  0
MTEXT
  5
A58
100
AcDbEntity
  8
0
  6
BYBLOCK
 62
     0
100
AcDbMText
 10
-1520.886207
 20
-1513.713809
 30
0.0
 40
3.0
 41
0.0
 71
     5
 72
     1
  1
\A1;105.45
 11
0.0
 21
1.0
 31
0.0
  0
POINT
  5
A59
100
AcDbEntity
  8
DEFPOINTS
  6
BYBLOCK
 62
     0
100
AcDbPoint
 10
-1584.760936
 20
-1566.438809
 30
0.0
  0
POINT
  5
A5A
100
AcDbEntity
  8
DEFPOINTS
  6
BYBLOCK
 62
     0
100
AcDbPoint
 10
-1577.473737
 20
-1460.988809
 30
0.0
  0
POINT
  5
A5B
100
AcDbEntity
  8
DEFPOINTS
  6
BYBLOCK
 62
     0
100
AcDbPoint
 10
-1518.761207
 20
-1460.988809
 30
0.0
  0
ENDBLK
  5
A5C
100
AcDbEntity
  8
0
100
AcDbBlockEnd
  0
BLOCK
  5
A6C
100
AcDbEntity
  8
0
100
AcDbBlockBegin
  2
*D7
 70
    65
 10
0.0
 20
0.0
 30
0.0
  3
*D7
  1

  0
LINE
  5
A6D
100
AcDbEntity
  8
0
  6
BYBLOCK
 62
     0
100
AcDbLine
 10
-1592.698737
 20
-1431.288809
 30
0.0
 11
-1517.563179
 21
-1431.288809
 31
0.0
  0
LINE
  5
A6E
100
AcDbEntity
  8
0
  6
BYBLOCK
 62
     0
100
AcDbLine
 10
-1576.848737
 20
-1460.988809
 30
0.0
 11
-1517.563179
 21
-1460.988809
 31
0.0
  0
LINE
  5
A6F
100
AcDbEntity
  8
0
  6
BYBLOCK
 62
     0
100
AcDbLine
 10
-1518.813179
 20
-1433.788809
 30
0.0
 11
-1518.813179
 21
-1458.488809
 31
0.0
  0
SOLID
  5
A70
100
AcDbEntity
  8
0
  6
BYBLOCK
 62
     0
100
AcDbTrace
 10
-1519.229846
 20
-1433.788809
 30
0.0
 11
-1518.396512
 21
-1433.788809
 31
0.0
 12
-1518.813179
 22
-1431.288809
 32
0.0
 13
-1518.813179
 23
-1431.288809
 33
0.0
  0
SOLID
  5
A71
100
AcDbEntity
  8
0
  6
BYBLOCK
 62
     0
100
AcDbTrace
 10
-1519.229846
 20
-1458.488809
 30
0.0
 11
-1518.396512
 21
-1458.488809
 31
0.0
 12
-1518.813179
 22
-1460.988809
 32
0.0
 13
-1518.813179
 23
-1460.988809
 33
0.0
  0
MTEXT
  5
A72
100
AcDbEntity
  8
0
  6
BYBLOCK
 62
     0
100
AcDbMText
 10
-1520.938179
 20
-1446.138809
 30
0.0
 40
3.0
 41
0.0
 71
     5
 72
     1
  1
\A1;29.7
 11
0.0
 21
1.0
 31
0.0
  0
POINT
  5
A73
100
AcDbEntity
  8
DEFPOINTS
  6
BYBLOCK
 62
     0
100
AcDbPoint
 10
-1593.323737
 20
-1431.288809
 30
0.0
  0
POINT
  5
A74
100
AcDbEntity
  8
DEFPOINTS
  6
BYBLOCK
 62
     0
100
AcDbPoint
 10
-1577.473737
 20
-1460.988809
 30
0.0
  0
POINT
  5
A75
100
AcDbEntity
  8
DEFPOINTS
  6
BYBLOCK
 62
     0
100
AcDbPoint
 10
-1518.813179
 20
-1460.988809
 30
0.0
  0
ENDBLK
  5
A76
100
AcDbEntity
  8
0
100
AcDbBlockEnd
  0
BLOCK
  5
A78
100
AcDbEntity
  8
0
100
AcDbBlockBegin
  2
*D8
 70
    65
 10
0.0
 20
0.0
 30
0.0
  3
*D8
  1

  0
LINE
  5
A79
100
AcDbEntity
  8
0
  6
BYBLOCK
 62
     0
100
AcDbLine
 10
-1576.848737
 20
-1460.988809
 30
0.0
 11
-1531.248046
 21
-1460.988809
 31
0.0
  0
LINE
  5
A7A
100
AcDbEntity
  8
0
  6
BYBLOCK
 62
     0
100
AcDbLine
 10
-1554.048737
 20
-1461.788809
 30
0.0
 11
-1531.248046
 21
-1461.788809
 31
0.0
  0
LINE
  5
A7B
100
AcDbEntity
  8
0
  6
BYBLOCK
 62
     0
100
AcDbLine
 10
-1532.498046
 20
-1458.488809
 30
0.0
 11
-1532.498046
 21
-1455.988809
 31
0.0
  0
LINE
  5
A7C
100
AcDbEntity
  8
0
  6
BYBLOCK
 62
     0
100
AcDbLine
 10
-1532.498046
 20
-1464.288809
 30
0.0
 11
-1532.498046
 21
-1472.658809
 31
0.0
  0
SOLID
  5
A7D
100
AcDbEntity
  8
0
  6
BYBLOCK
 62
     0
100
AcDbTrace
 10
-1532.914712
 20
-1458.488809
 30
0.0
 11
-1532.081379
 21
-1458.488809
 31
0.0
 12
-1532.498046
 22
-1460.988809
 32
0.0
 13
-1532.498046
 23
-1460.988809
 33
0.0
  0
SOLID
  5
A7E
100
AcDbEntity
  8
0
  6
BYBLOCK
 62
     0
100
AcDbTrace
 10
-1532.914712
 20
-1464.288809
 30
0.0
 11
-1532.081379
 21
-1464.288809
 31
0.0
 12
-1532.498046
 22
-1461.788809
 32
0.0
 13
-1532.498046
 23
-1461.788809
 33
0.0
  0
MTEXT
  5
A7F
100
AcDbEntity
  8
0
  6
BYBLOCK
 62
     0
100
AcDbMText
 10
-1534.623046
 20
-1469.723809
 30
0.0
 40
3.0
 41
0.0
 71
     5
 72
     1
  1
\A1;0.8
 11
0.0
 21
1.0
 31
0.0
  0
POINT
  5
A80
100
AcDbEntity
  8
DEFPOINTS
  6
BYBLOCK
 62
     0
100
AcDbPoint
 10
-1577.473737
 20
-1460.988809
 30
0.0
  0
POINT
  5
A81
100
AcDbEntity
  8
DEFPOINTS
  6
BYBLOCK
 62
     0
100
AcDbPoint
 10
-1554.673737
 20
-1461.788809
 30
0.0
  0
POINT
  5
A82
100
AcDbEntity
  8
DEFPOINTS
  6
BYBLOCK
 62
     0
100
AcDbPoint
 10
-1532.498046
 20
-1461.788809
 30
0.0
  0
ENDBLK
  5
A83
100
AcDbEntity
  8
0
100
AcDbBlockEnd
  0
BLOCK
  5
A93
100
AcDbEntity
  8
0
100
AcDbBlockBegin
  2
*D9
 70
    65
 10
0.0
 20
0.0
 30
0.0
  3
*D9
  1

  0
LINE
  5
A94
100
AcDbEntity
  8
0
  6
BYBLOCK
 62
     0
100
AcDbLine
 10
-1605.473737
 20
-1457.913809
 30
0.0
 11
-1605.473737
 21
-1468.889744
 31
0.0
  0
LINE
  5
A95
100
AcDbEntity
  8
0
  6
BYBLOCK
 62
     0
100
AcDbLine
 10
-1601.673737
 20
-1457.313809
 30
0.0
 11
-1601.673737
 21
-1468.889744
 31
0.0
  0
LINE
  5
A96
100
AcDbEntity
  8
0
  6
BYBLOCK
 62
     0
100
AcDbLine
 10
-1599.173737
 20
-1467.639744
 30
0.0
 11
-1596.673737
 21
-1467.639744
 31
0.0
  0
LINE
  5
A97
100
AcDbEntity
  8
0
  6
BYBLOCK
 62
     0
100
AcDbLine
 10
-1607.973737
 20
-1467.639744
 30
0.0
 11
-1614.468737
 21
-1467.639744
 31
0.0
  0
SOLID
  5
A98
100
AcDbEntity
  8
0
  6
BYBLOCK
 62
     0
100
AcDbTrace
 10
-1599.173737
 20
-1467.223077
 30
0.0
 11
-1599.173737
 21
-1468.056411
 31
0.0
 12
-1601.673737
 22
-1467.639744
 32
0.0
 13
-1601.673737
 23
-1467.639744
 33
0.0
  0
SOLID
  5
A99
100
AcDbEntity
  8
0
  6
BYBLOCK
 62
     0
100
AcDbTrace
 10
-1607.973737
 20
-1467.223077
 30
0.0
 11
-1607.973737
 21
-1468.056411
 31
0.0
 12
-1605.473737
 22
-1467.639744
 32
0.0
 13
-1605.473737
 23
-1467.639744
 33
0.0
  0
MTEXT
  5
A9A
100
AcDbEntity
  8
0
  6
BYBLOCK
 62
     0
100
AcDbMText
 10
-1611.533737
 20
-1465.514744
 30
0.0
 40
3.0
 41
0.0
 71
     5
 72
     1
  1
\A1;3.8
  0
POINT
  5
A9B
100
AcDbEntity
  8
DEFPOINTS
  6
BYBLOCK
 62
     0
100
AcDbPoint
 10
-1605.473737
 20
-1457.288809
 30
0.0
  0
POINT
  5
A9C
100
AcDbEntity
  8
DEFPOINTS
  6
BYBLOCK
 62
     0
100
AcDbPoint
 10
-1601.673737
 20
-1456.688809
 30
0.0
  0
POINT
  5
A9D
100
AcDbEntity
  8
DEFPOINTS
  6
BYBLOCK
 62
     0
100
AcDbPoint
 10
-1601.673737
 20
-1467.639744
 30
0.0
  0
ENDBLK
  5
A9E
100
AcDbEntity
  8
0
100
AcDbBlockEnd
  0
BLOCK
  5
AA1
100
AcDbEntity
  8
0
100
AcDbBlockBegin
  2
*D10
 70
    65
 10
0.0
 20
0.0
 30
0.0
  3
*D10
  1

  0
LINE
  5
AA2
100
AcDbEntity
  8
0
  6
BYBLOCK
 62
     0
100
AcDbLine
 10
-1604.648737
 20
-1431.288809
 30
0.0
 11
-1618.904794
 21
-1431.288809
 31
0.0
  0
LINE
  5
AA3
100
AcDbEntity
  8
0
  6
BYBLOCK
 62
     0
100
AcDbLine
 10
-1605.498737
 20
-1448.288809
 30
0.0
 11
-1618.904794
 21
-1448.288809
 31
0.0
  0
LINE
  5
AA4
100
AcDbEntity
  8
0
  6
BYBLOCK
 62
     0
100
AcDbLine
 10
-1617.654794
 20
-1433.788809
 30
0.0
 11
-1617.654794
 21
-1445.788809
 31
0.0
  0
SOLID
  5
AA5
100
AcDbEntity
  8
0
  6
BYBLOCK
 62
     0
100
AcDbTrace
 10
-1618.071461
 20
-1433.788809
 30
0.0
 11
-1617.238128
 21
-1433.788809
 31
0.0
 12
-1617.654794
 22
-1431.288809
 32
0.0
 13
-1617.654794
 23
-1431.288809
 33
0.0
  0
SOLID
  5
AA6
100
AcDbEntity
  8
0
  6
BYBLOCK
 62
     0
100
AcDbTrace
 10
-1618.071461
 20
-1445.788809
 30
0.0
 11
-1617.238128
 21
-1445.788809
 31
0.0
 12
-1617.654794
 22
-1448.288809
 32
0.0
 13
-1617.654794
 23
-1448.288809
 33
0.0
  0
MTEXT
  5
AA7
100
AcDbEntity
  8
0
  6
BYBLOCK
 62
     0
100
AcDbMText
 10
-1619.779794
 20
-1439.788809
 30
0.0
 40
3.0
 41
0.0
 71
     5
 72
     1
  1
\A1;17
 11
0.0
 21
1.0
 31
0.0
  0
POINT
  5
AA8
100
AcDbEntity
  8
DEFPOINTS
  6
BYBLOCK
 62
     0
100
AcDbPoint
 10
-1604.023737
 20
-1431.288809
 30
0.0
  0
POINT
  5
AA9
100
AcDbEntity
  8
DEFPOINTS
  6
BYBLOCK
 62
     0
100
AcDbPoint
 10
-1604.873737
 20
-1448.288809
 30
0.0
  0
POINT
  5
AAA
100
AcDbEntity
  8
DEFPOINTS
  6
BYBLOCK
 62
     0
100
AcDbPoint
 10
-1617.654794
 20
-1448.288809
 30
0.0
  0
ENDBLK
  5
AAB
100
AcDbEntity
  8
0
100
AcDbBlockEnd
  0
BLOCK
  5
AAE
100
AcDbEntity
  8
0
100
AcDbBlockBegin
  2
*D11
 70
    65
 10
0.0
 20
0.0
 30
0.0
  3
*D11
  1

  0
LINE
  5
AAF
100
AcDbEntity
  8
0
  6
BYBLOCK
 62
     0
100
AcDbLine
 10
-1605.498737
 20
-1448.288809
 30
0.0
 11
-1618.885602
 21
-1448.288809
 31
0.0
  0
LINE
  5
AB0
100
AcDbEntity
  8
0
  6
BYBLOCK
 62
     0
100
AcDbLine
 10
-1605.498737
 20
-1456.688809
 30
0.0
 11
-1618.885602
 21
-1456.688809
 31
0.0
  0
LINE
  5
AB1
100
AcDbEntity
  8
0
  6
BYBLOCK
 62
     0
100
AcDbLine
 10
-1617.635602
 20
-1445.788809
 30
0.0
 11
-1617.635602
 21
-1443.288809
 31
0.0
  0
LINE
  5
AB2
100
AcDbEntity
  8
0
  6
BYBLOCK
 62
     0
100
AcDbLine
 10
-1617.635602
 20
-1459.188809
 30
0.0
 11
-1617.635602
 21
-1461.688809
 31
0.0
  0
SOLID
  5
AB3
100
AcDbEntity
  8
0
  6
BYBLOCK
 62
     0
100
AcDbTrace
 10
-1618.052268
 20
-1445.788809
 30
0.0
 11
-1617.218935
 21
-1445.788809
 31
0.0
 12
-1617.635602
 22
-1448.288809
 32
0.0
 13
-1617.635602
 23
-1448.288809
 33
0.0
  0
SOLID
  5
AB4
100
AcDbEntity
  8
0
  6
BYBLOCK
 62
     0
100
AcDbTrace
 10
-1618.052268
 20
-1459.188809
 30
0.0
 11
-1617.218935
 21
-1459.188809
 31
0.0
 12
-1617.635602
 22
-1456.688809
 32
0.0
 13
-1617.635602
 23
-1456.688809
 33
0.0
  0
MTEXT
  5
AB5
100
AcDbEntity
  8
0
  6
BYBLOCK
 62
     0
100
AcDbMText
 10
-1619.760602
 20
-1452.488809
 30
0.0
 40
3.0
 41
0.0
 71
     5
 72
     1
  1
\A1;8.4
 11
0.0
 21
1.0
 31
0.0
  0
POINT
  5
AB6
100
AcDbEntity
  8
DEFPOINTS
  6
BYBLOCK
 62
     0
100
AcDbPoint
 10
-1604.873737
 20
-1448.288809
 30
0.0
  0
POINT
  5
AB7
100
AcDbEntity
  8
DEFPOINTS
  6
BYBLOCK
 62
     0
100
AcDbPoint
 10
-1604.873737
 20
-1456.688809
 30
0.0
  0
POINT
  5
AB8
100
AcDbEntity
  8
DEFPOINTS
  6
BYBLOCK
 62
     0
100
AcDbPoint
 10
-1617.635602
 20
-1456.688809
 30
0.0
  0
ENDBLK
  5
AB9
100
AcDbEntity
  8
0
100
AcDbBlockEnd
  0
BLOCK
  5
ABC
100
AcDbEntity
  8
0
100
AcDbBlockBegin
  2
*D12
 70
    65
 10
0.0
 20
0.0
 30
0.0
  3
*D12
  1

  0
LINE
  5
ABD
100
AcDbEntity
  8
0
  6
BYBLOCK
 62
     0
100
AcDbLine
 10
-1605.473737
 20
-1432.113809
 30
0.0
 11
-1605.473737
 21
-1415.368479
 31
0.0
  0
LINE
  5
ABE
100
AcDbEntity
  8
0
  6
BYBLOCK
 62
     0
100
AcDbLine
 10
-1591.873737
 20
-1432.113809
 30
0.0
 11
-1591.873737
 21
-1415.368479
 31
0.0
  0
LINE
  5
ABF
100
AcDbEntity
  8
0
  6
BYBLOCK
 62
     0
100
AcDbLine
 10
-1602.973737
 20
-1416.618479
 30
0.0
 11
-1594.373737
 21
-1416.618479
 31
0.0
  0
SOLID
  5
AC0
100
AcDbEntity
  8
0
  6
BYBLOCK
 62
     0
100
AcDbTrace
 10
-1602.973737
 20
-1416.201812
 30
0.0
 11
-1602.973737
 21
-1417.035145
 31
0.0
 12
-1605.473737
 22
-1416.618479
 32
0.0
 13
-1605.473737
 23
-1416.618479
 33
0.0
  0
SOLID
  5
AC1
100
AcDbEntity
  8
0
  6
BYBLOCK
 62
     0
100
AcDbTrace
 10
-1594.373737
 20
-1416.201812
 30
0.0
 11
-1594.373737
 21
-1417.035145
 31
0.0
 12
-1591.873737
 22
-1416.618479
 32
0.0
 13
-1591.873737
 23
-1416.618479
 33
0.0
  0
MTEXT
  5
AC2
100
AcDbEntity
  8
0
  6
BYBLOCK
 62
     0
100
AcDbMText
 10
-1598.673737
 20
-1414.493479
 30
0.0
 40
3.0
 41
0.0
 71
     5
 72
     1
  1
\A1;13.6
  0
POINT
  5
AC3
100
AcDbEntity
  8
DEFPOINTS
  6
BYBLOCK
 62
     0
100
AcDbPoint
 10
-1605.473737
 20
-1432.738809
 30
0.0
  0
POINT
  5
AC4
100
AcDbEntity
  8
DEFPOINTS
  6
BYBLOCK
 62
     0
100
AcDbPoint
 10
-1591.873737
 20
-1432.738809
 30
0.0
  0
POINT
  5
AC5
100
AcDbEntity
  8
DEFPOINTS
  6
BYBLOCK
 62
     0
100
AcDbPoint
 10
-1591.873737
 20
-1416.618479
 30
0.0
  0
ENDBLK
  5
AC6
100
AcDbEntity
  8
0
100
AcDbBlockEnd
  0
BLOCK
  5
AC9
100
AcDbEntity
  8
0
100
AcDbBlockBegin
  2
*D13
 70
    65
 10
0.0
 20
0.0
 30
0.0
  3
*D13
  1

  0
LINE
  5
ACA
100
AcDbEntity
  8
0
  6
BYBLOCK
 62
     0
100
AcDbLine
 10
-1586.211537
 20
-1566.438809
 30
0.0
 11
-1638.962782
 21
-1566.438809
 31
0.0
  0
LINE
  5
ACB
100
AcDbEntity
  8
0
  6
BYBLOCK
 62
     0
100
AcDbLine
 10
-1606.098737
 20
-1431.288809
 30
0.0
 11
-1638.962782
 21
-1431.288809
 31
0.0
  0
LINE
  5
ACC
100
AcDbEntity
  8
0
  6
BYBLOCK
 62
     0
100
AcDbLine
 10
-1637.712782
 20
-1563.938809
 30
0.0
 11
-1637.712782
 21
-1433.788809
 31
0.0
  0
SOLID
  5
ACD
100
AcDbEntity
  8
0
  6
BYBLOCK
 62
     0
100
AcDbTrace
 10
-1638.129449
 20
-1563.938809
 30
0.0
 11
-1637.296116
 21
-1563.938809
 31
0.0
 12
-1637.712782
 22
-1566.438809
 32
0.0
 13
-1637.712782
 23
-1566.438809
 33
0.0
  0
SOLID
  5
ACE
100
AcDbEntity
  8
0
  6
BYBLOCK
 62
     0
100
AcDbTrace
 10
-1638.129449
 20
-1433.788809
 30
0.0
 11
-1637.296116
 21
-1433.788809
 31
0.0
 12
-1637.712782
 22
-1431.288809
 32
0.0
 13
-1637.712782
 23
-1431.288809
 33
0.0
  0
MTEXT
  5
ACF
100
AcDbEntity
  8
0
  6
BYBLOCK
 62
     0
100
AcDbMText
 10
-1639.837782
 20
-1498.863809
 30
0.0
 40
3.0
 41
0.0
 71
     5
 72
     1
  1
\A1;135.15
 11
0.0
 21
1.0
 31
0.0
  0
POINT
  5
AD0
100
AcDbEntity
  8
DEFPOINTS
  6
BYBLOCK
 62
     0
100
AcDbPoint
 10
-1585.586537
 20
-1566.438809
 30
0.0
  0
POINT
  5
AD1
100
AcDbEntity
  8
DEFPOINTS
  6
BYBLOCK
 62
     0
100
AcDbPoint
 10
-1605.473737
 20
-1431.288809
 30
0.0
  0
POINT
  5
AD2
100
AcDbEntity
  8
DEFPOINTS
  6
BYBLOCK
 62
     0
100
AcDbPoint
 10
-1637.712782
 20
-1431.288809
 30
0.0
  0
ENDBLK
  5
AD3
100
AcDbEntity
  8
0
100
AcDbBlockEnd
  0
BLOCK
  5
AD6
100
AcDbEntity
  8
0
100
AcDbBlockBegin
  2
*D14
 70
    65
 10
0.0
 20
0.0
 30
0.0
  3
*D14
  1

  0
LINE
  5
AD7
100
AcDbEntity
  8
0
  6
BYBLOCK
 62
     0
100
AcDbLine
 10
-1585.607898
 20
-1567.315864
 30
0.0
 11
-1604.653497
 21
-1587.038159
 31
0.0
  0
LINE
  5
AD8
100
AcDbEntity
  8
0
  6
BYBLOCK
 62
     0
100
AcDbLine
 10
-1584.739575
 20
-1567.315864
 30
0.0
 11
-1565.693976
 21
-1587.038159
 31
0.0
  0
ARC
  5
AD9
100
AcDbEntity
  8
0
  6
BYBLOCK
 62
     0
100
AcDbCircle
 10
-1585.173737
 20
-1566.866277
 30
0.0
 40
26.792216
100
AcDbArc
 50
231.34825
 51
308.65175
  0
SOLID
  5
ADA
100
AcDbEntity
  8
0
  6
BYBLOCK
 62
     0
100
AcDbTrace
 10
-1602.182901
 20
-1588.102739
 30
0.0
 11
-1601.632617
 21
-1587.476934
 31
0.0
 12
-1603.785174
 22
-1586.138984
 32
0.0
 13
-1603.785174
 23
-1586.138984
 33
0.0
  0
SOLID
  5
ADB
100
AcDbEntity
  8
0
  6
BYBLOCK
 62
     0
100
AcDbTrace
 10
-1568.714856
 20
-1587.476934
 30
0.0
 11
-1568.164572
 21
-1588.102739
 31
0.0
 12
-1566.562299
 22
-1586.138984
 32
0.0
 13
-1566.562299
 23
-1586.138984
 33
0.0
  0
MTEXT
  5
ADC
100
AcDbEntity
  8
0
  6
BYBLOCK
 62
     0
100
AcDbMText
 10
-1585.173737
 20
-1591.533493
 30
0.0
 40
3.0
 41
0.0
 71
     5
 72
     1
  1
\A1;88°
 11
1.0
 21
0.0
 31
0.0
  0
POINT
  5
ADD
100
AcDbEntity
  8
DEFPOINTS
  6
BYBLOCK
 62
     0
100
AcDbPoint
 10
-1591.957396
 20
-1592.785475
 30
0.0
  0
POINT
  5
ADE
100
AcDbEntity
  8
DEFPOINTS
  6
BYBLOCK
 62
     0
100
AcDbPoint
 10
-1585.586537
 20
-1566.438809
 30
0.0
  0
POINT
  5
ADF
100
AcDbEntity
  8
DEFPOINTS
  6
BYBLOCK
 62
     0
100
AcDbPoint
 10
-1584.760936
 20
-1566.438809
 30
0.0
  0
POINT
  5
AE0
100
AcDbEntity
  8
DEFPOINTS
  6
BYBLOCK
 62
     0
100
AcDbPoint
 10
-1578.225107
 20
-1559.670761
 30
0.0
  0
POINT
  5
AE1
100
AcDbEntity
  8
DEFPOINTS
  6
BYBLOCK
 62
     0
100
AcDbPoint
 10
-1592.116864
 20
-1559.676458
 30
0.0
  0
ENDBLK
  5
AE2
100
AcDbEntity
  8
0
100
AcDbBlockEnd
  0
BLOCK
  5
AF2
100
AcDbEntity
  8
0
100
AcDbBlockBegin
  2
*D15
 70
    65
 10
0.0
 20
0.0
 30
0.0
  3
*D15
  1

  0
LINE
  5
AF3
100
AcDbEntity
  8
0
  6
BYBLOCK
 62
     0
100
AcDbLine
 10
-1585.586537
 20
-1567.063809
 30
0.0
 11
-1585.586537
 21
-1576.736399
 31
0.0
  0
LINE
  5
AF4
100
AcDbEntity
  8
0
  6
BYBLOCK
 62
     0
100
AcDbLine
 10
-1584.760936
 20
-1567.063809
 30
0.0
 11
-1584.760936
 21
-1576.736399
 31
0.0
  0
LINE
  5
AF5
100
AcDbEntity
  8
0
  6
BYBLOCK
 62
     0
100
AcDbLine
 10
-1588.086537
 20
-1575.486399
 30
0.0
 11
-1590.586537
 21
-1575.486399
 31
0.0
  0
LINE
  5
AF6
100
AcDbEntity
  8
0
  6
BYBLOCK
 62
     0
100
AcDbLine
 10
-1582.260936
 20
-1575.486399
 30
0.0
 11
-1566.510359
 21
-1575.486399
 31
0.0
  0
SOLID
  5
AF7
100
AcDbEntity
  8
0
  6
BYBLOCK
 62
     0
100
AcDbTrace
 10
-1588.086537
 20
-1575.069733
 30
0.0
 11
-1588.086537
 21
-1575.903066
 31
0.0
 12
-1585.586537
 22
-1575.486399
 32
0.0
 13
-1585.586537
 23
-1575.486399
 33
0.0
  0
SOLID
  5
AF8
100
AcDbEntity
  8
0
  6
BYBLOCK
 62
     0
100
AcDbTrace
 10
-1582.260936
 20
-1575.069733
 30
0.0
 11
-1582.260936
 21
-1575.903066
 31
0.0
 12
-1584.760936
 22
-1575.486399
 32
0.0
 13
-1584.760936
 23
-1575.486399
 33
0.0
  0
MTEXT
  5
AF9
100
AcDbEntity
  8
0
  6
BYBLOCK
 62
     0
100
AcDbMText
 10
-1570.668704
 20
-1573.361399
 30
0.0
 40
3.0
 41
0.0
 71
     5
 72
     1
  1
\A1;0.83
  0
POINT
  5
AFA
100
AcDbEntity
  8
DEFPOINTS
  6
BYBLOCK
 62
     0
100
AcDbPoint
 10
-1585.586537
 20
-1566.438809
 30
0.0
  0
POINT
  5
AFB
100
AcDbEntity
  8
DEFPOINTS
  6
BYBLOCK
 62
     0
100
AcDbPoint
 10
-1584.760936
 20
-1566.438809
 30
0.0
  0
POINT
  5
AFC
100
AcDbEntity
  8
DEFPOINTS
  6
BYBLOCK
 62
     0
100
AcDbPoint
 10
-1584.760936
 20
-1575.486399
 30
0.0
  0
ENDBLK
  5
AFD
100
AcDbEntity
  8
0
100
AcDbBlockEnd
  0
BLOCK
  5
B0C
100
AcDbEntity
  8
0
100
AcDbBlockBegin
  2
*D16
 70
    65
 10
0.0
 20
0.0
 30
0.0
  3
*D16
  1

  0
LINE
  5
B0D
100
AcDbEntity
  8
0
  6
BYBLOCK
 62
     0
100
AcDbLine
 10
-1586.973737
 20
-1515.767809
 30
0.0
 11
-1586.973737
 21
-1519.022961
 31
0.0
  0
LINE
  5
B0E
100
AcDbEntity
  8
0
  6
BYBLOCK
 62
     0
100
AcDbLine
 10
-1585.173737
 20
-1515.767809
 30
0.0
 11
-1585.173737
 21
-1519.022961
 31
0.0
  0
LINE
  5
B0F
100
AcDbEntity
  8
0
  6
BYBLOCK
 62
     0
100
AcDbLine
 10
-1582.673737
 20
-1517.772961
 30
0.0
 11
-1580.173737
 21
-1517.772961
 31
0.0
  0
LINE
  5
B10
100
AcDbEntity
  8
0
  6
BYBLOCK
 62
     0
100
AcDbLine
 10
-1589.473737
 20
-1517.772961
 30
0.0
 11
-1595.308737
 21
-1517.772961
 31
0.0
  0
SOLID
  5
B11
100
AcDbEntity
  8
0
  6
BYBLOCK
 62
     0
100
AcDbTrace
 10
-1582.673737
 20
-1517.356295
 30
0.0
 11
-1582.673737
 21
-1518.189628
 31
0.0
 12
-1585.173737
 22
-1517.772961
 32
0.0
 13
-1585.173737
 23
-1517.772961
 33
0.0
  0
SOLID
  5
B12
100
AcDbEntity
  8
0
  6
BYBLOCK
 62
     0
100
AcDbTrace
 10
-1589.473737
 20
-1517.356295
 30
0.0
 11
-1589.473737
 21
-1518.189628
 31
0.0
 12
-1586.973737
 22
-1517.772961
 32
0.0
 13
-1586.973737
 23
-1517.772961
 33
0.0
  0
MTEXT
  5
B13
100
AcDbEntity
  8
0
  6
BYBLOCK
 62
     0
100
AcDbMText
 10
-1592.703737
 20
-1515.647961
 30
0.0
 40
3.0
 41
0.0
 71
     5
 72
     1
  1
\A1;1.8
  0
POINT
  5
B14
100
AcDbEntity
  8
DEFPOINTS
  6
BYBLOCK
 62
     0
100
AcDbPoint
 10
-1586.973737
 20
-1515.142809
 30
0.0
  0
POINT
  5
B15
100
AcDbEntity
  8
DEFPOINTS
  6
BYBLOCK
 62
     0
100
AcDbPoint
 10
-1585.173737
 20
-1515.142809
 30
0.0
  0
POINT
  5
B16
100
AcDbEntity
  8
DEFPOINTS
  6
BYBLOCK
 62
     0
100
AcDbPoint
 10
-1585.173737
 20
-1517.772961
 30
0.0
  0
ENDBLK
  5
B17
100
AcDbEntity
  8
0
100
AcDbBlockEnd
  0
BLOCK
  5
B1A
100
AcDbEntity
  8
0
100
AcDbBlockBegin
  2
*D17
 70
    65
 10
0.0
 20
0.0
 30
0.0
  3
*D17
  1

  0
LINE
  5
B1B
100
AcDbEntity
  8
0
  6
BYBLOCK
 62
     0
100
AcDbLine
 10
-1591.873737
 20
-1460.363809
 30
0.0
 11
-1591.873737
 21
-1441.564874
 31
0.0
  0
LINE
  5
B1C
100
AcDbEntity
  8
0
  6
BYBLOCK
 62
     0
100
AcDbLine
 10
-1577.473737
 20
-1460.363809
 30
0.0
 11
-1577.473737
 21
-1441.564874
 31
0.0
  0
LINE
  5
B1D
100
AcDbEntity
  8
0
  6
BYBLOCK
 62
     0
100
AcDbLine
 10
-1589.373737
 20
-1442.814874
 30
0.0
 11
-1579.973737
 21
-1442.814874
 31
0.0
  0
SOLID
  5
B1E
100
AcDbEntity
  8
0
  6
BYBLOCK
 62
     0
100
AcDbTrace
 10
-1589.373737
 20
-1442.398207
 30
0.0
 11
-1589.373737
 21
-1443.23154
 31
0.0
 12
-1591.873737
 22
-1442.814874
 32
0.0
 13
-1591.873737
 23
-1442.814874
 33
0.0
  0
SOLID
  5
B1F
100
AcDbEntity
  8
0
  6
BYBLOCK
 62
     0
100
AcDbTrace
 10
-1579.973737
 20
-1442.398207
 30
0.0
 11
-1579.973737
 21
-1443.23154
 31
0.0
 12
-1577.473737
 22
-1442.814874
 32
0.0
 13
-1577.473737
 23
-1442.814874
 33
0.0
  0
MTEXT
  5
B20
100
AcDbEntity
  8
0
  6
BYBLOCK
 62
     0
100
AcDbMText
 10
-1584.673737
 20
-1440.689874
 30
0.0
 40
3.0
 41
0.0
 71
     5
 72
     1
  1
\A1;14.4
  0
POINT
  5
B21
100
AcDbEntity
  8
DEFPOINTS
  6
BYBLOCK
 62
     0
100
AcDbPoint
 10
-1591.873737
 20
-1460.988809
 30
0.0
  0
POINT
  5
B22
100
AcDbEntity
  8
DEFPOINTS
  6
BYBLOCK
 62
     0
100
AcDbPoint
 10
-1577.473737
 20
-1460.988809
 30
0.0
  0
POINT
  5
B23
100
AcDbEntity
  8
DEFPOINTS
  6
BYBLOCK
 62
     0
100
AcDbPoint
 10
-1577.473737
 20
-1442.814874
 30
0.0
  0
ENDBLK
  5
B24
100
AcDbEntity
  8
0
100
AcDbBlockEnd
  0
BLOCK
  5
B27
100
AcDbEntity
  8
0
100
AcDbBlockBegin
  2
*D18
 70
    65
 10
0.0
 20
0.0
 30
0.0
  3
*D18
  1

  0
LINE
  5
B28
100
AcDbEntity
  8
0
  6
BYBLOCK
 62
     0
100
AcDbLine
 10
-1591.873737
 20
-1460.363809
 30
0.0
 11
-1591.873737
 21
-1453.016563
 31
0.0
  0
LINE
  5
B29
100
AcDbEntity
  8
0
  6
BYBLOCK
 62
     0
100
AcDbLine
 10
-1585.173737
 20
-1460.363809
 30
0.0
 11
-1585.173737
 21
-1453.016563
 31
0.0
  0
LINE
  5
B2A
100
AcDbEntity
  8
0
  6
BYBLOCK
 62
     0
100
AcDbLine
 10
-1594.373737
 20
-1454.266563
 30
0.0
 11
-1596.873737
 21
-1454.266563
 31
0.0
  0
LINE
  5
B2B
100
AcDbEntity
  8
0
  6
BYBLOCK
 62
     0
100
AcDbLine
 10
-1582.673737
 20
-1454.266563
 30
0.0
 11
-1580.173737
 21
-1454.266563
 31
0.0
  0
SOLID
  5
B2C
100
AcDbEntity
  8
0
  6
BYBLOCK
 62
     0
100
AcDbTrace
 10
-1594.373737
 20
-1453.849896
 30
0.0
 11
-1594.373737
 21
-1454.683229
 31
0.0
 12
-1591.873737
 22
-1454.266563
 32
0.0
 13
-1591.873737
 23
-1454.266563
 33
0.0
  0
SOLID
  5
B2D
100
AcDbEntity
  8
0
  6
BYBLOCK
 62
     0
100
AcDbTrace
 10
-1582.673737
 20
-1453.849896
 30
0.0
 11
-1582.673737
 21
-1454.683229
 31
0.0
 12
-1585.173737
 22
-1454.266563
 32
0.0
 13
-1585.173737
 23
-1454.266563
 33
0.0
  0
MTEXT
  5
B2E
100
AcDbEntity
  8
0
  6
BYBLOCK
 62
     0
100
AcDbMText
 10
-1588.523737
 20
-1452.141563
 30
0.0
 40
3.0
 41
0.0
 71
     5
 72
     1
  1
\A1;6.7
  0
POINT
  5
B2F
100
AcDbEntity
  8
DEFPOINTS
  6
BYBLOCK
 62
     0
100
AcDbPoint
 10
-1591.873737
 20
-1460.988809
 30
0.0
  0
POINT
  5
B30
100
AcDbEntity
  8
DEFPOINTS
  6
BYBLOCK
 62
     0
100
AcDbPoint
 10
-1585.173737
 20
-1460.988809
 30
0.0
  0
POINT
  5
B31
100
AcDbEntity
  8
DEFPOINTS
  6
BYBLOCK
 62
     0
100
AcDbPoint
 10
-1585.173737
 20
-1454.266563
 30
0.0
  0
ENDBLK
  5
B32
100
AcDbEntity
  8
0
100
AcDbBlockEnd
  0
BLOCK
  5
CAD
100
AcDbEntity
  8
0
100
AcDbBlockBegin
  2
*D19
 70
    65
 10
0.0
 20
0.0
 30
0.0
  3
*D19
  1

  0
LINE
  5
CAE
100
AcDbEntity
  8
0
  6
BYBLOCK
 62
     0
100
AcDbLine
 10
-1853.831612
 20
-1431.813809
 30
0.0
 11
-1853.831612
 21
-1416.313217
 31
0.0
  0
LINE
  5
CAF
100
AcDbEntity
  8
0
  6
BYBLOCK
 62
     0
100
AcDbLine
 10
-1866.831612
 20
-1431.813809
 30
0.0
 11
-1866.831612
 21
-1416.313217
 31
0.0
  0
LINE
  5
CB0
100
AcDbEntity
  8
0
  6
BYBLOCK
 62
     0
100
AcDbLine
 10
-1856.331612
 20
-1417.563217
 30
0.0
 11
-1864.331612
 21
-1417.563217
 31
0.0
  0
LINE
  5
CB1
100
AcDbEntity
  8
0
  6
BYBLOCK
 62
     0
100
AcDbLine
 10
-1866.831612
 20
-1417.563217
 30
0.0
 11
-1882.725612
 21
-1417.563217
 31
0.0
  0
SOLID
  5
CB2
100
AcDbEntity
  8
0
  6
BYBLOCK
 62
     0
100
AcDbTrace
 10
-1856.331612
 20
-1417.14655
 30
0.0
 11
-1856.331612
 21
-1417.979884
 31
0.0
 12
-1853.831612
 22
-1417.563217
 32
0.0
 13
-1853.831612
 23
-1417.563217
 33
0.0
  0
SOLID
  5
CB3
100
AcDbEntity
  8
0
  6
BYBLOCK
 62
     0
100
AcDbTrace
 10
-1864.331612
 20
-1417.14655
 30
0.0
 11
-1864.331612
 21
-1417.979884
 31
0.0
 12
-1866.831612
 22
-1417.563217
 32
0.0
 13
-1866.831612
 23
-1417.563217
 33
0.0
  0
MTEXT
  5
CB4
100
AcDbEntity
  8
0
  6
BYBLOCK
 62
     0
100
AcDbMText
 10
-1876.028612
 20
-1414.197508
 30
0.0
 40
3.0
 41
0.0
 71
     5
 72
     1
  1
\A2;13{\H2.400000;\S+0.02^  0;}
  0
POINT
  5
CB5
100
AcDbEntity
  8
DEFPOINTS
  6
BYBLOCK
 62
     0
100
AcDbPoint
 10
-1853.831612
 20
-1432.438809
 30
0.0
  0
POINT
  5
CB6
100
AcDbEntity
  8
DEFPOINTS
  6
BYBLOCK
 62
     0
100
AcDbPoint
 10
-1866.831612
 20
-1432.438809
 30
0.0
  0
POINT
  5
CB7
100
AcDbEntity
  8
DEFPOINTS
  6
BYBLOCK
 62
     0
100
AcDbPoint
 10
-1866.831612
 20
-1417.563217
 30
0.0
  0
ENDBLK
  5
CB8
100
AcDbEntity
  8
0
100
AcDbBlockEnd
  0
BLOCK
  5
B5E
100
AcDbEntity
  8
0
100
AcDbBlockBegin
  2
*D20
 70
    65
 10
0.0
 20
0.0
 30
0.0
  3
*D20
  1

  0
LINE
  5
B5F
100
AcDbEntity
  8
0
  6
BYBLOCK
 62
     0
100
AcDbLine
 10
-1854.206612
 20
-1431.438809
 30
0.0
 11
-1762.435425
 21
-1431.438809
 31
0.0
  0
LINE
  5
B60
100
AcDbEntity
  8
0
  6
BYBLOCK
 62
     0
100
AcDbLine
 10
-1846.206612
 20
-1565.938809
 30
0.0
 11
-1762.435425
 21
-1565.938809
 31
0.0
  0
LINE
  5
B61
100
AcDbEntity
  8
0
  6
BYBLOCK
 62
     0
100
AcDbLine
 10
-1763.685425
 20
-1433.938809
 30
0.0
 11
-1763.685425
 21
-1563.438809
 31
0.0
  0
SOLID
  5
B62
100
AcDbEntity
  8
0
  6
BYBLOCK
 62
     0
100
AcDbTrace
 10
-1764.102091
 20
-1433.938809
 30
0.0
 11
-1763.268758
 21
-1433.938809
 31
0.0
 12
-1763.685425
 22
-1431.438809
 32
0.0
 13
-1763.685425
 23
-1431.438809
 33
0.0
  0
SOLID
  5
B63
100
AcDbEntity
  8
0
  6
BYBLOCK
 62
     0
100
AcDbTrace
 10
-1764.102091
 20
-1563.438809
 30
0.0
 11
-1763.268758
 21
-1563.438809
 31
0.0
 12
-1763.685425
 22
-1565.938809
 32
0.0
 13
-1763.685425
 23
-1565.938809
 33
0.0
  0
MTEXT
  5
B64
100
AcDbEntity
  8
0
  6
BYBLOCK
 62
     0
100
AcDbMText
 10
-1765.810425
 20
-1498.688809
 30
0.0
 40
3.0
 41
0.0
 71
     5
 72
     1
  1
\A1;134.5
 11
0.0
 21
1.0
 31
0.0
  0
POINT
  5
B65
100
AcDbEntity
  8
DEFPOINTS
  6
BYBLOCK
 62
     0
100
AcDbPoint
 10
-1854.831612
 20
-1431.438809
 30
0.0
  0
POINT
  5
B66
100
AcDbEntity
  8
DEFPOINTS
  6
BYBLOCK
 62
     0
100
AcDbPoint
 10
-1846.831612
 20
-1565.938809
 30
0.0
  0
POINT
  5
B67
100
AcDbEntity
  8
DEFPOINTS
  6
BYBLOCK
 62
     0
100
AcDbPoint
 10
-1763.685425
 20
-1565.938809
 30
0.0
  0
ENDBLK
  5
B68
100
AcDbEntity
  8
0
100
AcDbBlockEnd
  0
BLOCK
  5
C0F
100
AcDbEntity
  8
0
100
AcDbBlockBegin
  2
*D21
 70
    65
 10
0.0
 20
0.0
 30
0.0
  3
*D21
  1

  0
LINE
  5
C10
100
AcDbEntity
  8
0
  6
BYBLOCK
 62
     0
100
AcDbLine
 10
-1838.206612
 20
-1461.288809
 30
0.0
 11
-1778.989354
 21
-1461.288809
 31
0.0
  0
LINE
  5
C11
100
AcDbEntity
  8
0
  6
BYBLOCK
 62
     0
100
AcDbLine
 10
-1846.206612
 20
-1565.938809
 30
0.0
 11
-1778.989354
 21
-1565.938809
 31
0.0
  0
LINE
  5
C12
100
AcDbEntity
  8
0
  6
BYBLOCK
 62
     0
100
AcDbLine
 10
-1780.239354
 20
-1463.788809
 30
0.0
 11
-1780.239354
 21
-1563.438809
 31
0.0
  0
SOLID
  5
C13
100
AcDbEntity
  8
0
  6
BYBLOCK
 62
     0
100
AcDbTrace
 10
-1780.65602
 20
-1463.788809
 30
0.0
 11
-1779.822687
 21
-1463.788809
 31
0.0
 12
-1780.239354
 22
-1461.288809
 32
0.0
 13
-1780.239354
 23
-1461.288809
 33
0.0
  0
SOLID
  5
C14
100
AcDbEntity
  8
0
  6
BYBLOCK
 62
     0
100
AcDbTrace
 10
-1780.65602
 20
-1563.438809
 30
0.0
 11
-1779.822687
 21
-1563.438809
 31
0.0
 12
-1780.239354
 22
-1565.938809
 32
0.0
 13
-1780.239354
 23
-1565.938809
 33
0.0
  0
MTEXT
  5
C15
100
AcDbEntity
  8
0
  6
BYBLOCK
 62
     0
100
AcDbMText
 10
-1783.605062
 20
-1513.613809
 30
0.0
 40
3.0
 41
0.0
 71
     5
 72
     1
  1
\A2;104.65{\H2.400000;\S+0.02^  0;}
 11
0.0
 21
1.0
 31
0.0
  0
POINT
  5
C16
100
AcDbEntity
  8
DEFPOINTS
  6
BYBLOCK
 62
     0
100
AcDbPoint
 10
-1838.831612
 20
-1461.288809
 30
0.0
  0
POINT
  5
C17
100
AcDbEntity
  8
DEFPOINTS
  6
BYBLOCK
 62
     0
100
AcDbPoint
 10
-1846.831612
 20
-1565.938809
 30
0.0
  0
POINT
  5
C18
100
AcDbEntity
  8
DEFPOINTS
  6
BYBLOCK
 62
     0
100
AcDbPoint
 10
-1780.239354
 20
-1565.938809
 30
0.0
  0
ENDBLK
  5
C19
100
AcDbEntity
  8
0
100
AcDbBlockEnd
  0
BLOCK
  5
B77
100
AcDbEntity
  8
0
100
AcDbBlockBegin
  2
*D22
 70
    65
 10
0.0
 20
0.0
 30
0.0
  3
*D22
  1

  0
LINE
  5
B78
100
AcDbEntity
  8
0
  6
BYBLOCK
 62
     0
100
AcDbLine
 10
-1847.265773
 20
-1566.740042
 30
0.0
 11
-1864.465876
 21
-1584.55127
 31
0.0
  0
LINE
  5
B79
100
AcDbEntity
  8
0
  6
BYBLOCK
 62
     0
100
AcDbLine
 10
-1846.39745
 20
-1566.740042
 30
0.0
 11
-1829.197347
 21
-1584.55127
 31
0.0
  0
ARC
  5
B7A
100
AcDbEntity
  8
0
  6
BYBLOCK
 62
     0
100
AcDbCircle
 10
-1846.831612
 20
-1566.290454
 30
0.0
 40
24.135521
100
AcDbArc
 50
231.937455
 51
308.062545
  0
SOLID
  5
B7B
100
AcDbEntity
  8
0
  6
BYBLOCK
 62
     0
100
AcDbTrace
 10
-1861.985205
 20
-1585.607585
 30
0.0
 11
-1861.438145
 21
-1584.978959
 31
0.0
 12
-1863.597553
 22
-1583.652095
 32
0.0
 13
-1863.597553
 23
-1583.652095
 33
0.0
  0
SOLID
  5
B7C
100
AcDbEntity
  8
0
  6
BYBLOCK
 62
     0
100
AcDbTrace
 10
-1832.225078
 20
-1584.978959
 30
0.0
 11
-1831.678019
 21
-1585.607585
 31
0.0
 12
-1830.06567
 22
-1583.652095
 32
0.0
 13
-1830.06567
 23
-1583.652095
 33
0.0
  0
MTEXT
  5
B7D
100
AcDbEntity
  8
0
  6
BYBLOCK
 62
     0
100
AcDbMText
 10
-1846.831612
 20
-1588.300975
 30
0.0
 40
3.0
 41
0.0
 71
     5
 72
     1
  1
\A1;88°
 11
1.0
 21
0.0
 31
0.0
  0
POINT
  5
B7E
100
AcDbEntity
  8
DEFPOINTS
  6
BYBLOCK
 62
     0
100
AcDbPoint
 10
-1852.942609
 20
-1589.639525
 30
0.0
  0
POINT
  5
B7F
100
AcDbEntity
  8
DEFPOINTS
  6
BYBLOCK
 62
     0
100
AcDbPoint
 10
-1846.25614
 20
-1565.694536
 30
0.0
  0
POINT
  5
B80
100
AcDbEntity
  8
DEFPOINTS
  6
BYBLOCK
 62
     0
100
AcDbPoint
 10
-1847.407084
 20
-1565.694536
 30
0.0
  0
POINT
  5
B81
100
AcDbEntity
  8
DEFPOINTS
  6
BYBLOCK
 62
     0
100
AcDbPoint
 10
-1853.774739
 20
-1559.100635
 30
0.0
  0
POINT
  5
B82
100
AcDbEntity
  8
DEFPOINTS
  6
BYBLOCK
 62
     0
100
AcDbPoint
 10
-1839.882983
 20
-1559.094938
 30
0.0
  0
ENDBLK
  5
B83
100
AcDbEntity
  8
0
100
AcDbBlockEnd
  0
BLOCK
  5
B86
100
AcDbEntity
  8
0
100
AcDbBlockBegin
  2
*D23
 70
    65
 10
0.0
 20
0.0
 30
0.0
  3
*D23
  1

  0
LINE
  5
B87
100
AcDbEntity
  8
0
  6
BYBLOCK
 62
     0
100
AcDbLine
 10
-1866.456612
 20
-1431.438809
 30
0.0
 11
-1881.109325
 21
-1431.438809
 31
0.0
  0
LINE
  5
B88
100
AcDbEntity
  8
0
  6
BYBLOCK
 62
     0
100
AcDbLine
 10
-1867.456612
 20
-1475.153655
 30
0.0
 11
-1881.109325
 21
-1475.153655
 31
0.0
  0
LINE
  5
B89
100
AcDbEntity
  8
0
  6
BYBLOCK
 62
     0
100
AcDbLine
 10
-1879.859325
 20
-1433.938809
 30
0.0
 11
-1879.859325
 21
-1472.653655
 31
0.0
  0
SOLID
  5
B8A
100
AcDbEntity
  8
0
  6
BYBLOCK
 62
     0
100
AcDbTrace
 10
-1880.275992
 20
-1433.938809
 30
0.0
 11
-1879.442659
 21
-1433.938809
 31
0.0
 12
-1879.859325
 22
-1431.438809
 32
0.0
 13
-1879.859325
 23
-1431.438809
 33
0.0
  0
SOLID
  5
B8B
100
AcDbEntity
  8
0
  6
BYBLOCK
 62
     0
100
AcDbTrace
 10
-1880.275992
 20
-1472.653655
 30
0.0
 11
-1879.442659
 21
-1472.653655
 31
0.0
 12
-1879.859325
 22
-1475.153655
 32
0.0
 13
-1879.859325
 23
-1475.153655
 33
0.0
  0
MTEXT
  5
B8C
100
AcDbEntity
  8
0
  6
BYBLOCK
 62
     0
100
AcDbMText
 10
-1881.984325
 20
-1453.296232
 30
0.0
 40
3.0
 41
0.0
 71
     5
 72
     1
  1
\A1;43.71
 11
0.0
 21
1.0
 31
0.0
  0
POINT
  5
B8D
100
AcDbEntity
  8
DEFPOINTS
  6
BYBLOCK
 62
     0
100
AcDbPoint
 10
-1865.831612
 20
-1431.438809
 30
0.0
  0
POINT
  5
B8E
100
AcDbEntity
  8
DEFPOINTS
  6
BYBLOCK
 62
     0
100
AcDbPoint
 10
-1866.831612
 20
-1475.153655
 30
0.0
  0
POINT
  5
B8F
100
AcDbEntity
  8
DEFPOINTS
  6
BYBLOCK
 62
     0
100
AcDbPoint
 10
-1879.859325
 20
-1475.153655
 30
0.0
  0
ENDBLK
  5
B90
100
AcDbEntity
  8
0
100
AcDbBlockEnd
  0
BLOCK
  5
B93
100
AcDbEntity
  8
0
100
AcDbBlockBegin
  2
*D24
 70
    65
 10
0.0
 20
0.0
 30
0.0
  3
*D24
  1

  0
LINE
  5
B94
100
AcDbEntity
  8
0
  6
BYBLOCK
 62
     0
100
AcDbLine
 10
-1867.456612
 20
-1431.438809
 30
0.0
 11
-1890.844468
 21
-1431.438809
 31
0.0
  0
LINE
  5
B95
100
AcDbEntity
  8
0
  6
BYBLOCK
 62
     0
100
AcDbLine
 10
-1849.256612
 20
-1510.938809
 30
0.0
 11
-1890.844468
 21
-1510.938809
 31
0.0
  0
LINE
  5
B96
100
AcDbEntity
  8
0
  6
BYBLOCK
 62
     0
100
AcDbLine
 10
-1889.594468
 20
-1433.938809
 30
0.0
 11
-1889.594468
 21
-1508.438809
 31
0.0
  0
SOLID
  5
B97
100
AcDbEntity
  8
0
  6
BYBLOCK
 62
     0
100
AcDbTrace
 10
-1890.011135
 20
-1433.938809
 30
0.0
 11
-1889.177801
 21
-1433.938809
 31
0.0
 12
-1889.594468
 22
-1431.438809
 32
0.0
 13
-1889.594468
 23
-1431.438809
 33
0.0
  0
SOLID
  5
B98
100
AcDbEntity
  8
0
  6
BYBLOCK
 62
     0
100
AcDbTrace
 10
-1890.011135
 20
-1508.438809
 30
0.0
 11
-1889.177801
 21
-1508.438809
 31
0.0
 12
-1889.594468
 22
-1510.938809
 32
0.0
 13
-1889.594468
 23
-1510.938809
 33
0.0
  0
MTEXT
  5
B99
100
AcDbEntity
  8
0
  6
BYBLOCK
 62
     0
100
AcDbMText
 10
-1891.719468
 20
-1471.188809
 30
0.0
 40
3.0
 41
0.0
 71
     5
 72
     1
  1
\A1;79.5
 11
0.0
 21
1.0
 31
0.0
  0
POINT
  5
B9A
100
AcDbEntity
  8
DEFPOINTS
  6
BYBLOCK
 62
     0
100
AcDbPoint
 10
-1866.831612
 20
-1431.438809
 30
0.0
  0
POINT
  5
B9B
100
AcDbEntity
  8
DEFPOINTS
  6
BYBLOCK
 62
     0
100
AcDbPoint
 10
-1848.631612
 20
-1510.938809
 30
0.0
  0
POINT
  5
B9C
100
AcDbEntity
  8
DEFPOINTS
  6
BYBLOCK
 62
     0
100
AcDbPoint
 10
-1889.594468
 20
-1510.938809
 30
0.0
  0
ENDBLK
  5
B9D
100
AcDbEntity
  8
0
100
AcDbBlockEnd
  0
BLOCK
  5
BA0
100
AcDbEntity
  8
0
100
AcDbBlockBegin
  2
*D25
 70
    65
 10
0.0
 20
0.0
 30
0.0
  3
*D25
  1

  0
LINE
  5
BA1
100
AcDbEntity
  8
0
  6
BYBLOCK
 62
     0
100
AcDbLine
 10
-1848.631612
 20
-1510.938809
 30
0.0
 11
-1831.13321
 21
-1502.333233
 31
0.0
  0
SOLID
  5
BA2
100
AcDbEntity
  8
0
  6
BYBLOCK
 62
     0
100
AcDbTrace
 10
-1831.31709
 20
-1501.959335
 30
0.0
 11
-1830.949331
 21
-1502.70713
 31
0.0
 12
-1828.889826
 22
-1501.229954
 32
0.0
 13
-1828.889826
 23
-1501.229954
 33
0.0
  0
MTEXT
  5
BA3
100
AcDbEntity
  8
0
  6
BYBLOCK
 62
     0
100
AcDbMText
 10
-1839.698636
 20
-1504.177239
 30
0.0
 40
3.0
 41
0.0
 71
     5
 72
     1
  1
\A1;R22
 11
0.897354
 21
0.441312
 31
0.0
  0
POINT
  5
BA4
100
AcDbEntity
  8
DEFPOINTS
  6
BYBLOCK
 62
     0
100
AcDbPoint
 10
-1828.889826
 20
-1501.229954
 30
0.0
  0
POINT
  5
BA5
100
AcDbEntity
  8
DEFPOINTS
  6
BYBLOCK
 62
     0
100
AcDbPoint
 10
-1848.631612
 20
-1510.938809
 30
0.0
  0
ENDBLK
  5
BA6
100
AcDbEntity
  8
0
100
AcDbBlockEnd
  0
BLOCK
  5
BA9
100
AcDbEntity
  8
0
100
AcDbBlockBegin
  2
*D26
 70
    65
 10
0.0
 20
0.0
 30
0.0
  3
*D26
  1

  0
LINE
  5
BAA
100
AcDbEntity
  8
0
  6
BYBLOCK
 62
     0
100
AcDbLine
 10
-1801.831612
 20
-1475.663809
 30
0.0
 11
-1801.831612
 21
-1406.273685
 31
0.0
  0
LINE
  5
BAB
100
AcDbEntity
  8
0
  6
BYBLOCK
 62
     0
100
AcDbLine
 10
-1866.831612
 20
-1431.813809
 30
0.0
 11
-1866.831612
 21
-1406.273685
 31
0.0
  0
LINE
  5
BAC
100
AcDbEntity
  8
0
  6
BYBLOCK
 62
     0
100
AcDbLine
 10
-1804.331612
 20
-1407.523685
 30
0.0
 11
-1864.331612
 21
-1407.523685
 31
0.0
  0
SOLID
  5
BAD
100
AcDbEntity
  8
0
  6
BYBLOCK
 62
     0
100
AcDbTrace
 10
-1804.331612
 20
-1407.107019
 30
0.0
 11
-1804.331612
 21
-1407.940352
 31
0.0
 12
-1801.831612
 22
-1407.523685
 32
0.0
 13
-1801.831612
 23
-1407.523685
 33
0.0
  0
SOLID
  5
BAE
100
AcDbEntity
  8
0
  6
BYBLOCK
 62
     0
100
AcDbTrace
 10
-1864.331612
 20
-1407.107019
 30
0.0
 11
-1864.331612
 21
-1407.940352
 31
0.0
 12
-1866.831612
 22
-1407.523685
 32
0.0
 13
-1866.831612
 23
-1407.523685
 33
0.0
  0
MTEXT
  5
BAF
100
AcDbEntity
  8
0
  6
BYBLOCK
 62
     0
100
AcDbMText
 10
-1834.331612
 20
-1405.398685
 30
0.0
 40
3.0
 41
0.0
 71
     5
 72
     1
  1
\A1;65
  0
POINT
  5
BB0
100
AcDbEntity
  8
DEFPOINTS
  6
BYBLOCK
 62
     0
100
AcDbPoint
 10
-1801.831612
 20
-1476.288809
 30
0.0
  0
POINT
  5
BB1
100
AcDbEntity
  8
DEFPOINTS
  6
BYBLOCK
 62
     0
100
AcDbPoint
 10
-1866.831612
 20
-1432.438809
 30
0.0
  0
POINT
  5
BB2
100
AcDbEntity
  8
DEFPOINTS
  6
BYBLOCK
 62
     0
100
AcDbPoint
 10
-1866.831612
 20
-1407.523685
 30
0.0
  0
ENDBLK
  5
BB3
100
AcDbEntity
  8
0
100
AcDbBlockEnd
  0
BLOCK
  5
CC5
100
AcDbEntity
  8
0
100
AcDbBlockBegin
  2
*D27
 70
    65
 10
0.0
 20
0.0
 30
0.0
  3
*D27
  1

  0
LINE
  5
CC6
100
AcDbEntity
  8
0
  6
BYBLOCK
 62
     0
100
AcDbLine
 10
-1853.831612
 20
-1431.813809
 30
0.0
 11
-1853.831612
 21
-1416.556617
 31
0.0
  0
LINE
  5
CC7
100
AcDbEntity
  8
0
  6
BYBLOCK
 62
     0
100
AcDbLine
 10
-1846.831612
 20
-1423.19097
 30
0.0
 11
-1846.831612
 21
-1416.556617
 31
0.0
  0
LINE
  5
CC8
100
AcDbEntity
  8
0
  6
BYBLOCK
 62
     0
100
AcDbLine
 10
-1851.331612
 20
-1417.806617
 30
0.0
 11
-1849.331612
 21
-1417.806617
 31
0.0
  0
LINE
  5
CC9
100
AcDbEntity
  8
0
  6
BYBLOCK
 62
     0
100
AcDbLine
 10
-1846.831612
 20
-1417.806617
 30
0.0
 11
-1833.907612
 21
-1417.806617
 31
0.0
  0
SOLID
  5
CCA
100
AcDbEntity
  8
0
  6
BYBLOCK
 62
     0
100
AcDbTrace
 10
-1851.331612
 20
-1417.38995
 30
0.0
 11
-1851.331612
 21
-1418.223283
 31
0.0
 12
-1853.831612
 22
-1417.806617
 32
0.0
 13
-1853.831612
 23
-1417.806617
 33
0.0
  0
SOLID
  5
CCB
100
AcDbEntity
  8
0
  6
BYBLOCK
 62
     0
100
AcDbTrace
 10
-1849.331612
 20
-1417.38995
 30
0.0
 11
-1849.331612
 21
-1418.223283
 31
0.0
 12
-1846.831612
 22
-1417.806617
 32
0.0
 13
-1846.831612
 23
-1417.806617
 33
0.0
  0
MTEXT
  5
CCC
100
AcDbEntity
  8
0
  6
BYBLOCK
 62
     0
100
AcDbMText
 10
-1839.119612
 20
-1415.681617
 30
0.0
 40
3.0
 41
0.0
 71
     5
 72
     1
  1
\A2;7{\H2.400000;±0.01}
  0
POINT
  5
CCD
100
AcDbEntity
  8
DEFPOINTS
  6
BYBLOCK
 62
     0
100
AcDbPoint
 10
-1853.831612
 20
-1432.438809
 30
0.0
  0
POINT
  5
CCE
100
AcDbEntity
  8
DEFPOINTS
  6
BYBLOCK
 62
     0
100
AcDbPoint
 10
-1846.831612
 20
-1423.81597
 30
0.0
  0
POINT
  5
CCF
100
AcDbEntity
  8
DEFPOINTS
  6
BYBLOCK
 62
     0
100
AcDbPoint
 10
-1846.831612
 20
-1417.806617
 30
0.0
  0
ENDBLK
  5
CD0
100
AcDbEntity
  8
0
100
AcDbBlockEnd
  0
BLOCK
  5
BD0
100
AcDbEntity
  8
0
100
AcDbBlockBegin
  2
*D28
 70
    65
 10
0.0
 20
0.0
 30
0.0
  3
*D28
  1

  0
LINE
  5
BD1
100
AcDbEntity
  8
0
  6
BYBLOCK
 62
     0
100
AcDbLine
 10
-1838.831612
 20
-1460.663809
 30
0.0
 11
-1838.831612
 21
-1449.099654
 31
0.0
  0
LINE
  5
BD2
100
AcDbEntity
  8
0
  6
BYBLOCK
 62
     0
100
AcDbLine
 10
-1853.831612
 20
-1451.710704
 30
0.0
 11
-1853.831612
 21
-1449.099654
 31
0.0
  0
LINE
  5
BD3
100
AcDbEntity
  8
0
  6
BYBLOCK
 62
     0
100
AcDbLine
 10
-1851.331612
 20
-1450.349654
 30
0.0
 11
-1841.331612
 21
-1450.349654
 31
0.0
  0
LINE
  5
BD4
100
AcDbEntity
  8
0
  6
BYBLOCK
 62
     0
100
AcDbLine
 10
-1838.831612
 20
-1450.349654
 30
0.0
 11
-1828.230855
 21
-1450.349654
 31
0.0
  0
SOLID
  5
BD5
100
AcDbEntity
  8
0
  6
BYBLOCK
 62
     0
100
AcDbTrace
 10
-1851.331612
 20
-1449.932988
 30
0.0
 11
-1851.331612
 21
-1450.766321
 31
0.0
 12
-1853.831612
 22
-1450.349654
 32
0.0
 13
-1853.831612
 23
-1450.349654
 33
0.0
  0
SOLID
  5
BD6
100
AcDbEntity
  8
0
  6
BYBLOCK
 62
     0
100
AcDbTrace
 10
-1841.331612
 20
-1449.932988
 30
0.0
 11
-1841.331612
 21
-1450.766321
 31
0.0
 12
-1838.831612
 22
-1450.349654
 32
0.0
 13
-1838.831612
 23
-1450.349654
 33
0.0
  0
MTEXT
  5
BD7
100
AcDbEntity
  8
0
  6
BYBLOCK
 62
     0
100
AcDbMText
 10
-1830.4092
 20
-1448.224654
 30
0.0
 40
3.0
 41
0.0
 71
     5
 72
     1
  1
\A1;15
  0
POINT
  5
BD8
100
AcDbEntity
  8
DEFPOINTS
  6
BYBLOCK
 62
     0
100
AcDbPoint
 10
-1838.831612
 20
-1461.288809
 30
0.0
  0
POINT
  5
BD9
100
AcDbEntity
  8
DEFPOINTS
  6
BYBLOCK
 62
     0
100
AcDbPoint
 10
-1853.831612
 20
-1452.335704
 30
0.0
  0
POINT
  5
BDA
100
AcDbEntity
  8
DEFPOINTS
  6
BYBLOCK
 62
     0
100
AcDbPoint
 10
-1853.831612
 20
-1450.349654
 30
0.0
  0
ENDBLK
  5
BDB
100
AcDbEntity
  8
0
100
AcDbBlockEnd
  0
BLOCK
  5
BDD
100
AcDbEntity
  8
0
100
AcDbBlockBegin
  2
*D29
 70
    65
 10
0.0
 20
0.0
 30
0.0
  3
*D29
  1

  0
LINE
  5
BDE
100
AcDbEntity
  8
0
  6
BYBLOCK
 62
     0
100
AcDbLine
 10
-1866.831612
 20
-1475.778655
 30
0.0
 11
-1866.831612
 21
-1492.540591
 31
0.0
  0
ARC
  5
BDF
100
AcDbEntity
  8
0
  6
BYBLOCK
 62
     0
100
AcDbCircle
 10
-1866.831612
 20
-1475.153655
 30
0.0
 40
16.136937
100
AcDbArc
 50
278.885397
 51
321.114603
  0
SOLID
  5
BE0
100
AcDbEntity
  8
0
  6
BYBLOCK
 62
     0
100
AcDbTrace
 10
-1864.306848
 20
-1491.512351
 30
0.0
 11
-1864.3714
 21
-1490.681522
 31
0.0
 12
-1866.831612
 22
-1491.290591
 32
0.0
 13
-1866.831612
 23
-1491.290591
 33
0.0
  0
SOLID
  5
BE1
100
AcDbEntity
  8
0
  6
BYBLOCK
 62
     0
100
AcDbTrace
 10
-1854.614191
 20
-1485.048195
 30
0.0
 11
-1853.926947
 21
-1485.519513
 31
0.0
 12
-1852.856615
 22
-1483.222123
 32
0.0
 13
-1852.856615
 23
-1483.222123
 33
0.0
  0
MTEXT
  5
BE2
100
AcDbEntity
  8
0
  6
BYBLOCK
 62
     0
100
AcDbMText
 10
-1859.825644
 20
-1487.288348
 30
0.0
 40
3.0
 41
0.0
 71
     5
 72
     1
  1
\A1;60°
 11
0.866025
 21
0.5
 31
0.0
  0
POINT
  5
BE3
100
AcDbEntity
  8
DEFPOINTS
  6
BYBLOCK
 62
     0
100
AcDbPoint
 10
-1861.312455
 20
-1490.317415
 30
0.0
  0
POINT
  5
BE4
100
AcDbEntity
  8
DEFPOINTS
  6
BYBLOCK
 62
     0
100
AcDbPoint
 10
-1866.831612
 20
-1456.988809
 30
0.0
  0
POINT
  5
BE5
100
AcDbEntity
  8
DEFPOINTS
  6
BYBLOCK
 62
     0
100
AcDbPoint
 10
-1835.790685
 20
-1493.075142
 30
0.0
  0
POINT
  5
BE6
100
AcDbEntity
  8
DEFPOINTS
  6
BYBLOCK
 62
     0
100
AcDbPoint
 10
-1866.831612
 20
-1475.153655
 30
0.0
  0
POINT
  5
BE7
100
AcDbEntity
  8
DEFPOINTS
  6
BYBLOCK
 62
     0
100
AcDbPoint
 10
-1866.831612
 20
-1475.153655
 30
0.0
  0
ENDBLK
  5
BE8
100
AcDbEntity
  8
0
100
AcDbBlockEnd
  0
BLOCK
  5
BEB
100
AcDbEntity
  8
0
100
AcDbBlockBegin
  2
*D30
 70
    65
 10
0.0
 20
0.0
 30
0.0
  3
*D30
  1

  0
ARC
  5
BEC
100
AcDbEntity
  8
0
  6
BYBLOCK
 62
     0
100
AcDbCircle
 10
-1846.831612
 20
-1548.409157
 30
0.0
 40
22.194588
100
AcDbArc
 50
63.457218
 51
83.542782
  0
SOLID
  5
BED
100
AcDbEntity
  8
0
  6
BYBLOCK
 62
     0
100
AcDbTrace
 10
-1836.706715
 20
-1528.192186
 30
0.0
 11
-1837.120499
 21
-1528.91553
 31
0.0
 12
-1834.743573
 22
-1529.795209
 32
0.0
 13
-1834.743573
 23
-1529.795209
 33
0.0
  0
SOLID
  5
BEE
100
AcDbEntity
  8
0
  6
BYBLOCK
 62
     0
100
AcDbTrace
 10
-1844.359047
 20
-1526.771375
 30
0.0
 11
-1844.312113
 21
-1525.939364
 31
0.0
 12
-1846.831612
 22
-1526.214569
 32
0.0
 13
-1846.831612
 23
-1526.214569
 33
0.0
  0
MTEXT
  5
BEF
100
AcDbEntity
  8
0
  6
BYBLOCK
 62
     0
100
AcDbMText
 10
-1839.924476
 20
-1525.091056
 30
0.0
 40
3.0
 41
0.0
 71
     5
 72
     1
  1
\A1;33°
 11
0.95882
 21
-0.284015
 31
0.0
  0
POINT
  5
BF0
100
AcDbEntity
  8
DEFPOINTS
  6
BYBLOCK
 62
     0
100
AcDbPoint
 10
-1838.517373
 20
-1527.830693
 30
0.0
  0
POINT
  5
BF1
100
AcDbEntity
  8
DEFPOINTS
  6
BYBLOCK
 62
     0
100
AcDbPoint
 10
-1853.774739
 20
-1559.100635
 30
0.0
  0
POINT
  5
BF2
100
AcDbEntity
  8
DEFPOINTS
  6
BYBLOCK
 62
     0
100
AcDbPoint
 10
-1846.831612
 20
-1565.938809
 30
0.0
  0
POINT
  5
BF3
100
AcDbEntity
  8
DEFPOINTS
  6
BYBLOCK
 62
     0
100
AcDbPoint
 10
-1846.831612
 20
-1423.81597
 30
0.0
  0
POINT
  5
BF4
100
AcDbEntity
  8
DEFPOINTS
  6
BYBLOCK
 62
     0
100
AcDbPoint
 10
-1829.212917
 20
-1521.278746
 30
0.0
  0
ENDBLK
  5
BF5
100
AcDbEntity
  8
0
100
AcDbBlockEnd
  0
BLOCK
  5
BF8
100
AcDbEntity
  8
0
100
AcDbBlockBegin
  2
*D31
 70
    65
 10
0.0
 20
0.0
 30
0.0
  3
*D31
  1

  0
LINE
  5
BF9
100
AcDbEntity
  8
0
  6
BYBLOCK
 62
     0
100
AcDbLine
 10
-1866.831612
 20
-1475.778655
 30
0.0
 11
-1866.831612
 21
-1500.017132
 31
0.0
  0
LINE
  5
BFA
100
AcDbEntity
  8
0
  6
BYBLOCK
 62
     0
100
AcDbLine
 10
-1826.631612
 20
-1510.313809
 30
0.0
 11
-1826.631612
 21
-1497.517132
 31
0.0
  0
LINE
  5
BFB
100
AcDbEntity
  8
0
  6
BYBLOCK
 62
     0
100
AcDbLine
 10
-1864.331612
 20
-1498.767132
 30
0.0
 11
-1829.131612
 21
-1498.767132
 31
0.0
  0
SOLID
  5
BFC
100
AcDbEntity
  8
0
  6
BYBLOCK
 62
     0
100
AcDbTrace
 10
-1864.331612
 20
-1498.350465
 30
0.0
 11
-1864.331612
 21
-1499.183799
 31
0.0
 12
-1866.831612
 22
-1498.767132
 32
0.0
 13
-1866.831612
 23
-1498.767132
 33
0.0
  0
SOLID
  5
BFD
100
AcDbEntity
  8
0
  6
BYBLOCK
 62
     0
100
AcDbTrace
 10
-1829.131612
 20
-1498.350465
 30
0.0
 11
-1829.131612
 21
-1499.183799
 31
0.0
 12
-1826.631612
 22
-1498.767132
 32
0.0
 13
-1826.631612
 23
-1498.767132
 33
0.0
  0
MTEXT
  5
BFE
100
AcDbEntity
  8
0
  6
BYBLOCK
 62
     0
100
AcDbMText
 10
-1846.731612
 20
-1496.641837
 30
0.0
 40
3.0
 41
0.0
 71
     5
 72
     1
  1
\A1;40.2
  0
POINT
  5
BFF
100
AcDbEntity
  8
DEFPOINTS
  6
BYBLOCK
 62
     0
100
AcDbPoint
 10
-1866.831612
 20
-1475.153655
 30
0.0
  0
POINT
  5
C00
100
AcDbEntity
  8
DEFPOINTS
  6
BYBLOCK
 62
     0
100
AcDbPoint
 10
-1826.631612
 20
-1510.938809
 30
0.0
  0
POINT
  5
C01
100
AcDbEntity
  8
DEFPOINTS
  6
BYBLOCK
 62
     0
100
AcDbPoint
 10
-1826.631612
 20
-1498.767132
 30
0.0
  0
ENDBLK
  5
C02
100
AcDbEntity
  8
0
100
AcDbBlockEnd
  0
BLOCK
  5
C1D
100
AcDbEntity
  8
0
100
AcDbBlockBegin
  2
*D32
 70
    65
 10
0.0
 20
0.0
 30
0.0
  3
*D32
  1

  0
LINE
  5
C1E
100
AcDbEntity
  8
0
  6
BYBLOCK
 62
     0
100
AcDbLine
 10
-1847.150794
 20
-1568.423337
 30
0.0
 11
-1848.215703
 21
-1579.381716
 31
0.0
  0
SOLID
  5
C1F
100
AcDbEntity
  8
0
  6
BYBLOCK
 62
     0
100
AcDbTrace
 10
-1847.565507
 20
-1568.383036
 30
0.0
 11
-1846.736081
 21
-1568.463638
 31
0.0
 12
-1846.908989
 22
-1565.935058
 32
0.0
 13
-1846.908989
 23
-1565.935058
 33
0.0
  0
MTEXT
  5
C20
100
AcDbEntity
  8
0
  6
BYBLOCK
 62
     0
100
AcDbMText
 10
-1849.919188
 20
-1574.941131
 30
0.0
 40
3.0
 41
0.0
 71
     5
 72
     1
  1
\A1;R0.8
 11
0.096722
 21
0.995311
 31
0.0
  0
POINT
  5
C21
100
AcDbEntity
  8
DEFPOINTS
  6
BYBLOCK
 62
     0
100
AcDbPoint
 10
-1846.908989
 20
-1565.935058
 30
0.0
  0
POINT
  5
C22
100
AcDbEntity
  8
DEFPOINTS
  6
BYBLOCK
 62
     0
100
AcDbPoint
 10
-1846.831612
 20
-1565.138809
 30
0.0
  0
ENDBLK
  5
C23
100
AcDbEntity
  8
0
100
AcDbBlockEnd
  0
BLOCK
  5
C3C
100
AcDbEntity
  8
0
100
AcDbBlockBegin
  2
*X33
 70
    65
 10
0.0
 20
0.0
 30
0.0
  3
*X33
  1

  0
LINE
  5
C3E
100
AcDbEntity
  8
0
 62
     0
100
AcDbLine
 10
-1847.582614
 20
-1565.512769
 30
0.0
 11
-1846.831612
 21
-1564.761767
 31
0.0
  0
LINE
  5
C3F
100
AcDbEntity
  8
0
 62
     0
100
AcDbLine
 10
-1846.831612
 20
-1564.761767
 30
0.0
 11
-1846.595073
 21
-1564.525228
 31
0.0
  0
LINE
  5
C40
100
AcDbEntity
  8
0
 62
     0
100
AcDbLine
 10
-1847.714966
 20
-1565.375714
 30
0.0
 11
-1846.871284
 21
-1564.532032
 31
0.0
  0
LINE
  5
C41
100
AcDbEntity
  8
0
 62
     0
100
AcDbLine
 10
-1847.847319
 20
-1565.238659
 30
0.0
 11
-1847.129761
 21
-1564.521101
 31
0.0
  0
LINE
  5
C42
100
AcDbEntity
  8
0
 62
     0
100
AcDbLine
 10
-1847.979672
 20
-1565.101604
 30
0.0
 11
-1847.37343
 21
-1564.495362
 31
0.0
  0
LINE
  5
C43
100
AcDbEntity
  8
0
 62
     0
100
AcDbLine
 10
-1848.112024
 20
-1564.964549
 30
0.0
 11
-1847.604353
 21
-1564.456877
 31
0.0
  0
LINE
  5
C44
100
AcDbEntity
  8
0
 62
     0
100
AcDbLine
 10
-1848.244377
 20
-1564.827494
 30
0.0
 11
-1847.824042
 21
-1564.407158
 31
0.0
  0
LINE
  5
C45
100
AcDbEntity
  8
0
 62
     0
100
AcDbLine
 10
-1848.376729
 20
-1564.690438
 30
0.0
 11
-1848.033638
 21
-1564.347347
 31
0.0
  0
LINE
  5
C46
100
AcDbEntity
  8
0
 62
     0
100
AcDbLine
 10
-1848.509082
 20
-1564.553383
 30
0.0
 11
-1848.234024
 21
-1564.278325
 31
0.0
  0
LINE
  5
C47
100
AcDbEntity
  8
0
 62
     0
100
AcDbLine
 10
-1848.641434
 20
-1564.416328
 30
0.0
 11
-1848.425888
 21
-1564.200782
 31
0.0
  0
LINE
  5
C48
100
AcDbEntity
  8
0
 62
     0
100
AcDbLine
 10
-1848.773787
 20
-1564.279273
 30
0.0
 11
-1848.609776
 21
-1564.115262
 31
0.0
  0
LINE
  5
C49
100
AcDbEntity
  8
0
 62
     0
100
AcDbLine
 10
-1848.90614
 20
-1564.142218
 30
0.0
 11
-1848.786121
 21
-1564.022199
 31
0.0
  0
LINE
  5
C4A
100
AcDbEntity
  8
0
 62
     0
100
AcDbLine
 10
-1849.038492
 20
-1564.005163
 30
0.0
 11
-1848.955263
 21
-1563.921934
 31
0.0
  0
LINE
  5
C4B
100
AcDbEntity
  8
0
 62
     0
100
AcDbLine
 10
-1849.170845
 20
-1563.868108
 30
0.0
 11
-1849.117471
 21
-1563.814734
 31
0.0
  0
LINE
  5
C4C
100
AcDbEntity
  8
0
 62
     0
100
AcDbLine
 10
-1849.303197
 20
-1563.731053
 30
0.0
 11
-1849.272949
 21
-1563.700804
 31
0.0
  0
LINE
  5
C4D
100
AcDbEntity
  8
0
 62
     0
100
AcDbLine
 10
-1849.43555
 20
-1563.593998
 30
0.0
 11
-1849.421845
 21
-1563.580292
 31
0.0
  0
LINE
  5
C4E
100
AcDbEntity
  8
0
 62
     0
100
AcDbLine
 10
-1849.567902
 20
-1563.456942
 30
0.0
 11
-1849.564258
 21
-1563.453298
 31
0.0
  0
LINE
  5
C4F
100
AcDbEntity
  8
0
 62
     0
100
AcDbLine
 10
-1847.450261
 20
-1565.649824
 30
0.0
 11
-1846.831612
 21
-1565.031175
 31
0.0
  0
LINE
  5
C50
100
AcDbEntity
  8
0
 62
     0
100
AcDbLine
 10
-1846.831612
 20
-1565.031175
 30
0.0
 11
-1846.296744
 21
-1564.496306
 31
0.0
  0
LINE
  5
C51
100
AcDbEntity
  8
0
 62
     0
100
AcDbLine
 10
-1847.310598
 20
-1565.779568
 30
0.0
 11
-1846.831612
 21
-1565.300582
 31
0.0
  0
LINE
  5
C52
100
AcDbEntity
  8
0
 62
     0
100
AcDbLine
 10
-1846.831612
 20
-1565.300582
 30
0.0
 11
-1845.969177
 21
-1564.438148
 31
0.0
  0
LINE
  5
C53
100
AcDbEntity
  8
0
 62
     0
100
AcDbLine
 10
-1847.139013
 20
-1565.877392
 30
0.0
 11
-1846.831612
 21
-1565.56999
 31
0.0
  0
LINE
  5
C54
100
AcDbEntity
  8
0
 62
     0
100
AcDbLine
 10
-1846.831612
 20
-1565.56999
 30
0.0
 11
-1845.599292
 21
-1564.33767
 31
0.0
  0
LINE
  5
C55
100
AcDbEntity
  8
0
 62
     0
100
AcDbLine
 10
-1846.925495
 20
-1565.933281
 30
0.0
 11
-1846.831612
 21
-1565.839398
 31
0.0
  0
LINE
  5
C56
100
AcDbEntity
  8
0
 62
     0
100
AcDbLine
 10
-1846.831612
 20
-1565.839398
 30
0.0
 11
-1845.157051
 21
-1564.164837
 31
0.0
  0
LINE
  5
C57
100
AcDbEntity
  8
0
 62
     0
100
AcDbLine
 10
-1846.637778
 20
-1565.914972
 30
0.0
 11
-1844.518135
 21
-1563.795329
 31
0.0
  0
ENDBLK
  5
C58
100
AcDbEntity
  8
0
100
AcDbBlockEnd
  0
BLOCK
  5
C7A
100
AcDbEntity
  8
0
100
AcDbBlockBegin
  2
*D34
 70
    65
 10
0.0
 20
0.0
 30
0.0
  3
*D34
  1

  0
LINE
  5
C7B
100
AcDbEntity
  8
0
  6
BYBLOCK
 62
     0
100
AcDbLine
 10
-1801.831612
 20
-1518.877034
 30
0.0
 11
-1801.831612
 21
-1536.697828
 31
0.0
  0
ARC
  5
C7C
100
AcDbEntity
  8
0
  6
BYBLOCK
 62
     0
100
AcDbCircle
 10
-1801.831612
 20
-1518.252034
 30
0.0
 40
17.195794
100
AcDbArc
 50
234.337266
 51
261.662734
  0
SOLID
  5
C7D
100
AcDbEntity
  8
0
  6
BYBLOCK
 62
     0
100
AcDbTrace
 10
-1812.123869
 20
-1532.54295
 30
0.0
 11
-1811.590094
 21
-1531.903006
 31
0.0
 12
-1813.776814
 22
-1530.621653
 32
0.0
 13
-1813.776814
 23
-1530.621653
 33
0.0
  0
SOLID
  5
C7E
100
AcDbEntity
  8
0
  6
BYBLOCK
 62
     0
100
AcDbTrace
 10
-1804.29471
 20
-1534.850533
 30
0.0
 11
-1804.355286
 21
-1535.681662
 31
0.0
 12
-1801.831612
 22
-1535.447828
 32
0.0
 13
-1801.831612
 23
-1535.447828
 33
0.0
  0
MTEXT
  5
C7F
100
AcDbEntity
  8
0
  6
BYBLOCK
 62
     0
100
AcDbMText
 10
-1807.477231
 20
-1532.225431
 30
0.0
 40
3.0
 41
0.0
 71
     5
 72
     1
  1
\A1;44°
 11
0.927184
 21
-0.374607
 31
0.0
  0
POINT
  5
C80
100
AcDbEntity
  8
DEFPOINTS
  6
BYBLOCK
 62
     0
100
AcDbPoint
 10
-1810.255655
 20
-1533.243059
 30
0.0
  0
POINT
  5
C81
100
AcDbEntity
  8
DEFPOINTS
  6
BYBLOCK
 62
     0
100
AcDbPoint
 10
-1801.831612
 20
-1476.288809
 30
0.0
  0
POINT
  5
C82
100
AcDbEntity
  8
DEFPOINTS
  6
BYBLOCK
 62
     0
100
AcDbPoint
 10
-1839.882983
 20
-1557.655382
 30
0.0
  0
POINT
  5
C83
100
AcDbEntity
  8
DEFPOINTS
  6
BYBLOCK
 62
     0
100
AcDbPoint
 10
-1801.831612
 20
-1518.252034
 30
0.0
  0
POINT
  5
C84
100
AcDbEntity
  8
DEFPOINTS
  6
BYBLOCK
 62
     0
100
AcDbPoint
 10
-1801.831612
 20
-1518.252034
 30
0.0
  0
ENDBLK
  5
C85
100
AcDbEntity
  8
0
100
AcDbBlockEnd
  0
BLOCK
  5
C95
100
AcDbEntity
  8
0
100
AcDbBlockBegin
  2
*D35
 70
    65
 10
0.0
 20
0.0
 30
0.0
  3
*D35
  1

  0
LINE
  5
C96
100
AcDbEntity
  8
0
  6
BYBLOCK
 62
     0
100
AcDbLine
 10
-1839.448821
 20
-1558.645351
 30
0.0
 11
-1832.282428
 21
-1551.224333
 31
0.0
  0
LINE
  5
C97
100
AcDbEntity
  8
0
  6
BYBLOCK
 62
     0
100
AcDbLine
 10
-1840.168161
 20
-1557.950692
 30
0.0
 11
-1833.001768
 21
-1550.529675
 31
0.0
  0
LINE
  5
C98
100
AcDbEntity
  8
0
  6
BYBLOCK
 62
     0
100
AcDbLine
 10
-1835.66844
 20
-1549.692204
 30
0.0
 11
-1837.466789
 21
-1547.955558
 31
0.0
  0
LINE
  5
C99
100
AcDbEntity
  8
0
  6
BYBLOCK
 62
     0
100
AcDbLine
 10
-1831.352401
 20
-1553.860154
 30
0.0
 11
-1829.388013
 21
-1555.757141
 31
0.0
  0
SOLID
  5
C9A
100
AcDbEntity
  8
0
  6
BYBLOCK
 62
     0
100
AcDbTrace
 10
-1835.378999
 20
-1549.392479
 30
0.0
 11
-1835.957881
 21
-1549.991929
 31
0.0
 12
-1833.87009
 22
-1551.42885
 32
0.0
 13
-1833.87009
 23
-1551.42885
 33
0.0
  0
SOLID
  5
C9B
100
AcDbEntity
  8
0
  6
BYBLOCK
 62
     0
100
AcDbTrace
 10
-1831.06296
 20
-1553.560429
 30
0.0
 11
-1831.641842
 21
-1554.159879
 31
0.0
 12
-1833.150751
 22
-1552.123508
 32
0.0
 13
-1833.150751
 23
-1552.123508
 33
0.0
  0
MTEXT
  5
C9C
100
AcDbEntity
  8
0
  6
BYBLOCK
 62
     0
100
AcDbMText
 10
-1828.598834
 20
-1553.565145
 30
0.0
 40
3.0
 41
0.0
 71
     5
 72
     1
  1
\A1;1
 11
0.71934
 21
-0.694658
 31
0.0
  0
POINT
  5
C9D
100
AcDbEntity
  8
DEFPOINTS
  6
BYBLOCK
 62
     0
100
AcDbPoint
 10
-1839.882983
 20
-1559.094938
 30
0.0
  0
POINT
  5
C9E
100
AcDbEntity
  8
DEFPOINTS
  6
BYBLOCK
 62
     0
100
AcDbPoint
 10
-1840.602322
 20
-1558.40028
 30
0.0
  0
POINT
  5
C9F
100
AcDbEntity
  8
DEFPOINTS
  6
BYBLOCK
 62
     0
100
AcDbPoint
 10
-1833.87009
 20
-1551.42885
 30
0.0
  0
ENDBLK
  5
CA0
100
AcDbEntity
  8
0
100
AcDbBlockEnd
  0
BLOCK
  5
CD3
100
AcDbEntity
  8
0
100
AcDbBlockBegin
  2
*D36
 70
    65
 10
0.0
 20
0.0
 30
0.0
  3
*D36
  1

  0
LINE
  5
CD4
100
AcDbEntity
  8
0
  6
BYBLOCK
 62
     0
100
AcDbLine
 10
-1815.706612
 20
-1461.788809
 30
0.0
 11
-1793.760445
 21
-1461.788809
 31
0.0
  0
LINE
  5
CD5
100
AcDbEntity
  8
0
  6
BYBLOCK
 62
     0
100
AcDbLine
 10
-1801.206612
 20
-1476.288809
 30
0.0
 11
-1793.760445
 21
-1476.288809
 31
0.0
  0
LINE
  5
CD6
100
AcDbEntity
  8
0
  6
BYBLOCK
 62
     0
100
AcDbLine
 10
-1795.010445
 20
-1464.288809
 30
0.0
 11
-1795.010445
 21
-1473.788809
 31
0.0
  0
SOLID
  5
CD7
100
AcDbEntity
  8
0
  6
BYBLOCK
 62
     0
100
AcDbTrace
 10
-1795.427112
 20
-1464.288809
 30
0.0
 11
-1794.593779
 21
-1464.288809
 31
0.0
 12
-1795.010445
 22
-1461.788809
 32
0.0
 13
-1795.010445
 23
-1461.788809
 33
0.0
  0
SOLID
  5
CD8
100
AcDbEntity
  8
0
  6
BYBLOCK
 62
     0
100
AcDbTrace
 10
-1795.427112
 20
-1473.788809
 30
0.0
 11
-1794.593779
 21
-1473.788809
 31
0.0
 12
-1795.010445
 22
-1476.288809
 32
0.0
 13
-1795.010445
 23
-1476.288809
 33
0.0
  0
MTEXT
  5
CD9
100
AcDbEntity
  8
0
  6
BYBLOCK
 62
     0
100
AcDbMText
 10
-1797.135445
 20
-1469.038809
 30
0.0
 40
3.0
 41
0.0
 71
     5
 72
     1
  1
\A1;14.5
 11
0.0
 21
1.0
 31
0.0
  0
POINT
  5
CDA
100
AcDbEntity
  8
DEFPOINTS
  6
BYBLOCK
 62
     0
100
AcDbPoint
 10
-1816.331612
 20
-1461.788809
 30
0.0
  0
POINT
  5
CDB
100
AcDbEntity
  8
DEFPOINTS
  6
BYBLOCK
 62
     0
100
AcDbPoint
 10
-1801.831612
 20
-1476.288809
 30
0.0
  0
POINT
  5
CDC
100
AcDbEntity
  8
DEFPOINTS
  6
BYBLOCK
 62
     0
100
AcDbPoint
 10
-1795.010445
 20
-1476.288809
 30
0.0
  0
ENDBLK
  5
CDD
100
AcDbEntity
  8
0
100
AcDbBlockEnd
  0
BLOCK
  5
CE0
100
AcDbEntity
  8
0
100
AcDbBlockBegin
  2
*D37
 70
    65
 10
0.0
 20
0.0
 30
0.0
  3
*D37
  1

  0
ARC
  5
CE1
100
AcDbEntity
  8
0
  6
BYBLOCK
 62
     0
100
AcDbCircle
 10
-1801.831612
 20
-1476.288809
 30
0.0
 40
9.396882
100
AcDbArc
 50
150.288612
 51
254.711388
  0
SOLID
  5
CE2
100
AcDbEntity
  8
0
  6
BYBLOCK
 62
     0
100
AcDbTrace
 10
-1810.324316
 20
-1471.378603
 30
0.0
 11
-1809.661913
 21
-1471.884237
 31
0.0
 12
-1808.476211
 22
-1469.64421
 32
0.0
 13
-1808.476211
 23
-1469.64421
 33
0.0
  0
SOLID
  5
CE3
100
AcDbEntity
  8
0
  6
BYBLOCK
 62
     0
100
AcDbTrace
 10
-1804.253968
 20
-1484.94017
 30
0.0
 11
-1804.364821
 21
-1485.766098
 31
0.0
 12
-1801.831612
 22
-1485.685691
 32
0.0
 13
-1801.831612
 23
-1485.685691
 33
0.0
  0
MTEXT
  5
CE4
100
AcDbEntity
  8
0
  6
BYBLOCK
 62
     0
100
AcDbMText
 10
-1808.549955
 20
-1479.071638
 30
0.0
 40
3.0
 41
0.0
 71
     5
 72
     1
  1
\A1;135°
 11
0.382683
 21
-0.92388
 31
0.0
  0
POINT
  5
CE5
100
AcDbEntity
  8
DEFPOINTS
  6
BYBLOCK
 62
     0
100
AcDbPoint
 10
-1811.228494
 20
-1476.288809
 30
0.0
  0
POINT
  5
CE6
100
AcDbEntity
  8
DEFPOINTS
  6
BYBLOCK
 62
     0
100
AcDbPoint
 10
-1816.331612
 20
-1461.788809
 30
0.0
  0
POINT
  5
CE7
100
AcDbEntity
  8
DEFPOINTS
  6
BYBLOCK
 62
     0
100
AcDbPoint
 10
-1801.831612
 20
-1476.288809
 30
0.0
  0
POINT
  5
CE8
100
AcDbEntity
  8
DEFPOINTS
  6
BYBLOCK
 62
     0
100
AcDbPoint
 10
-1801.831612
 20
-1518.252034
 30
0.0
  0
POINT
  5
CE9
100
AcDbEntity
  8
DEFPOINTS
  6
BYBLOCK
 62
     0
100
AcDbPoint
 10
-1801.831612
 20
-1476.288809
 30
0.0
  0
ENDBLK
  5
CEA
100
AcDbEntity
  8
0
100
AcDbBlockEnd
  0
ENDSEC
  0
SECTION
  2
ENTITIES
  0
ARC
  5
9D8
100
AcDbEntity
  8
DISEGNO
  6
CONTINUOUS
100
AcDbCircle
 10
-1848.631612
 20
-1510.938809
 30
0.0
 40
22.0
100
AcDbArc
 50
331.96589
 51
54.290314
  0
LINE
  5
9D9
100
AcDbEntity
  8
DISEGNO
  6
CONTINUOUS
100
AcDbLine
 10
-1801.831612
 20
-1476.288809
 30
0.0
 11
-1801.831612
 21
-1518.252034
 31
0.0
  0
LINE
  5
9DA
100
AcDbEntity
  8
DISEGNO
  6
CONTINUOUS
100
AcDbLine
 10
-1839.882983
 20
-1557.655382
 30
0.0
 11
-1801.831612
 21
-1518.252034
 31
0.0
1001
ACAD
1000
ASC_BOUNDS
1002
{
1070
    19
1002
}
  0
LINE
  5
9DB
100
AcDbEntity
  8
DISEGNO
  6
CONTINUOUS
100
AcDbLine
 10
-1853.774739
 20
-1559.100635
 30
0.0
 11
-1829.212917
 21
-1521.278746
 31
0.0
  0
LINE
  5
9DE
100
AcDbEntity
  8
DISEGNO
  6
CONTINUOUS
100
AcDbLine
 10
-1847.407084
 20
-1565.694536
 30
0.0
 11
-1853.774739
 21
-1559.100635
 31
0.0
1001
ACAD
1000
ASC_BOUNDS
1002
{
1070
    19
1002
}
  0
LINE
  5
9DF
100
AcDbEntity
  8
DISEGNO
  6
CONTINUOUS
100
AcDbLine
 10
-1846.25614
 20
-1565.694536
 30
0.0
 11
-1839.882983
 21
-1559.094938
 31
0.0
1001
ACAD
1000
ASC_BOUNDS
1002
{
1070
    19
1002
}
  0
ARC
  5
9E0
100
AcDbEntity
  8
DISEGNO
  6
CONTINUOUS
100
AcDbCircle
 10
-1846.831612
 20
-1565.138809
 30
0.0
 40
0.8
100
AcDbArc
 50
224.0
 51
316.0
1001
ACAD
1000
ASC_BOUNDS
1002
{
1070
    19
1002
}
  0
LINE
  5
9E1
100
AcDbEntity
  8
DISEGNO
  6
CONTINUOUS
100
AcDbLine
 10
-1839.882983
 20
-1559.094938
 30
0.0
 11
-1839.882983
 21
-1557.655382
 31
0.0
  0
LINE
  5
9E2
100
AcDbEntity
  8
DISEGNO
  6
CONTINUOUS
100
AcDbLine
 10
-1835.790685
 20
-1493.075142
 30
0.0
 11
-1866.831612
 21
-1475.153655
 31
0.0
  0
LINE
  5
9E3
100
AcDbEntity
  8
DISEGNO
  6
CONTINUOUS
 48
2.0
100
AcDbLine
 10
-1865.831612
 20
-1431.438809
 30
0.0
 11
-1854.831612
 21
-1431.438809
 31
0.0
  0
LINE
  5
9E4
100
AcDbEntity
  8
DISEGNO
  6
CONTINUOUS
100
AcDbLine
 10
-1866.831612
 20
-1456.988809
 30
0.0
 11
-1866.831612
 21
-1475.153655
 31
0.0
  0
LINE
  5
9E5
100
AcDbEntity
  8
DISEGNO
  6
CONTINUOUS
 48
2.0
100
AcDbLine
 10
-1866.831612
 20
-1432.438809
 30
0.0
 11
-1866.831612
 21
-1447.988809
 31
0.0
  0
LINE
  5
9E6
100
AcDbEntity
  8
DISEGNO
  6
CONTINUOUS
 48
2.0
100
AcDbLine
 10
-1863.331612
 20
-1448.288809
 30
0.0
 11
-1863.331612
 21
-1456.688809
 31
0.0
  0
LINE
  5
9E7
100
AcDbEntity
  8
DISEGNO
  6
CONTINUOUS
 48
2.0
100
AcDbLine
 10
-1863.331612
 20
-1456.688809
 30
0.0
 11
-1866.531612
 21
-1456.688809
 31
0.0
  0
LINE
  5
9E8
100
AcDbEntity
  8
DISEGNO
  6
CONTINUOUS
100
AcDbLine
 10
-1866.531612
 20
-1456.688809
 30
0.0
 11
-1866.831612
 21
-1456.988809
 31
0.0
  0
LINE
  5
9E9
100
AcDbEntity
  8
DISEGNO
  6
CONTINUOUS
 48
2.0
100
AcDbLine
 10
-1866.531612
 20
-1448.288809
 30
0.0
 11
-1863.331612
 21
-1448.288809
 31
0.0
  0
LINE
  5
9EA
100
AcDbEntity
  8
DISEGNO
  6
CONTINUOUS
 48
2.0
100
AcDbLine
 10
-1866.531612
 20
-1448.288809
 30
0.0
 11
-1866.831612
 21
-1447.988809
 31
0.0
  0
LINE
  5
9EB
100
AcDbEntity
  8
DISEGNO
  6
CONTINUOUS
 48
2.0
100
AcDbLine
 10
-1866.831612
 20
-1432.438809
 30
0.0
 11
-1865.831612
 21
-1431.438809
 31
0.0
  0
LINE
  5
9EC
100
AcDbEntity
  8
DISEGNO
  6
CONTINUOUS
 48
2.0
100
AcDbLine
 10
-1866.831612
 20
-1432.438809
 30
0.0
 11
-1865.831612
 21
-1431.438809
 31
0.0
  0
LINE
  5
9ED
100
AcDbEntity
  8
DISEGNO
  6
CONTINUOUS
100
AcDbLine
 10
-1838.331612
 20
-1461.788809
 30
0.0
 11
-1816.331612
 21
-1461.788809
 31
0.0
  0
LINE
  5
9EE
100
AcDbEntity
  8
DISEGNO
  6
CONTINUOUS
 48
2.0
100
AcDbLine
 10
-1853.831612
 20
-1432.438809
 30
0.0
 11
-1853.831612
 21
-1461.288809
 31
0.0
  0
LINE
  5
9EF
100
AcDbEntity
  8
DISEGNO
  6
CONTINUOUS
100
AcDbLine
 10
-1853.831612
 20
-1461.288809
 30
0.0
 11
-1838.831612
 21
-1461.288809
 31
0.0
  0
LINE
  5
9F0
100
AcDbEntity
  8
DISEGNO
  6
CONTINUOUS
100
AcDbLine
 10
-1838.831612
 20
-1461.288809
 30
0.0
 11
-1838.331612
 21
-1461.788809
 31
0.0
  0
LINE
  5
9F1
100
AcDbEntity
  8
DISEGNO
  6
CONTINUOUS
 48
2.0
100
AcDbLine
 10
-1854.831612
 20
-1431.438809
 30
0.0
 11
-1853.831612
 21
-1432.438809
 31
0.0
  0
LINE
  5
9F2
100
AcDbEntity
  8
DISEGNO
  6
CONTINUOUS
100
AcDbLine
 10
-1816.331612
 20
-1461.788809
 30
0.0
 11
-1801.831612
 21
-1476.288809
 31
0.0
  0
ENDSEC
  0
SECTION
  2
OBJECTS
  0
DICTIONARY
  5
C
100
AcDbDictionary
  3
ACAD_GROUP
350
D
  3
ACAD_MLINESTYLE
350
E
  0
DICTIONARY
  5
D
102
{ACAD_REACTORS
330
C
102
}
100
AcDbDictionary
  0
DICTIONARY
  5
E
102
{ACAD_REACTORS
330
C
102
}
100
AcDbDictionary
  3
STANDARD
350
1C
  0
MLINESTYLE
  5
1C
102
{ACAD_REACTORS
330
E
102
}
100
AcDbMlineStyle
  2
STANDARD
 70
     0
  3

 62
     0
 51
90.0
 52
90.0
 71
     2
 49
0.5
 62
   256
  6
BYLAYER
 49
-0.5
 62
   256
  6
BYLAYER
  0
ENDSEC
  0
EOF
