  0
SECTION
  2
HEADER
  9
$ACADVER
  1
AC1012
  9
$DWGCODEPAGE
  3
iso8859-1
  9
$INSBASE
 10
0.0
 20
0.0
 30
0.0
  9
$EXTMIN
 10
33.279664
 20
45.278287
 30
0.0
  9
$EXTMAX
 10
191.842349
 20
268.438344
 30
0.0
  9
$LIMMIN
 10
0.0
 20
0.0
  9
$LIMMAX
 10
210.0
 20
297.0
  9
$ORTHOMODE
 70
     0
  9
$REGENMODE
 70
     1
  9
$FILLMODE
 70
     1
  9
$QTEXTMODE
 70
     0
  9
$MIRRTEXT
 70
     1
  9
$DRAGMODE
 70
     2
  9
$LTSCALE
 40
1.0
  9
$OSMODE
 70
     0
  9
$ATTMODE
 70
     1
  9
$TEXTSIZE
 40
3.0
  9
$TRACEWID
 40
1.0
  9
$TEXTSTYLE
  7
STANDARD
  9
$CLAYER
  8
OGGETTI
  9
$CELTYPE
  6
CONTINUOUS
  9
$CECOLOR
 62
   256
  9
$CELTSCALE
 40
1.0
  9
$DELOBJ
 70
     1
  9
$DISPSILH
 70
     0
  9
$DIMSCALE
 40
0.0
  9
$DIMASZ
 40
2.6
  9
$DIMEXO
 40
0.63
  9
$DIMDLI
 40
3.75
  9
$DIMRND
 40
0.0
  9
$DIMDLE
 40
0.0
  9
$DIMEXE
 40
1.25
  9
$DIMTP
 40
0.02
  9
$DIMTM
 40
0.0
  9
$DIMTXT
 40
2.6
  9
$DIMCEN
 40
2.1
  9
$DIMTSZ
 40
0.0
  9
$DIMTOL
 70
     0
  9
$DIMLIM
 70
     0
  9
$DIMTIH
 70
     0
  9
$DIMTOH
 70
     0
  9
$DIMSE1
 70
     0
  9
$DIMSE2
 70
     0
  9
$DIMTAD
 70
     1
  9
$DIMZIN
 70
     8
  9
$DIMBLK
  1

  9
$DIMASO
 70
     1
  9
$DIMSHO
 70
     1
  9
$DIMPOST
  1

  9
$DIMAPOST
  1

  9
$DIMALT
 70
     0
  9
$DIMALTD
 70
     2
  9
$DIMALTF
 40
0.0394
  9
$DIMLFAC
 40
1.0
  9
$DIMTOFL
 70
     1
  9
$DIMTVP
 40
1.0
  9
$DIMTIX
 70
     0
  9
$DIMSOXD
 70
     0
  9
$DIMSAH
 70
     0
  9
$DIMBLK1
  1

  9
$DIMBLK2
  1

  9
$DIMSTYLE
  2
ISO-25
  9
$DIMCLRD
 70
     0
  9
$DIMCLRE
 70
     0
  9
$DIMCLRT
 70
     0
  9
$DIMTFAC
 40
1.0
  9
$DIMGAP
 40
0.63
  9
$DIMJUST
 70
     0
  9
$DIMSD1
 70
     0
  9
$DIMSD2
 70
     0
  9
$DIMTOLJ
 70
     1
  9
$DIMTZIN
 70
     0
  9
$DIMALTZ
 70
     0
  9
$DIMALTTZ
 70
     0
  9
$DIMFIT
 70
     3
  9
$DIMUPT
 70
     0
  9
$DIMUNIT
 70
     2
  9
$DIMDEC
 70
     2
  9
$DIMTDEC
 70
     2
  9
$DIMALTU
 70
     2
  9
$DIMALTTD
 70
     2
  9
$DIMTXSTY
  7
STANDARD
  9
$DIMAUNIT
 70
     0
  9
$LUNITS
 70
     2
  9
$LUPREC
 70
     2
  9
$SKETCHINC
 40
1.0
  9
$FILLETRAD
 40
2.75
  9
$AUNITS
 70
     0
  9
$AUPREC
 70
     0
  9
$MENU
  1
.
  9
$ELEVATION
 40
0.0
  9
$PELEVATION
 40
0.0
  9
$THICKNESS
 40
0.0
  9
$LIMCHECK
 70
     0
  9
$BLIPMODE
 70
     1
  9
$CHAMFERA
 40
0.5
  9
$CHAMFERB
 40
0.5
  9
$CHAMFERC
 40
20.0
  9
$CHAMFERD
 40
0.0
  9
$SKPOLY
 70
     0
  9
$TDCREATE
 40
2450892.577570139
  9
$TDUPDATE
 40
2451030.452764004
  9
$TDINDWG
 40
0.3369537037
  9
$TDUSRTIMER
 40
0.3369537037
  9
$USRTIMER
 70
     1
  9
$ANGBASE
 50
0.0
  9
$ANGDIR
 70
     0
  9
$PDMODE
 70
     0
  9
$PDSIZE
 40
0.0
  9
$PLINEWID
 40
0.0
  9
$COORDS
 70
     0
  9
$SPLFRAME
 70
     0
  9
$SPLINETYPE
 70
     6
  9
$SPLINESEGS
 70
     8
  9
$ATTDIA
 70
     0
  9
$ATTREQ
 70
     1
  9
$HANDLING
 70
     1
  9
$HANDSEED
  5
81C
  9
$SURFTAB1
 70
     6
  9
$SURFTAB2
 70
     6
  9
$SURFTYPE
 70
     6
  9
$SURFU
 70
     6
  9
$SURFV
 70
     6
  9
$UCSNAME
  2

  9
$UCSORG
 10
0.0
 20
0.0
 30
0.0
  9
$UCSXDIR
 10
1.0
 20
0.0
 30
0.0
  9
$UCSYDIR
 10
0.0
 20
1.0
 30
0.0
  9
$PUCSNAME
  2

  9
$PUCSORG
 10
0.0
 20
0.0
 30
0.0
  9
$PUCSXDIR
 10
1.0
 20
0.0
 30
0.0
  9
$PUCSYDIR
 10
0.0
 20
1.0
 30
0.0
  9
$USERI1
 70
     0
  9
$USERI2
 70
     0
  9
$USERI3
 70
     0
  9
$USERI4
 70
     0
  9
$USERI5
 70
     0
  9
$USERR1
 40
0.0
  9
$USERR2
 40
0.0
  9
$USERR3
 40
0.0
  9
$USERR4
 40
0.0
  9
$USERR5
 40
0.0
  9
$WORLDVIEW
 70
     1
  9
$SHADEDGE
 70
     3
  9
$SHADEDIF
 70
    70
  9
$TILEMODE
 70
     1
  9
$MAXACTVP
 70
    16
  9
$PINSBASE
 10
0.0
 20
0.0
 30
0.0
  9
$PLIMCHECK
 70
     0
  9
$PEXTMIN
 10
1.000000E+20
 20
1.000000E+20
 30
1.000000E+20
  9
$PEXTMAX
 10
-1.000000E+20
 20
-1.000000E+20
 30
-1.000000E+20
  9
$PLIMMIN
 10
0.0
 20
0.0
  9
$PLIMMAX
 10
210.0
 20
297.0
  9
$UNITMODE
 70
     0
  9
$VISRETAIN
 70
     0
  9
$PLINEGEN
 70
     0
  9
$PSLTSCALE
 70
     1
  9
$TREEDEPTH
 70
  3020
  9
$PICKSTYLE
 70
     1
  9
$CMLSTYLE
  2
STANDARD
  9
$CMLJUST
 70
     0
  9
$CMLSCALE
 40
1.0
  9
$SAVEIMAGES
 70
     0
  0
ENDSEC
  0
SECTION
  2
CLASSES
  0
ENDSEC
  0
SECTION
  2
TABLES
  0
TABLE
  2
VPORT
  5
8
100
AcDbSymbolTable
 70
     2
  0
VPORT
  5
81B
100
AcDbSymbolTableRecord
100
AcDbViewportTableRecord
  2
*ACTIVE
 70
     0
 10
0.0
 20
0.0
 11
1.0
 21
1.0
 12
106.904485
 22
166.318199
 13
0.0
 23
0.0
 14
5.0
 24
5.0
 15
5.0
 25
5.0
 16
0.0
 26
0.0
 36
1.0
 17
0.0
 27
0.0
 37
0.0
 40
119.066259
 41
1.873134
 42
50.0
 43
0.0
 44
0.0
 50
0.0
 51
0.0
 71
     0
 72
   100
 73
     1
 74
     0
 75
     0
 76
     0
 77
     0
 78
     0
  0
ENDTAB
  0
TABLE
  2
LTYPE
  5
5
100
AcDbSymbolTable
 70
     4
  0
LTYPE
  5
14
100
AcDbSymbolTableRecord
100
AcDbLinetypeTableRecord
  2
BYBLOCK
 70
     0
  3

 72
    65
 73
     0
 40
0.0
  0
LTYPE
  5
15
100
AcDbSymbolTableRecord
100
AcDbLinetypeTableRecord
  2
BYLAYER
 70
     0
  3

 72
    65
 73
     0
 40
0.0
  0
LTYPE
  5
16
100
AcDbSymbolTableRecord
100
AcDbLinetypeTableRecord
  2
CONTINUOUS
 70
    64
  3
Solid line
 72
    65
 73
     0
 40
0.0
  0
LTYPE
  5
F8
100
AcDbSymbolTableRecord
100
AcDbLinetypeTableRecord
  2
LINEA-LINEETTA
 70
    64
  3
____ _ ____ _ ____ _ ____ _ ____ _ ____ _ ____ 
 72
    65
 73
     4
 40
2.0
 49
1.25
 74
     0
 49
-0.25
 74
     0
 49
0.25
 74
     0
 49
-0.25
 74
     0
  0
LTYPE
  5
F9
100
AcDbSymbolTableRecord
100
AcDbLinetypeTableRecord
  2
NASCOSTA
 70
    64
  3
__ __ __ __ __ __ __ __ __ __ __ __ __ __ __ __
 72
    65
 73
     2
 40
0.375
 49
0.25
 74
     0
 49
-0.125
 74
     0
  0
LTYPE
  5
5DD
100
AcDbSymbolTableRecord
100
AcDbLinetypeTableRecord
  2
LINEA-LINEETTAX2
 70
    64
  3
________  __  ________  __  ________  __  _____
 72
    65
 73
     4
 40
4.0
 49
2.5
 74
     0
 49
-0.5
 74
     0
 49
0.5
 74
     0
 49
-0.5
 74
     0
  0
ENDTAB
  0
TABLE
  2
LAYER
  5
2
100
AcDbSymbolTable
 70
    16
  0
LAYER
  5
F
100
AcDbSymbolTableRecord
100
AcDbLayerTableRecord
  2
0
 70
     0
 62
     7
  6
CONTINUOUS
  0
LAYER
  5
61
100
AcDbSymbolTableRecord
100
AcDbLayerTableRecord
  2
RIQUADRO025
 70
    64
 62
     7
  6
CONTINUOUS
  0
LAYER
  5
62
100
AcDbSymbolTableRecord
100
AcDbLayerTableRecord
  2
RIQUADRO035
 70
    64
 62
     2
  6
CONTINUOUS
  0
LAYER
  5
63
100
AcDbSymbolTableRecord
100
AcDbLayerTableRecord
  2
RIQUADRO050
 70
    64
 62
     6
  6
CONTINUOUS
  0
LAYER
  5
64
100
AcDbSymbolTableRecord
100
AcDbLayerTableRecord
  2
RIQUADRO070
 70
    64
 62
     5
  6
CONTINUOUS
  0
LAYER
  5
65
100
AcDbSymbolTableRecord
100
AcDbLayerTableRecord
  2
RIQUADRO100
 70
    64
 62
     1
  6
CONTINUOUS
  0
LAYER
  5
66
100
AcDbSymbolTableRecord
100
AcDbLayerTableRecord
  2
RIQUADRO140
 70
    64
 62
     3
  6
CONTINUOUS
  0
LAYER
  5
67
100
AcDbSymbolTableRecord
100
AcDbLayerTableRecord
  2
RIQUADRO200
 70
    64
 62
     8
  6
CONTINUOUS
  0
LAYER
  5
68
100
AcDbSymbolTableRecord
100
AcDbLayerTableRecord
  2
BT
 70
    64
 62
     7
  6
CONTINUOUS
  0
LAYER
  5
FA
100
AcDbSymbolTableRecord
100
AcDbLayerTableRecord
  2
OGGETTI
 70
    64
 62
   250
  6
CONTINUOUS
  0
LAYER
  5
FB
100
AcDbSymbolTableRecord
100
AcDbLayerTableRecord
  2
QUOTE
 70
    64
 62
     1
  6
CONTINUOUS
  0
LAYER
  5
FC
100
AcDbSymbolTableRecord
100
AcDbLayerTableRecord
  2
NASCOSTA
 70
    64
 62
     2
  6
NASCOSTA
  0
LAYER
  5
FD
100
AcDbSymbolTableRecord
100
AcDbLayerTableRecord
  2
TESTO
 70
    64
 62
     6
  6
CONTINUOUS
  0
LAYER
  5
FE
100
AcDbSymbolTableRecord
100
AcDbLayerTableRecord
  2
CENTRO
 70
    64
 62
     3
  6
LINEA-LINEETTAX2
  0
LAYER
  5
136
100
AcDbSymbolTableRecord
100
AcDbLayerTableRecord
  2
DEFPOINTS
 70
    64
 62
     7
  6
CONTINUOUS
  0
LAYER
  5
6B2
100
AcDbSymbolTableRecord
100
AcDbLayerTableRecord
  2
SEZIONE
 70
    64
 62
     8
  6
CONTINUOUS
  0
ENDTAB
  0
TABLE
  2
STYLE
  5
3
100
AcDbSymbolTable
 70
     2
  0
STYLE
  5
10
100
AcDbSymbolTableRecord
100
AcDbTextStyleTableRecord
  2
STANDARD
 70
    64
 40
3.0
 41
1.0
 50
0.0
 71
     0
 42
3.0
  3
ISOCP
  4

  0
STYLE
  5
69
100
AcDbSymbolTableRecord
100
AcDbTextStyleTableRecord
  2
ISOCP
 70
    64
 40
0.0
 41
1.0
 50
0.0
 71
     0
 42
2.5
  3
isocp
  4

  0
ENDTAB
  0
TABLE
  2
VIEW
  5
6
100
AcDbSymbolTable
 70
     0
  0
ENDTAB
  0
TABLE
  2
UCS
  5
7
100
AcDbSymbolTable
 70
     0
  0
ENDTAB
  0
TABLE
  2
APPID
  5
9
100
AcDbSymbolTable
 70
     1
  0
APPID
  5
11
100
AcDbSymbolTableRecord
100
AcDbRegAppTableRecord
  2
ACAD
 70
     0
  0
ENDTAB
  0
TABLE
  2
DIMSTYLE
  5
A
100
AcDbSymbolTable
 70
     8
  0
DIMSTYLE
105
1D
100
AcDbSymbolTableRecord
100
AcDbDimStyleTableRecord
  2
STANDARD
 70
     0
  3

  4

  5

  6

  7

 40
1.0
 41
0.18
 42
0.0625
 43
0.38
 44
0.18
 45
0.0
 46
0.0
 47
0.0
 48
0.0
140
0.18
141
0.09
142
0.0
143
25.4
144
1.0
145
0.0
146
1.0
147
0.09
 71
     0
 72
     0
 73
     1
 74
     1
 75
     0
 76
     0
 77
     0
 78
     0
170
     0
171
     2
172
     0
173
     0
174
     0
175
     0
176
     0
177
     0
178
     0
270
     2
271
     4
272
     4
273
     2
274
     2
340
10
275
     0
280
     0
281
     0
282
     0
283
     1
284
     0
285
     0
286
     0
287
     3
288
     0
  0
DIMSTYLE
105
24
100
AcDbSymbolTableRecord
100
AcDbDimStyleTableRecord
  2
ISO-25
 70
     0
  3

  4

  5

  6

  7

 40
1.0
 41
2.5
 42
0.625
 43
3.75
 44
1.25
 45
0.0
 46
0.0
 47
0.0
 48
0.0
140
2.5
141
2.5
142
0.0
143
0.0394
144
1.0
145
1.0
146
1.0
147
0.625
 71
     0
 72
     0
 73
     1
 74
     0
 75
     0
 76
     0
 77
     1
 78
     8
170
     0
171
     2
172
     1
173
     0
174
     0
175
     0
176
     0
177
     0
178
     0
270
     2
271
     4
272
     4
273
     2
274
     2
340
10
275
     0
280
     0
281
     0
282
     0
283
     1
284
     0
285
     0
286
     0
287
     3
288
     0
  0
DIMSTYLE
105
25
100
AcDbSymbolTableRecord
100
AcDbDimStyleTableRecord
  2
ISO-35
 70
     0
  3

  4

  5

  6

  7

 40
1.0
 41
3.5
 42
0.875
 43
5.25
 44
1.75
 45
0.0
 46
0.0
 47
0.0
 48
0.0
140
3.5
141
3.5
142
0.0
143
0.0394
144
1.0
145
1.4
146
1.0
147
0.875
 71
     0
 72
     0
 73
     1
 74
     0
 75
     0
 76
     0
 77
     1
 78
     8
170
     0
171
     2
172
     1
173
     0
174
     0
175
     0
176
     0
177
     0
178
     0
270
     2
271
     4
272
     4
273
     2
274
     2
340
10
275
     0
280
     0
281
     0
282
     0
283
     1
284
     0
285
     0
286
     0
287
     3
288
     0
  0
DIMSTYLE
105
26
100
AcDbSymbolTableRecord
100
AcDbDimStyleTableRecord
  2
ISO-5
 70
     0
  3

  4

  5

  6

  7

 40
1.0
 41
5.0
 42
1.25
 43
7.5
 44
2.5
 45
0.0
 46
0.0
 47
0.0
 48
0.0
140
5.0
141
5.0
142
0.0
143
0.0394
144
1.0
145
2.0
146
1.0
147
1.25
 71
     0
 72
     0
 73
     1
 74
     0
 75
     0
 76
     0
 77
     1
 78
     8
170
     0
171
     2
172
     1
173
     0
174
     0
175
     0
176
     0
177
     0
178
     0
270
     2
271
     4
272
     4
273
     2
274
     2
340
10
275
     0
280
     0
281
     0
282
     0
283
     1
284
     0
285
     0
286
     0
287
     3
288
     0
  0
DIMSTYLE
105
27
100
AcDbSymbolTableRecord
100
AcDbDimStyleTableRecord
  2
ISO-7
 70
     0
  3

  4

  5

  6

  7

 40
1.0
 41
7.0
 42
1.75
 43
10.5
 44
3.5
 45
0.0
 46
0.0
 47
0.0
 48
0.0
140
7.0
141
7.0
142
0.0
143
0.0394
144
1.0
145
2.8
146
1.0
147
1.75
 71
     0
 72
     0
 73
     1
 74
     0
 75
     0
 76
     0
 77
     1
 78
     8
170
     0
171
     2
172
     1
173
     0
174
     0
175
     0
176
     0
177
     0
178
     0
270
     2
271
     4
272
     4
273
     2
274
     2
340
10
275
     0
280
     0
281
     0
282
     0
283
     1
284
     0
285
     0
286
     0
287
     3
288
     0
  0
DIMSTYLE
105
28
100
AcDbSymbolTableRecord
100
AcDbDimStyleTableRecord
  2
ISO1
 70
     0
  3

  4

  5

  6

  7

 40
1.0
 41
10.0
 42
2.5
 43
15.0
 44
5.0
 45
0.0
 46
0.0
 47
0.0
 48
0.0
140
10.0
141
10.0
142
0.0
143
0.0394
144
1.0
145
4.0
146
1.0
147
2.5
 71
     0
 72
     0
 73
     1
 74
     0
 75
     0
 76
     0
 77
     1
 78
     8
170
     0
171
     2
172
     1
173
     0
174
     0
175
     0
176
     0
177
     0
178
     0
270
     2
271
     4
272
     4
273
     2
274
     2
340
10
275
     0
280
     0
281
     0
282
     0
283
     1
284
     0
285
     0
286
     0
287
     3
288
     0
  0
DIMSTYLE
105
29
100
AcDbSymbolTableRecord
100
AcDbDimStyleTableRecord
  2
ISO1-4
 70
     0
  3

  4

  5

  6

  7

 40
1.0
 41
14.0
 42
3.5
 43
21.0
 44
7.0
 45
0.0
 46
0.0
 47
0.0
 48
0.0
140
14.0
141
14.0
142
0.0
143
0.0394
144
1.0
145
5.6
146
1.0
147
3.5
 71
     0
 72
     0
 73
     1
 74
     0
 75
     0
 76
     0
 77
     1
 78
     8
170
     0
171
     2
172
     1
173
     0
174
     0
175
     0
176
     0
177
     0
178
     0
270
     2
271
     4
272
     4
273
     2
274
     2
340
10
275
     0
280
     0
281
     0
282
     0
283
     1
284
     0
285
     0
286
     0
287
     3
288
     0
  0
DIMSTYLE
105
2A
100
AcDbSymbolTableRecord
100
AcDbDimStyleTableRecord
  2
ISO2
 70
     0
  3

  4

  5

  6

  7

 40
1.0
 41
20.0
 42
5.0
 43
30.0
 44
10.0
 45
0.0
 46
0.0
 47
0.0
 48
0.0
140
20.0
141
20.0
142
0.0
143
0.0394
144
1.0
145
8.0
146
1.0
147
5.0
 71
     0
 72
     0
 73
     1
 74
     0
 75
     0
 76
     0
 77
     1
 78
     8
170
     0
171
     2
172
     1
173
     0
174
     0
175
     0
176
     0
177
     0
178
     0
270
     2
271
     4
272
     4
273
     2
274
     2
340
10
275
     0
280
     0
281
     0
282
     0
283
     1
284
     0
285
     0
286
     0
287
     3
288
     0
  0
ENDTAB
  0
TABLE
  2
BLOCK_RECORD
  5
1
100
AcDbSymbolTable
 70
    19
  0
BLOCK_RECORD
  5
1A
100
AcDbSymbolTableRecord
100
AcDbBlockTableRecord
  2
*MODEL_SPACE
  0
BLOCK_RECORD
  5
17
100
AcDbSymbolTableRecord
100
AcDbBlockTableRecord
  2
*PAPER_SPACE
  0
BLOCK_RECORD
  5
6A
100
AcDbSymbolTableRecord
100
AcDbBlockTableRecord
  2
ISO_A4
  0
BLOCK_RECORD
  5
18D
100
AcDbSymbolTableRecord
100
AcDbBlockTableRecord
  2
*D1
  0
BLOCK_RECORD
  5
1A8
100
AcDbSymbolTableRecord
100
AcDbBlockTableRecord
  2
*D2
  0
BLOCK_RECORD
  5
1DC
100
AcDbSymbolTableRecord
100
AcDbBlockTableRecord
  2
*D3
  0
BLOCK_RECORD
  5
353
100
AcDbSymbolTableRecord
100
AcDbBlockTableRecord
  2
*D4
  0
BLOCK_RECORD
  5
4E7
100
AcDbSymbolTableRecord
100
AcDbBlockTableRecord
  2
*D5
  0
BLOCK_RECORD
  5
4F4
100
AcDbSymbolTableRecord
100
AcDbBlockTableRecord
  2
*D6
  0
BLOCK_RECORD
  5
63D
100
AcDbSymbolTableRecord
100
AcDbBlockTableRecord
  2
*D7
  0
BLOCK_RECORD
  5
64D
100
AcDbSymbolTableRecord
100
AcDbBlockTableRecord
  2
*D8
  0
BLOCK_RECORD
  5
65C
100
AcDbSymbolTableRecord
100
AcDbBlockTableRecord
  2
*D9
  0
BLOCK_RECORD
  5
712
100
AcDbSymbolTableRecord
100
AcDbBlockTableRecord
  2
*D10
  0
BLOCK_RECORD
  5
725
100
AcDbSymbolTableRecord
100
AcDbBlockTableRecord
  2
*D11
  0
BLOCK_RECORD
  5
731
100
AcDbSymbolTableRecord
100
AcDbBlockTableRecord
  2
*D12
  0
BLOCK_RECORD
  5
73D
100
AcDbSymbolTableRecord
100
AcDbBlockTableRecord
  2
*D13
  0
BLOCK_RECORD
  5
76E
100
AcDbSymbolTableRecord
100
AcDbBlockTableRecord
  2
*D14
  0
BLOCK_RECORD
  5
787
100
AcDbSymbolTableRecord
100
AcDbBlockTableRecord
  2
*D15
  0
BLOCK_RECORD
  5
7AB
100
AcDbSymbolTableRecord
100
AcDbBlockTableRecord
  2
*X16
  0
BLOCK_RECORD
  5
7E3
100
AcDbSymbolTableRecord
100
AcDbBlockTableRecord
  2
*X17
  0
BLOCK_RECORD
  5
802
100
AcDbSymbolTableRecord
100
AcDbBlockTableRecord
  2
*D18
  0
ENDTAB
  0
ENDSEC
  0
SECTION
  2
BLOCKS
  0
BLOCK
  5
1B
100
AcDbEntity
  8
0
100
AcDbBlockBegin
  2
*MODEL_SPACE
 70
     0
 10
0.0
 20
0.0
 30
0.0
  3
*MODEL_SPACE
  1

  0
ENDBLK
  5
1C
100
AcDbEntity
  8
0
100
AcDbBlockEnd
  0
BLOCK
  5
18
100
AcDbEntity
 67
     1
  8
0
100
AcDbBlockBegin
  2
*PAPER_SPACE
 70
     0
 10
0.0
 20
0.0
 30
0.0
  3
*PAPER_SPACE
  1

  0
ENDBLK
  5
19
100
AcDbEntity
 67
     1
  8
0
100
AcDbBlockEnd
  0
BLOCK
  5
E0
100
AcDbEntity
  8
0
100
AcDbBlockBegin
  2
ISO_A4
 70
     2
 10
0.0
 20
0.0
 30
0.0
  3
ISO_A4
  1

  0
LINE
  5
6B
100
AcDbEntity
  8
RIQUADRO200
100
AcDbLine
 10
0.0
 20
0.0
 30
0.0
 11
10.0
 21
0.0
 31
0.0
  0
LINE
  5
6C
100
AcDbEntity
  8
RIQUADRO200
100
AcDbLine
 10
0.0
 20
0.0
 30
0.0
 11
0.0
 21
10.0
 31
0.0
  0
LINE
  5
6D
100
AcDbEntity
  8
RIQUADRO200
100
AcDbLine
 10
210.0
 20
0.0
 30
0.0
 11
200.0
 21
0.0
 31
0.0
  0
LINE
  5
6E
100
AcDbEntity
  8
RIQUADRO200
100
AcDbLine
 10
210.0
 20
0.0
 30
0.0
 11
210.0
 21
10.0
 31
0.0
  0
LINE
  5
6F
100
AcDbEntity
  8
RIQUADRO200
100
AcDbLine
 10
210.0
 20
287.0
 30
0.0
 11
210.0
 21
297.0
 31
0.0
  0
LINE
  5
70
100
AcDbEntity
  8
RIQUADRO200
100
AcDbLine
 10
210.0
 20
297.0
 30
0.0
 11
200.0
 21
297.0
 31
0.0
  0
LINE
  5
71
100
AcDbEntity
  8
RIQUADRO200
100
AcDbLine
 10
10.0
 20
297.0
 30
0.0
 11
0.0
 21
297.0
 31
0.0
  0
LINE
  5
72
100
AcDbEntity
  8
RIQUADRO200
100
AcDbLine
 10
0.0
 20
297.0
 30
0.0
 11
0.0
 21
287.0
 31
0.0
  0
LINE
  5
73
100
AcDbEntity
  8
RIQUADRO070
100
AcDbLine
 10
10.0
 20
10.0
 30
0.0
 11
200.0
 21
10.0
 31
0.0
  0
LINE
  5
74
100
AcDbEntity
  8
RIQUADRO070
100
AcDbLine
 10
200.0
 20
10.0
 30
0.0
 11
200.0
 21
287.0
 31
0.0
  0
LINE
  5
75
100
AcDbEntity
  8
RIQUADRO070
100
AcDbLine
 10
200.0
 20
287.0
 30
0.0
 11
10.0
 21
287.0
 31
0.0
  0
LINE
  5
76
100
AcDbEntity
  8
RIQUADRO070
100
AcDbLine
 10
10.0
 20
287.0
 30
0.0
 11
10.0
 21
10.0
 31
0.0
  0
LINE
  5
77
100
AcDbEntity
  8
RIQUADRO050
100
AcDbLine
 10
105.0
 20
10.0
 30
0.0
 11
105.0
 21
5.0
 31
0.0
  0
LINE
  5
78
100
AcDbEntity
  8
RIQUADRO050
100
AcDbLine
 10
55.0
 20
5.0
 30
0.0
 11
155.0
 21
5.0
 31
0.0
  0
LINE
  5
79
100
AcDbEntity
  8
RIQUADRO050
100
AcDbLine
 10
55.0
 20
5.0
 30
0.0
 11
55.0
 21
10.0
 31
0.0
  0
LINE
  5
7A
100
AcDbEntity
  8
RIQUADRO050
100
AcDbLine
 10
155.0
 20
5.0
 30
0.0
 11
155.0
 21
10.0
 31
0.0
  0
LINE
  5
7B
100
AcDbEntity
  8
RIQUADRO050
100
AcDbLine
 10
65.0
 20
5.0
 30
0.0
 11
65.0
 21
10.0
 31
0.0
  0
LINE
  5
7C
100
AcDbEntity
  8
RIQUADRO050
100
AcDbLine
 10
75.0
 20
5.0
 30
0.0
 11
75.0
 21
10.0
 31
0.0
  0
LINE
  5
7D
100
AcDbEntity
  8
RIQUADRO050
100
AcDbLine
 10
85.0
 20
5.0
 30
0.0
 11
85.0
 21
10.0
 31
0.0
  0
LINE
  5
7E
100
AcDbEntity
  8
RIQUADRO050
100
AcDbLine
 10
95.0
 20
5.0
 30
0.0
 11
95.0
 21
10.0
 31
0.0
  0
LINE
  5
7F
100
AcDbEntity
  8
RIQUADRO050
100
AcDbLine
 10
115.0
 20
5.0
 30
0.0
 11
115.0
 21
10.0
 31
0.0
  0
LINE
  5
80
100
AcDbEntity
  8
RIQUADRO050
100
AcDbLine
 10
125.0
 20
5.0
 30
0.0
 11
125.0
 21
10.0
 31
0.0
  0
LINE
  5
81
100
AcDbEntity
  8
RIQUADRO050
100
AcDbLine
 10
135.0
 20
5.0
 30
0.0
 11
135.0
 21
10.0
 31
0.0
  0
LINE
  5
82
100
AcDbEntity
  8
RIQUADRO050
100
AcDbLine
 10
145.0
 20
5.0
 30
0.0
 11
145.0
 21
10.0
 31
0.0
  0
LINE
  5
83
100
AcDbEntity
  8
RIQUADRO050
100
AcDbLine
 10
5.0
 20
148.5
 30
0.0
 11
15.0
 21
148.5
 31
0.0
  0
LINE
  5
84
100
AcDbEntity
  8
RIQUADRO050
100
AcDbLine
 10
195.0
 20
148.5
 30
0.0
 11
205.0
 21
148.5
 31
0.0
  0
LINE
  5
85
100
AcDbEntity
  8
RIQUADRO050
100
AcDbLine
 10
105.0
 20
282.0
 30
0.0
 11
105.0
 21
292.0
 31
0.0
  0
LINE
  5
86
100
AcDbEntity
  8
RIQUADRO050
100
AcDbLine
 10
105.0
 20
10.0
 30
0.0
 11
105.0
 21
15.0
 31
0.0
  0
LINE
  5
87
100
AcDbEntity
  8
RIQUADRO050
100
AcDbLine
 10
12.5
 20
151.0
 30
0.0
 11
12.5
 21
146.0
 31
0.0
  0
LINE
  5
88
100
AcDbEntity
  8
RIQUADRO050
100
AcDbLine
 10
12.5
 20
146.0
 30
0.0
 11
7.5
 21
148.5
 31
0.0
  0
LINE
  5
89
100
AcDbEntity
  8
RIQUADRO050
100
AcDbLine
 10
7.5
 20
148.5
 30
0.0
 11
12.5
 21
151.0
 31
0.0
  0
LINE
  5
8A
100
AcDbEntity
  8
RIQUADRO050
100
AcDbLine
 10
105.0
 20
7.5
 30
0.0
 11
102.5
 21
12.5
 31
0.0
  0
LINE
  5
8B
100
AcDbEntity
  8
RIQUADRO050
100
AcDbLine
 10
102.5
 20
12.5
 30
0.0
 11
107.5
 21
12.5
 31
0.0
  0
LINE
  5
8C
100
AcDbEntity
  8
RIQUADRO050
100
AcDbLine
 10
107.5
 20
12.5
 30
0.0
 11
105.0
 21
7.5
 31
0.0
  0
LINE
  5
8D
100
AcDbEntity
  8
RIQUADRO050
100
AcDbLine
 10
57.5
 20
287.0
 30
0.0
 11
57.5
 21
292.0
 31
0.0
  0
LINE
  5
8E
100
AcDbEntity
  8
RIQUADRO050
100
AcDbLine
 10
152.5
 20
287.0
 30
0.0
 11
152.5
 21
292.0
 31
0.0
  0
TEXT
  5
8F
100
AcDbEntity
  8
RIQUADRO050
100
AcDbText
 10
32.75
 20
287.5
 30
0.0
 40
4.0
  1
1
  7
ISOCP
 72
     4
 11
33.75
 21
289.5
 31
0.0
100
AcDbText
  0
TEXT
  5
90
100
AcDbEntity
  8
RIQUADRO050
100
AcDbText
 10
79.780669
 20
287.399606
 30
0.0
 40
4.0
  1
2
  7
ISOCP
 72
     4
 11
81.25
 21
289.5
 31
0.0
100
AcDbText
  0
TEXT
  5
91
100
AcDbEntity
  8
RIQUADRO050
100
AcDbText
 10
127.267157
 20
287.582843
 30
0.0
 40
4.0
  1
3
  7
ISOCP
 72
     4
 11
128.75
 21
289.5
 31
0.0
100
AcDbText
  0
TEXT
  5
92
100
AcDbEntity
  8
RIQUADRO050
100
AcDbText
 10
174.65
 20
287.5
 30
0.0
 40
4.0
  1
4
  7
ISOCP
 72
     4
 11
176.25
 21
289.5
 31
0.0
100
AcDbText
  0
LINE
  5
93
100
AcDbEntity
  8
RIQUADRO050
100
AcDbLine
 10
10.0
 20
194.5
 30
0.0
 11
5.0
 21
194.5
 31
0.0
  0
LINE
  5
94
100
AcDbEntity
  8
RIQUADRO050
100
AcDbLine
 10
10.0
 20
240.5
 30
0.0
 11
5.0
 21
240.5
 31
0.0
  0
LINE
  5
95
100
AcDbEntity
  8
RIQUADRO050
100
AcDbLine
 10
10.0
 20
102.5
 30
0.0
 11
5.0
 21
102.5
 31
0.0
  0
LINE
  5
96
100
AcDbEntity
  8
RIQUADRO050
100
AcDbLine
 10
10.0
 20
56.5
 30
0.0
 11
5.0
 21
56.5
 31
0.0
  0
TEXT
  5
97
100
AcDbEntity
  8
RIQUADRO050
100
AcDbText
 10
5.7
 20
261.5
 30
0.0
 40
4.0
  1
A
  7
ISOCP
 72
     4
 11
7.5
 21
263.5
 31
0.0
100
AcDbText
  0
TEXT
  5
98
100
AcDbEntity
  8
RIQUADRO050
100
AcDbText
 10
5.9
 20
215.5
 30
0.0
 40
4.0
  1
B
  7
ISOCP
 72
     4
 11
7.5
 21
217.5
 31
0.0
100
AcDbText
  0
TEXT
  5
99
100
AcDbEntity
  8
RIQUADRO050
100
AcDbText
 10
6.193198
 20
169.5
 30
0.0
 40
4.0
  1
C
  7
ISOCP
 72
     4
 11
7.5
 21
171.5
 31
0.0
100
AcDbText
  0
TEXT
  5
9A
100
AcDbEntity
  8
RIQUADRO050
100
AcDbText
 10
5.786091
 20
123.5
 30
0.0
 40
4.0
  1
D
  7
ISOCP
 72
     4
 11
7.5
 21
125.5
 31
0.0
100
AcDbText
  0
TEXT
  5
9B
100
AcDbEntity
  8
RIQUADRO050
100
AcDbText
 10
6.1
 20
77.5
 30
0.0
 40
4.0
  1
E
  7
ISOCP
 72
     4
 11
7.5
 21
79.5
 31
0.0
100
AcDbText
  0
TEXT
  5
9C
100
AcDbEntity
  8
RIQUADRO050
100
AcDbText
 10
6.1
 20
31.5
 30
0.0
 40
4.0
  1
F
  7
ISOCP
 72
     4
 11
7.5
 21
33.5
 31
0.0
100
AcDbText
  0
TEXT
  5
9D
100
AcDbEntity
  8
RIQUADRO050
100
AcDbText
 10
200.7
 20
261.5
 30
0.0
 40
4.0
  1
A
  7
ISOCP
 72
     4
 11
202.5
 21
263.5
 31
0.0
100
AcDbText
  0
LINE
  5
9E
100
AcDbEntity
  8
RIQUADRO050
100
AcDbLine
 10
205.0
 20
240.5
 30
0.0
 11
200.0
 21
240.5
 31
0.0
  0
TEXT
  5
9F
100
AcDbEntity
  8
RIQUADRO050
100
AcDbText
 10
200.9
 20
215.5
 30
0.0
 40
4.0
  1
B
  7
ISOCP
 72
     4
 11
202.5
 21
217.5
 31
0.0
100
AcDbText
  0
LINE
  5
A0
100
AcDbEntity
  8
RIQUADRO050
100
AcDbLine
 10
205.0
 20
194.5
 30
0.0
 11
200.0
 21
194.5
 31
0.0
  0
TEXT
  5
A1
100
AcDbEntity
  8
RIQUADRO050
100
AcDbText
 10
201.193198
 20
169.5
 30
0.0
 40
4.0
  1
C
  7
ISOCP
 72
     4
 11
202.5
 21
171.5
 31
0.0
100
AcDbText
  0
TEXT
  5
A2
100
AcDbEntity
  8
RIQUADRO050
100
AcDbText
 10
200.786091
 20
123.5
 30
0.0
 40
4.0
  1
D
  7
ISOCP
 72
     4
 11
202.5
 21
125.5
 31
0.0
100
AcDbText
  0
LINE
  5
A3
100
AcDbEntity
  8
RIQUADRO050
100
AcDbLine
 10
205.0
 20
102.5
 30
0.0
 11
200.0
 21
102.5
 31
0.0
  0
TEXT
  5
A4
100
AcDbEntity
  8
RIQUADRO050
100
AcDbText
 10
201.1
 20
77.5
 30
0.0
 40
4.0
  1
E
  7
ISOCP
 72
     4
 11
202.5
 21
79.5
 31
0.0
100
AcDbText
  0
LINE
  5
A5
100
AcDbEntity
  8
RIQUADRO050
100
AcDbLine
 10
205.0
 20
56.5
 30
0.0
 11
200.0
 21
56.5
 31
0.0
  0
TEXT
  5
A6
100
AcDbEntity
  8
RIQUADRO050
100
AcDbText
 10
201.1
 20
31.5
 30
0.0
 40
4.0
  1
F
  7
ISOCP
 72
     4
 11
202.5
 21
33.5
 31
0.0
100
AcDbText
  0
ATTDEF
  5
A7
100
AcDbEntity
  8
BT
100
AcDbText
 10
0.0
 20
0.0
 30
0.0
 40
2.5
  1
10.0
  7
ISOCP
100
AcDbAttributeDefinition
  3
MinX
  2
MINX
 70
     9
  0
ATTDEF
  5
A8
100
AcDbEntity
  8
BT
100
AcDbText
 10
0.0
 20
0.0
 30
0.0
 40
2.5
  1
46.0
  7
ISOCP
100
AcDbAttributeDefinition
  3
MinY
  2
MINY
 70
     9
  0
ATTDEF
  5
A9
100
AcDbEntity
  8
BT
100
AcDbText
 10
0.0
 20
0.0
 30
0.0
 40
2.5
  1
200.0
  7
ISOCP
100
AcDbAttributeDefinition
  3
MaxX
  2
MAXX
 70
     9
  0
ATTDEF
  5
AA
100
AcDbEntity
  8
BT
100
AcDbText
 10
0.0
 20
0.0
 30
0.0
 40
2.5
  1
281.0
  7
ISOCP
100
AcDbAttributeDefinition
  3
MaxY
  2
MAXY
 70
     9
  0
LINE
  5
AB
100
AcDbEntity
  8
RIQUADRO070
100
AcDbLine
 10
105.0
 20
20.0
 30
0.0
 11
200.0
 21
20.0
 31
0.0
  0
LINE
  5
AC
100
AcDbEntity
  8
RIQUADRO070
100
AcDbLine
 10
30.0
 20
30.0
 30
0.0
 11
200.0
 21
30.0
 31
0.0
  0
LINE
  5
AD
100
AcDbEntity
  8
RIQUADRO070
100
AcDbLine
 10
30.0
 20
40.0
 30
0.0
 11
200.0
 21
40.0
 31
0.0
  0
LINE
  5
AE
100
AcDbEntity
  8
RIQUADRO070
100
AcDbLine
 10
30.0
 20
10.0
 30
0.0
 11
30.0
 21
40.0
 31
0.0
  0
LINE
  5
AF
100
AcDbEntity
  8
RIQUADRO070
100
AcDbLine
 10
105.0
 20
10.0
 30
0.0
 11
105.0
 21
30.0
 31
0.0
  0
LINE
  5
B0
100
AcDbEntity
  8
RIQUADRO070
100
AcDbLine
 10
180.0
 20
10.0
 30
0.0
 11
180.0
 21
20.0
 31
0.0
  0
LINE
  5
B1
100
AcDbEntity
  8
RIQUADRO070
100
AcDbLine
 10
165.0
 20
10.0
 30
0.0
 11
165.0
 21
20.0
 31
0.0
  0
LINE
  5
B2
100
AcDbEntity
  8
RIQUADRO070
100
AcDbLine
 10
180.0
 20
30.0
 30
0.0
 11
180.0
 21
40.0
 31
0.0
  0
LINE
  5
B3
100
AcDbEntity
  8
RIQUADRO070
100
AcDbLine
 10
150.0
 20
30.0
 30
0.0
 11
150.0
 21
40.0
 31
0.0
  0
LINE
  5
B4
100
AcDbEntity
  8
RIQUADRO070
100
AcDbLine
 10
125.0
 20
30.0
 30
0.0
 11
125.0
 21
40.0
 31
0.0
  0
LINE
  5
B5
100
AcDbEntity
  8
RIQUADRO070
100
AcDbLine
 10
87.0
 20
30.0
 30
0.0
 11
87.0
 21
40.0
 31
0.0
  0
LINE
  5
B6
100
AcDbEntity
  8
RIQUADRO070
100
AcDbLine
 10
62.0
 20
30.0
 30
0.0
 11
62.0
 21
40.0
 31
0.0
  0
LINE
  5
B7
100
AcDbEntity
  8
RIQUADRO070
100
AcDbLine
 10
30.0
 20
46.0
 30
0.0
 11
200.0
 21
46.0
 31
0.0
  0
LINE
  5
B8
100
AcDbEntity
  8
RIQUADRO070
100
AcDbLine
 10
45.0
 20
40.0
 30
0.0
 11
45.0
 21
46.0
 31
0.0
  0
LINE
  5
B9
100
AcDbEntity
  8
RIQUADRO070
100
AcDbLine
 10
30.0
 20
40.0
 30
0.0
 11
30.0
 21
46.0
 31
0.0
  0
LINE
  5
BA
100
AcDbEntity
  8
RIQUADRO070
100
AcDbLine
 10
62.0
 20
40.0
 30
0.0
 11
62.0
 21
46.0
 31
0.0
  0
LINE
  5
BB
100
AcDbEntity
  8
RIQUADRO070
100
AcDbLine
 10
150.0
 20
40.0
 30
0.0
 11
150.0
 21
46.0
 31
0.0
  0
LINE
  5
BC
100
AcDbEntity
  8
RIQUADRO070
100
AcDbLine
 10
30.0
 20
281.0
 30
0.0
 11
30.0
 21
287.0
 31
0.0
  0
LINE
  5
BD
100
AcDbEntity
  8
RIQUADRO070
100
AcDbLine
 10
30.0
 20
281.0
 30
0.0
 11
200.0
 21
281.0
 31
0.0
  0
LINE
  5
BE
100
AcDbEntity
  8
RIQUADRO070
100
AcDbLine
 10
42.0
 20
281.0
 30
0.0
 11
42.0
 21
287.0
 31
0.0
  0
LINE
  5
BF
100
AcDbEntity
  8
RIQUADRO070
100
AcDbLine
 10
151.0
 20
281.0
 30
0.0
 11
151.0
 21
287.0
 31
0.0
  0
LINE
  5
C0
100
AcDbEntity
  8
RIQUADRO070
100
AcDbLine
 10
171.0
 20
281.0
 30
0.0
 11
171.0
 21
287.0
 31
0.0
  0
LINE
  5
C1
100
AcDbEntity
  8
RIQUADRO070
100
AcDbLine
 10
186.0
 20
281.0
 30
0.0
 11
186.0
 21
287.0
 31
0.0
  0
TEXT
  5
C2
100
AcDbEntity
  8
RIQUADRO025
100
AcDbText
 10
32.0
 20
41.75
 30
0.0
 40
2.5
  1
Rif.
  7
ISOCP
 11
32.0
 21
43.0
 31
0.0
100
AcDbText
 73
     2
  0
TEXT
  5
C3
100
AcDbEntity
  8
RIQUADRO025
100
AcDbText
 10
32.0
 20
35.75
 30
0.0
 40
2.5
  1
Progettato da
  7
ISOCP
 11
32.0
 21
37.0
 31
0.0
100
AcDbText
 73
     2
  0
TEXT
  5
C4
100
AcDbEntity
  8
RIQUADRO025
100
AcDbText
 10
167.0
 20
15.75
 30
0.0
 40
2.5
  1
Modifica
  7
ISOCP
 11
167.0
 21
17.0
 31
0.0
100
AcDbText
 73
     2
  0
TEXT
  5
C5
100
AcDbEntity
  8
RIQUADRO025
100
AcDbText
 10
182.0
 20
15.75
 30
0.0
 40
2.5
  1
Foglio
  7
ISOCP
 11
182.0
 21
17.0
 31
0.0
100
AcDbText
 73
     2
  0
TEXT
  5
C6
100
AcDbEntity
  8
RIQUADRO025
100
AcDbText
 10
182.0
 20
35.75
 30
0.0
 40
2.5
  1
Scala
  7
ISOCP
 11
182.0
 21
37.0
 31
0.0
100
AcDbText
 73
     2
  0
TEXT
  5
C7
100
AcDbEntity
  8
RIQUADRO025
100
AcDbText
 10
152.0
 20
35.75
 30
0.0
 40
2.5
  1
Data
  7
ISOCP
 11
152.0
 21
37.0
 31
0.0
100
AcDbText
 73
     2
  0
TEXT
  5
C8
100
AcDbEntity
  8
RIQUADRO025
100
AcDbText
 10
127.0
 20
35.75
 30
0.0
 40
2.5
  1
Nome file
  7
ISOCP
 11
127.0
 21
37.0
 31
0.0
100
AcDbText
 73
     2
  0
TEXT
  5
C9
100
AcDbEntity
  8
RIQUADRO025
100
AcDbText
 10
89.0
 20
35.75
 30
0.0
 40
2.5
  1
Approvato da - data
  7
ISOCP
 11
89.0
 21
37.0
 31
0.0
100
AcDbText
 73
     2
  0
TEXT
  5
CA
100
AcDbEntity
  8
RIQUADRO025
100
AcDbText
 10
64.0
 20
35.75
 30
0.0
 40
2.5
  1
Controllato da
  7
ISOCP
 11
64.0
 21
37.0
 31
0.0
100
AcDbText
 73
     2
  0
TEXT
  5
CB
100
AcDbEntity
  8
RIQUADRO025
100
AcDbText
 10
64.0
 20
41.75
 30
0.0
 40
2.5
  1
Titolo/Nome, designazione, materiale, dimensione, ecc.
  7
ISOCP
 11
64.0
 21
43.0
 31
0.0
100
AcDbText
 73
     2
  0
TEXT
  5
CC
100
AcDbEntity
  8
RIQUADRO025
100
AcDbText
 10
47.0
 20
41.75
 30
0.0
 40
2.5
  1
Quantità
  7
ISOCP
 11
47.0
 21
43.0
 31
0.0
100
AcDbText
 73
     2
  0
TEXT
  5
CD
100
AcDbEntity
  8
RIQUADRO025
100
AcDbText
 10
152.0
 20
41.75
 30
0.0
 40
2.5
  1
N. articolo/Riferimento
  7
ISOCP
 11
152.0
 21
43.0
 31
0.0
100
AcDbText
 73
     2
  0
TEXT
  5
CE
100
AcDbEntity
  8
RIQUADRO025
100
AcDbText
 10
32.0
 20
282.75
 30
0.0
 40
2.5
  1
N. rev
  7
ISOCP
 11
32.0
 21
284.0
 31
0.0
100
AcDbText
 73
     2
  0
TEXT
  5
CF
100
AcDbEntity
  8
RIQUADRO025
100
AcDbText
 10
44.0
 20
282.75
 30
0.0
 40
2.5
  1
Nota di revisione
  7
ISOCP
 11
44.0
 21
284.0
 31
0.0
100
AcDbText
 73
     2
  0
TEXT
  5
D0
100
AcDbEntity
  8
RIQUADRO025
100
AcDbText
 10
153.0
 20
282.75
 30
0.0
 40
2.5
  1
Data
  7
ISOCP
 11
153.0
 21
284.0
 31
0.0
100
AcDbText
 73
     2
  0
TEXT
  5
D1
100
AcDbEntity
  8
RIQUADRO025
100
AcDbText
 10
171.360998
 20
282.75
 30
0.0
 40
2.5
  1
Firma
  7
ISOCP
 11
171.360998
 21
284.0
 31
0.0
100
AcDbText
 73
     2
  0
TEXT
  5
D2
100
AcDbEntity
  8
RIQUADRO025
100
AcDbText
 10
187.082994
 20
282.75
 30
0.0
 40
2.5
  1
Controllo
 41
0.9
  7
ISOCP
 11
187.082994
 21
284.0
 31
0.0
100
AcDbText
 73
     2
  0
ATTDEF
  5
D3
100
AcDbEntity
  8
RIQUADRO050
100
AcDbText
 10
46.0
 20
17.5
 30
0.0
 40
5.0
  1
XXX
  7
ISOCP
 72
     4
 11
67.5
 21
20.0
 31
0.0
100
AcDbAttributeDefinition
  3
Proprietario
  2
PROPRIETARIO
 70
     8
  0
ATTDEF
  5
D4
100
AcDbEntity
  8
RIQUADRO050
100
AcDbText
 10
142.0
 20
22.5
 30
0.0
 40
5.0
  1
XXX
  7
ISOCP
 72
     4
 11
152.5
 21
25.0
 31
0.0
100
AcDbAttributeDefinition
  3
Titolo / Nome
  2
TITOLO
 70
     8
  0
ATTDEF
  5
D5
100
AcDbEntity
  8
RIQUADRO050
100
AcDbText
 10
118.65
 20
13.864568
 30
0.0
 40
3.0
  1
X
  7
ISOCP
 72
     4
 11
135.0
 21
15.0
 31
0.0
100
AcDbAttributeDefinition
  3
Numero disegno
  2
NUMERO_DISEGNO
 70
     8
  0
ATTDEF
  5
D6
100
AcDbEntity
  8
RIQUADRO025
100
AcDbText
 10
32.0
 20
31.75
 30
0.0
 40
2.5
  1
XXX
 41
0.8
  7
ISOCP
 11
32.0
 21
33.0
 31
0.0
100
AcDbAttributeDefinition
  3
Progettato da
  2
PROGETTATO_DA
 70
     8
 74
     2
  0
ATTDEF
  5
D7
100
AcDbEntity
  8
RIQUADRO025
100
AcDbText
 10
64.0
 20
31.75
 30
0.0
 40
2.5
  1
XXX
 41
0.75
  7
ISOCP
 11
64.0
 21
33.0
 31
0.0
100
AcDbAttributeDefinition
  3
Controllato da
  2
CONTROLLATO_DA
 70
     8
 74
     2
  0
ATTDEF
  5
D8
100
AcDbEntity
  8
RIQUADRO025
100
AcDbText
 10
89.0
 20
31.75
 30
0.0
 40
2.5
  1
XXX - 00/00/00
 41
0.85
  7
ISOCP
 11
89.0
 21
33.0
 31
0.0
100
AcDbAttributeDefinition
  3
Approvato da - Data
  2
APPROVATO_DA_DATA
 70
     8
 74
     2
  0
ATTDEF
  5
D9
100
AcDbEntity
  8
RIQUADRO025
100
AcDbText
 10
127.0
 20
31.75
 30
0.0
 40
2.5
  1
XXX
  7
ISOCP
 11
127.0
 21
33.0
 31
0.0
100
AcDbAttributeDefinition
  3
Nome file
  2
NOMEFILE
 70
     8
 74
     2
  0
ATTDEF
  5
DA
100
AcDbEntity
  8
RIQUADRO025
100
AcDbText
 10
152.0
 20
31.75
 30
0.0
 40
2.5
  1
00/00/00
 41
0.9
  7
ISOCP
 11
152.0
 21
33.0
 31
0.0
100
AcDbAttributeDefinition
  3
Data
  2
DATA
 70
     8
 74
     2
  0
ATTDEF
  5
DB
100
AcDbEntity
  8
RIQUADRO025
100
AcDbText
 10
182.0
 20
31.75
 30
0.0
 40
2.5
  1
1:1
 41
0.9
  7
ISOCP
 11
182.0
 21
33.0
 31
0.0
100
AcDbAttributeDefinition
  3
Scala
  2
SCALA
 70
     8
 74
     2
  0
ATTDEF
  5
DC
100
AcDbEntity
  8
RIQUADRO025
100
AcDbText
 10
167.0
 20
11.75
 30
0.0
 40
2.5
  1
0
 41
0.85
  7
ISOCP
 11
167.0
 21
13.0
 31
0.0
100
AcDbAttributeDefinition
  3
Modifica
  2
MODIFICA
 70
     8
 74
     2
  0
ATTDEF
  5
DD
100
AcDbEntity
  8
RIQUADRO025
100
AcDbText
 10
182.0
 20
11.75
 30
0.0
 40
2.5
  1
1/1
 41
0.9
  7
ISOCP
 11
182.0
 21
13.0
 31
0.0
100
AcDbAttributeDefinition
  3
Foglio
  2
FOGLIO
 70
     8
 74
     2
  0
TEXT
  5
DE
100
AcDbEntity
  8
RIQUADRO050
100
AcDbText
 10
32.75
 20
5.5
 30
0.0
 40
4.0
  1
1
  7
ISOCP
 72
     4
 11
33.75
 21
7.5
 31
0.0
100
AcDbText
  0
TEXT
  5
DF
100
AcDbEntity
  8
RIQUADRO050
100
AcDbText
 10
174.65
 20
5.5
 30
0.0
 40
4.0
  1
4
  7
ISOCP
 72
     4
 11
176.25
 21
7.5
 31
0.0
100
AcDbText
  0
ENDBLK
  5
E1
100
AcDbEntity
  8
0
100
AcDbBlockEnd
  0
BLOCK
  5
6DE
100
AcDbEntity
  8
0
100
AcDbBlockBegin
  2
*D1
 70
    65
 10
0.0
 20
0.0
 30
0.0
  3
*D1
  1

  0
LINE
  5
6DF
100
AcDbEntity
  8
0
  6
BYBLOCK
 62
     0
100
AcDbLine
 10
96.021227
 20
176.407336
 30
0.0
 11
96.021227
 21
177.105085
 31
0.0
  0
LINE
  5
6E0
100
AcDbEntity
  8
0
  6
BYBLOCK
 62
     0
100
AcDbLine
 10
114.021227
 20
176.407336
 30
0.0
 11
114.021227
 21
177.105085
 31
0.0
  0
LINE
  5
6E1
100
AcDbEntity
  8
0
  6
BYBLOCK
 62
     0
100
AcDbLine
 10
93.521227
 20
175.855085
 30
0.0
 11
91.021227
 21
175.855085
 31
0.0
  0
LINE
  5
6E2
100
AcDbEntity
  8
0
  6
BYBLOCK
 62
     0
100
AcDbLine
 10
116.521227
 20
175.855085
 30
0.0
 11
119.021227
 21
175.855085
 31
0.0
  0
LINE
  5
6E3
100
AcDbEntity
  8
0
  6
BYBLOCK
 62
     0
100
AcDbLine
 10
96.021227
 20
175.855085
 30
0.0
 11
114.021227
 21
175.855085
 31
0.0
  0
SOLID
  5
6E4
100
AcDbEntity
  8
0
  6
BYBLOCK
 62
     0
100
AcDbTrace
 10
93.521227
 20
176.271752
 30
0.0
 11
93.521227
 21
175.438419
 31
0.0
 12
96.021227
 22
175.855085
 32
0.0
 13
96.021227
 23
175.855085
 33
0.0
  0
SOLID
  5
6E5
100
AcDbEntity
  8
0
  6
BYBLOCK
 62
     0
100
AcDbTrace
 10
116.521227
 20
176.271752
 30
0.0
 11
116.521227
 21
175.438419
 31
0.0
 12
114.021227
 22
175.855085
 32
0.0
 13
114.021227
 23
175.855085
 33
0.0
  0
MTEXT
  5
6E6
100
AcDbEntity
  8
0
  6
BYBLOCK
 62
     0
100
AcDbMText
 10
105.021227
 20
177.985085
 30
0.0
 40
3.0
 41
0.0
 71
     5
 72
     1
  1
\A1;18±0.05
  0
POINT
  5
6E7
100
AcDbEntity
  8
DEFPOINTS
  6
BYBLOCK
 62
     0
100
AcDbPoint
 10
96.021227
 20
175.777336
 30
0.0
  0
POINT
  5
6E8
100
AcDbEntity
  8
DEFPOINTS
  6
BYBLOCK
 62
     0
100
AcDbPoint
 10
114.021227
 20
175.777336
 30
0.0
  0
POINT
  5
6E9
100
AcDbEntity
  8
DEFPOINTS
  6
BYBLOCK
 62
     0
100
AcDbPoint
 10
114.021227
 20
175.855085
 30
0.0
  0
ENDBLK
  5
6EA
100
AcDbEntity
  8
0
100
AcDbBlockEnd
  0
BLOCK
  5
6FB
100
AcDbEntity
  8
0
100
AcDbBlockBegin
  2
*D2
 70
    65
 10
0.0
 20
0.0
 30
0.0
  3
*D2
  1

  0
LINE
  5
6FC
100
AcDbEntity
  8
0
  6
BYBLOCK
 62
     0
100
AcDbLine
 10
115.151227
 20
201.11837
 30
0.0
 11
187.952011
 21
201.11837
 31
0.0
  0
LINE
  5
6FD
100
AcDbEntity
  8
0
  6
BYBLOCK
 62
     0
100
AcDbLine
 10
134.651227
 20
121.11837
 30
0.0
 11
187.952011
 21
121.11837
 31
0.0
  0
LINE
  5
6FE
100
AcDbEntity
  8
0
  6
BYBLOCK
 62
     0
100
AcDbLine
 10
186.702011
 20
198.61837
 30
0.0
 11
186.702011
 21
123.61837
 31
0.0
  0
SOLID
  5
6FF
100
AcDbEntity
  8
0
  6
BYBLOCK
 62
     0
100
AcDbTrace
 10
186.285344
 20
198.61837
 30
0.0
 11
187.118678
 21
198.61837
 31
0.0
 12
186.702011
 22
201.11837
 32
0.0
 13
186.702011
 23
201.11837
 33
0.0
  0
SOLID
  5
700
100
AcDbEntity
  8
0
  6
BYBLOCK
 62
     0
100
AcDbTrace
 10
186.285344
 20
123.61837
 30
0.0
 11
187.118678
 21
123.61837
 31
0.0
 12
186.702011
 22
121.11837
 32
0.0
 13
186.702011
 23
121.11837
 33
0.0
  0
MTEXT
  5
701
100
AcDbEntity
  8
0
  6
BYBLOCK
 62
     0
100
AcDbMText
 10
184.571716
 20
161.11837
 30
0.0
 40
3.0
 41
0.0
 71
     5
 72
     1
  1
\A1;80±0.02
 11
0.0
 21
1.0
 31
0.0
  0
POINT
  5
702
100
AcDbEntity
  8
DEFPOINTS
  6
BYBLOCK
 62
     0
100
AcDbPoint
 10
114.521227
 20
201.11837
 30
0.0
  0
POINT
  5
703
100
AcDbEntity
  8
DEFPOINTS
  6
BYBLOCK
 62
     0
100
AcDbPoint
 10
134.021227
 20
121.11837
 30
0.0
  0
POINT
  5
704
100
AcDbEntity
  8
DEFPOINTS
  6
BYBLOCK
 62
     0
100
AcDbPoint
 10
186.702011
 20
121.11837
 30
0.0
  0
ENDBLK
  5
705
100
AcDbEntity
  8
0
100
AcDbBlockEnd
  0
BLOCK
  5
54B
100
AcDbEntity
  8
0
100
AcDbBlockBegin
  2
*D3
 70
    65
 10
0.0
 20
0.0
 30
0.0
  3
*D3
  1

  0
LINE
  5
54C
100
AcDbEntity
  8
0
  6
BYBLOCK
 62
     0
100
AcDbLine
 10
134.651227
 20
121.11837
 30
0.0
 11
171.47843
 21
121.11837
 31
0.0
  0
LINE
  5
54D
100
AcDbEntity
  8
0
  6
BYBLOCK
 62
     0
100
AcDbLine
 10
134.651227
 20
139.11837
 30
0.0
 11
171.47843
 21
139.11837
 31
0.0
  0
LINE
  5
54E
100
AcDbEntity
  8
0
  6
BYBLOCK
 62
     0
100
AcDbLine
 10
170.22843
 20
123.61837
 30
0.0
 11
170.22843
 21
136.61837
 31
0.0
  0
SOLID
  5
54F
100
AcDbEntity
  8
0
  6
BYBLOCK
 62
     0
100
AcDbTrace
 10
169.811763
 20
123.61837
 30
0.0
 11
170.645096
 21
123.61837
 31
0.0
 12
170.22843
 22
121.11837
 32
0.0
 13
170.22843
 23
121.11837
 33
0.0
  0
SOLID
  5
550
100
AcDbEntity
  8
0
  6
BYBLOCK
 62
     0
100
AcDbTrace
 10
169.811763
 20
136.61837
 30
0.0
 11
170.645096
 21
136.61837
 31
0.0
 12
170.22843
 22
139.11837
 32
0.0
 13
170.22843
 23
139.11837
 33
0.0
  0
MTEXT
  5
551
100
AcDbEntity
  8
0
  6
BYBLOCK
 62
     0
100
AcDbMText
 10
168.09843
 20
130.11837
 30
0.0
 40
3.0
 41
0.0
 71
     5
 72
     1
  1
\A1;18
 11
0.0
 21
1.0
 31
0.0
  0
POINT
  5
552
100
AcDbEntity
  8
DEFPOINTS
  6
BYBLOCK
 62
     0
100
AcDbPoint
 10
134.021227
 20
121.11837
 30
0.0
  0
POINT
  5
553
100
AcDbEntity
  8
DEFPOINTS
  6
BYBLOCK
 62
     0
100
AcDbPoint
 10
134.021227
 20
139.11837
 30
0.0
  0
POINT
  5
554
100
AcDbEntity
  8
DEFPOINTS
  6
BYBLOCK
 62
     0
100
AcDbPoint
 10
170.22843
 20
139.11837
 30
0.0
  0
ENDBLK
  5
555
100
AcDbEntity
  8
0
100
AcDbBlockEnd
  0
BLOCK
  5
6F0
100
AcDbEntity
  8
0
100
AcDbBlockBegin
  2
*D4
 70
    65
 10
0.0
 20
0.0
 30
0.0
  3
*D4
  1

  0
LINE
  5
6F1
100
AcDbEntity
  8
0
  6
BYBLOCK
 62
     0
100
AcDbLine
 10
134.651227
 20
139.11837
 30
0.0
 11
171.588684
 21
139.11837
 31
0.0
  0
LINE
  5
6F2
100
AcDbEntity
  8
0
  6
BYBLOCK
 62
     0
100
AcDbLine
 10
115.151227
 20
201.11837
 30
0.0
 11
171.588684
 21
201.11837
 31
0.0
  0
LINE
  5
6F3
100
AcDbEntity
  8
0
  6
BYBLOCK
 62
     0
100
AcDbLine
 10
170.338684
 20
141.61837
 30
0.0
 11
170.338684
 21
198.61837
 31
0.0
  0
SOLID
  5
6F4
100
AcDbEntity
  8
0
  6
BYBLOCK
 62
     0
100
AcDbTrace
 10
169.922017
 20
141.61837
 30
0.0
 11
170.755351
 21
141.61837
 31
0.0
 12
170.338684
 22
139.11837
 32
0.0
 13
170.338684
 23
139.11837
 33
0.0
  0
SOLID
  5
6F5
100
AcDbEntity
  8
0
  6
BYBLOCK
 62
     0
100
AcDbTrace
 10
169.922017
 20
198.61837
 30
0.0
 11
170.755351
 21
198.61837
 31
0.0
 12
170.338684
 22
201.11837
 32
0.0
 13
170.338684
 23
201.11837
 33
0.0
  0
MTEXT
  5
6F6
100
AcDbEntity
  8
0
  6
BYBLOCK
 62
     0
100
AcDbMText
 10
168.208389
 20
170.11837
 30
0.0
 40
3.0
 41
0.0
 71
     5
 72
     1
  1
\A1;62
 11
0.0
 21
1.0
 31
0.0
  0
POINT
  5
6F7
100
AcDbEntity
  8
DEFPOINTS
  6
BYBLOCK
 62
     0
100
AcDbPoint
 10
134.021227
 20
139.11837
 30
0.0
  0
POINT
  5
6F8
100
AcDbEntity
  8
DEFPOINTS
  6
BYBLOCK
 62
     0
100
AcDbPoint
 10
114.521227
 20
201.11837
 30
0.0
  0
POINT
  5
6F9
100
AcDbEntity
  8
DEFPOINTS
  6
BYBLOCK
 62
     0
100
AcDbPoint
 10
170.338684
 20
201.11837
 30
0.0
  0
ENDBLK
  5
6FA
100
AcDbEntity
  8
0
100
AcDbBlockEnd
  0
BLOCK
  5
66F
100
AcDbEntity
  8
0
100
AcDbBlockBegin
  2
*D5
 70
    65
 10
0.0
 20
0.0
 30
0.0
  3
*D5
  1

  0
LINE
  5
670
100
AcDbEntity
  8
0
  6
BYBLOCK
 62
     0
100
AcDbLine
 10
135.021227
 20
121.48837
 30
0.0
 11
135.021227
 21
108.816316
 31
0.0
  0
LINE
  5
671
100
AcDbEntity
  8
0
  6
BYBLOCK
 62
     0
100
AcDbLine
 10
105.021227
 20
120.48837
 30
0.0
 11
105.021227
 21
108.816316
 31
0.0
  0
LINE
  5
672
100
AcDbEntity
  8
0
  6
BYBLOCK
 62
     0
100
AcDbLine
 10
132.521227
 20
110.066316
 30
0.0
 11
107.521227
 21
110.066316
 31
0.0
  0
SOLID
  5
673
100
AcDbEntity
  8
0
  6
BYBLOCK
 62
     0
100
AcDbTrace
 10
132.521227
 20
110.482983
 30
0.0
 11
132.521227
 21
109.649649
 31
0.0
 12
135.021227
 22
110.066316
 32
0.0
 13
135.021227
 23
110.066316
 33
0.0
  0
SOLID
  5
674
100
AcDbEntity
  8
0
  6
BYBLOCK
 62
     0
100
AcDbTrace
 10
107.521227
 20
110.482983
 30
0.0
 11
107.521227
 21
109.649649
 31
0.0
 12
105.021227
 22
110.066316
 32
0.0
 13
105.021227
 23
110.066316
 33
0.0
  0
MTEXT
  5
675
100
AcDbEntity
  8
0
  6
BYBLOCK
 62
     0
100
AcDbMText
 10
120.021227
 20
114.047497
 30
0.0
 40
3.0
 41
0.0
 71
     5
 72
     1
  1
\A1;30\S+0.01^  0.00;
  0
POINT
  5
676
100
AcDbEntity
  8
DEFPOINTS
  6
BYBLOCK
 62
     0
100
AcDbPoint
 10
135.021227
 20
122.11837
 30
0.0
  0
POINT
  5
677
100
AcDbEntity
  8
DEFPOINTS
  6
BYBLOCK
 62
     0
100
AcDbPoint
 10
105.021227
 20
121.11837
 30
0.0
  0
POINT
  5
678
100
AcDbEntity
  8
DEFPOINTS
  6
BYBLOCK
 62
     0
100
AcDbPoint
 10
105.021227
 20
110.066316
 30
0.0
  0
ENDBLK
  5
679
100
AcDbEntity
  8
0
100
AcDbBlockEnd
  0
BLOCK
  5
67A
100
AcDbEntity
  8
0
100
AcDbBlockBegin
  2
*D6
 70
    65
 10
0.0
 20
0.0
 30
0.0
  3
*D6
  1

  0
LINE
  5
67B
100
AcDbEntity
  8
0
  6
BYBLOCK
 62
     0
100
AcDbLine
 10
75.021227
 20
121.48837
 30
0.0
 11
75.021227
 21
98.068547
 31
0.0
  0
LINE
  5
67C
100
AcDbEntity
  8
0
  6
BYBLOCK
 62
     0
100
AcDbLine
 10
135.021227
 20
121.48837
 30
0.0
 11
135.021227
 21
98.068547
 31
0.0
  0
LINE
  5
67D
100
AcDbEntity
  8
0
  6
BYBLOCK
 62
     0
100
AcDbLine
 10
77.521227
 20
99.318547
 30
0.0
 11
132.521227
 21
99.318547
 31
0.0
  0
SOLID
  5
67E
100
AcDbEntity
  8
0
  6
BYBLOCK
 62
     0
100
AcDbTrace
 10
77.521227
 20
99.735214
 30
0.0
 11
77.521227
 21
98.901881
 31
0.0
 12
75.021227
 22
99.318547
 32
0.0
 13
75.021227
 23
99.318547
 33
0.0
  0
SOLID
  5
67F
100
AcDbEntity
  8
0
  6
BYBLOCK
 62
     0
100
AcDbTrace
 10
132.521227
 20
99.735214
 30
0.0
 11
132.521227
 21
98.901881
 31
0.0
 12
135.021227
 22
99.318547
 32
0.0
 13
135.021227
 23
99.318547
 33
0.0
  0
MTEXT
  5
680
100
AcDbEntity
  8
0
  6
BYBLOCK
 62
     0
100
AcDbMText
 10
105.021227
 20
103.374433
 30
0.0
 40
3.0
 41
0.0
 71
     5
 72
     1
  1
\A1;60\S+0.02^  0.00;
  0
POINT
  5
681
100
AcDbEntity
  8
DEFPOINTS
  6
BYBLOCK
 62
     0
100
AcDbPoint
 10
75.021227
 20
122.11837
 30
0.0
  0
POINT
  5
682
100
AcDbEntity
  8
DEFPOINTS
  6
BYBLOCK
 62
     0
100
AcDbPoint
 10
135.021227
 20
122.11837
 30
0.0
  0
POINT
  5
683
100
AcDbEntity
  8
DEFPOINTS
  6
BYBLOCK
 62
     0
100
AcDbPoint
 10
135.021227
 20
99.318547
 30
0.0
  0
ENDBLK
  5
684
100
AcDbEntity
  8
0
100
AcDbBlockEnd
  0
BLOCK
  5
63E
100
AcDbEntity
  8
0
100
AcDbBlockBegin
  2
*D7
 70
    65
 10
0.0
 20
0.0
 30
0.0
  3
*D7
  1

  0
LINE
  5
63F
100
AcDbEntity
  8
0
  6
BYBLOCK
 62
     0
100
AcDbLine
 10
84.261884
 20
64.825938
 30
0.0
 11
98.214262
 21
64.825938
 31
0.0
  0
ARC
  5
640
100
AcDbEntity
  8
0
  6
BYBLOCK
 62
     0
100
AcDbCircle
 10
83.631884
 20
64.825938
 30
0.0
 40
13.332377
100
AcDbArc
 50
281.19126
 51
348.80874
  0
SOLID
  5
641
100
AcDbEntity
  8
0
  6
BYBLOCK
 62
     0
100
AcDbTrace
 10
86.261748
 20
51.315811
 30
0.0
 11
86.177242
 21
52.178348
 31
0.0
 12
83.631884
 22
51.493561
 32
0.0
 13
83.631884
 23
51.493561
 33
0.0
  0
SOLID
  5
642
100
AcDbEntity
  8
0
  6
BYBLOCK
 62
     0
100
AcDbTrace
 10
96.279475
 20
62.280581
 30
0.0
 11
97.142012
 21
62.196075
 31
0.0
 12
96.964262
 22
64.825938
 32
0.0
 13
96.964262
 23
64.825938
 33
0.0
  0
MTEXT
  5
643
100
AcDbEntity
  8
0
  6
BYBLOCK
 62
     0
100
AcDbMText
 10
91.553161
 20
56.904662
 30
0.0
 40
3.0
 41
0.0
 71
     5
 72
     1
  1
\A1;90°
 11
0.707107
 21
0.707107
 31
0.0
  0
POINT
  5
644
100
AcDbEntity
  8
DEFPOINTS
  6
BYBLOCK
 62
     0
100
AcDbPoint
 10
90.298073
 20
53.279761
 30
0.0
  0
POINT
  5
645
100
AcDbEntity
  8
DEFPOINTS
  6
BYBLOCK
 62
     0
100
AcDbPoint
 10
83.631884
 20
64.825938
 30
0.0
  0
POINT
  5
646
100
AcDbEntity
  8
DEFPOINTS
  6
BYBLOCK
 62
     0
100
AcDbPoint
 10
83.631884
 20
48.825938
 30
0.0
  0
POINT
  5
647
100
AcDbEntity
  8
DEFPOINTS
  6
BYBLOCK
 62
     0
100
AcDbPoint
 10
83.631884
 20
64.825938
 30
0.0
  0
POINT
  5
648
100
AcDbEntity
  8
DEFPOINTS
  6
BYBLOCK
 62
     0
100
AcDbPoint
 10
62.62614
 20
64.825938
 30
0.0
  0
ENDBLK
  5
649
100
AcDbEntity
  8
0
100
AcDbBlockEnd
  0
BLOCK
  5
64E
100
AcDbEntity
  8
0
100
AcDbBlockBegin
  2
*D8
 70
    65
 10
0.0
 20
0.0
 30
0.0
  3
*D8
  1

  0
LINE
  5
64F
100
AcDbEntity
  8
0
  6
BYBLOCK
 62
     0
100
AcDbLine
 10
43.014203
 20
64.82656
 30
0.0
 11
28.302942
 21
64.841174
 31
0.0
  0
LINE
  5
650
100
AcDbEntity
  8
0
  6
BYBLOCK
 62
     0
100
AcDbLine
 10
43.631259
 20
51.795939
 30
0.0
 11
43.628963
 21
49.484674
 31
0.0
  0
ARC
  5
651
100
AcDbEntity
  8
0
  6
BYBLOCK
 62
     0
100
AcDbCircle
 10
43.644202
 20
64.825934
 30
0.0
 40
14.091268
100
AcDbArc
 50
190.529864
 51
259.356303
  0
SOLID
  5
652
100
AcDbEntity
  8
0
  6
BYBLOCK
 62
     0
100
AcDbTrace
 10
29.35871
 20
62.211234
 30
0.0
 11
30.221759
 21
62.290332
 31
0.0
 12
29.552942
 22
64.839932
 32
0.0
 13
29.552942
 23
64.839932
 33
0.0
  0
SOLID
  5
653
100
AcDbEntity
  8
0
  6
BYBLOCK
 62
     0
100
AcDbTrace
 10
41.081938
 20
51.408555
 30
0.0
 11
41.001126
 21
50.545664
 31
0.0
 12
43.630204
 22
50.734673
 32
0.0
 13
43.630204
 23
50.734673
 33
0.0
  0
MTEXT
  5
654
100
AcDbEntity
  8
0
  6
BYBLOCK
 62
     0
100
AcDbMText
 10
35.177911
 20
56.376446
 30
0.0
 40
3.0
 41
0.0
 71
     5
 72
     1
  1
\A1;90°
 11
0.706404
 21
-0.707809
 31
0.0
  0
POINT
  5
655
100
AcDbEntity
  8
DEFPOINTS
  6
BYBLOCK
 62
     0
100
AcDbPoint
 10
31.433814
 20
57.792426
 30
0.0
  0
POINT
  5
656
100
AcDbEntity
  8
DEFPOINTS
  6
BYBLOCK
 62
     0
100
AcDbPoint
 10
43.651002
 20
64.825927
 30
0.0
  0
POINT
  5
657
100
AcDbEntity
  8
DEFPOINTS
  6
BYBLOCK
 62
     0
100
AcDbPoint
 10
43.631884
 20
52.425938
 30
0.0
  0
POINT
  5
658
100
AcDbEntity
  8
DEFPOINTS
  6
BYBLOCK
 62
     0
100
AcDbPoint
 10
43.644202
 20
64.825934
 30
0.0
  0
POINT
  5
659
100
AcDbEntity
  8
DEFPOINTS
  6
BYBLOCK
 62
     0
100
AcDbPoint
 10
60.509163
 20
64.80918
 30
0.0
  0
ENDBLK
  5
65A
100
AcDbEntity
  8
0
100
AcDbBlockEnd
  0
BLOCK
  5
65D
100
AcDbEntity
  8
0
100
AcDbBlockBegin
  2
*D9
 70
    65
 10
0.0
 20
0.0
 30
0.0
  3
*D9
  1

  0
LINE
  5
65E
100
AcDbEntity
  8
0
  6
BYBLOCK
 62
     0
100
AcDbLine
 10
43.651002
 20
65.455927
 30
0.0
 11
43.651002
 21
76.165747
 31
0.0
  0
LINE
  5
65F
100
AcDbEntity
  8
0
  6
BYBLOCK
 62
     0
100
AcDbLine
 10
83.631884
 20
65.455938
 30
0.0
 11
83.631884
 21
76.165747
 31
0.0
  0
LINE
  5
660
100
AcDbEntity
  8
0
  6
BYBLOCK
 62
     0
100
AcDbLine
 10
46.251002
 20
74.915747
 30
0.0
 11
81.031884
 21
74.915747
 31
0.0
  0
SOLID
  5
661
100
AcDbEntity
  8
0
  6
BYBLOCK
 62
     0
100
AcDbTrace
 10
46.251002
 20
75.34908
 30
0.0
 11
46.251002
 21
74.482414
 31
0.0
 12
43.651002
 22
74.915747
 32
0.0
 13
43.651002
 23
74.915747
 33
0.0
  0
SOLID
  5
662
100
AcDbEntity
  8
0
  6
BYBLOCK
 62
     0
100
AcDbTrace
 10
81.031884
 20
75.34908
 30
0.0
 11
81.031884
 21
74.482414
 31
0.0
 12
83.631884
 22
74.915747
 32
0.0
 13
83.631884
 23
74.915747
 33
0.0
  0
MTEXT
  5
663
100
AcDbEntity
  8
0
  6
BYBLOCK
 62
     0
100
AcDbMText
 10
63.641443
 20
77.045747
 30
0.0
 40
3.0
 41
0.0
 71
     5
 72
     1
  1
\A1;{835}
  0
POINT
  5
664
100
AcDbEntity
  8
DEFPOINTS
  6
BYBLOCK
 62
     0
100
AcDbPoint
 10
43.651002
 20
64.825927
 30
0.0
  0
POINT
  5
665
100
AcDbEntity
  8
DEFPOINTS
  6
BYBLOCK
 62
     0
100
AcDbPoint
 10
83.631884
 20
64.825938
 30
0.0
  0
POINT
  5
666
100
AcDbEntity
  8
DEFPOINTS
  6
BYBLOCK
 62
     0
100
AcDbPoint
 10
83.631884
 20
74.915747
 30
0.0
  0
ENDBLK
  5
667
100
AcDbEntity
  8
0
100
AcDbBlockEnd
  0
BLOCK
  5
713
100
AcDbEntity
  8
0
100
AcDbBlockBegin
  2
*D10
 70
    65
 10
0.0
 20
0.0
 30
0.0
  3
*D10
  1

  0
LINE
  5
714
100
AcDbEntity
  8
0
  6
BYBLOCK
 62
     0
100
AcDbLine
 10
158.581517
 20
253.030694
 30
0.0
 11
158.581517
 21
261.295491
 31
0.0
  0
LINE
  5
715
100
AcDbEntity
  8
0
  6
BYBLOCK
 62
     0
100
AcDbLine
 10
170.581517
 20
253.030694
 30
0.0
 11
170.581517
 21
261.295491
 31
0.0
  0
LINE
  5
716
100
AcDbEntity
  8
0
  6
BYBLOCK
 62
     0
100
AcDbLine
 10
161.181517
 20
260.045491
 30
0.0
 11
167.981517
 21
260.045491
 31
0.0
  0
SOLID
  5
717
100
AcDbEntity
  8
0
  6
BYBLOCK
 62
     0
100
AcDbTrace
 10
161.181517
 20
260.478825
 30
0.0
 11
161.181517
 21
259.612158
 31
0.0
 12
158.581517
 22
260.045491
 32
0.0
 13
158.581517
 23
260.045491
 33
0.0
  0
SOLID
  5
718
100
AcDbEntity
  8
0
  6
BYBLOCK
 62
     0
100
AcDbTrace
 10
167.981517
 20
260.478825
 30
0.0
 11
167.981517
 21
259.612158
 31
0.0
 12
170.581517
 22
260.045491
 32
0.0
 13
170.581517
 23
260.045491
 33
0.0
  0
MTEXT
  5
719
100
AcDbEntity
  8
0
  6
BYBLOCK
 62
     0
100
AcDbMText
 10
164.581517
 20
262.175787
 30
0.0
 40
3.0
 41
0.0
 71
     5
 72
     1
  1
\A1;12
  0
POINT
  5
71A
100
AcDbEntity
  8
DEFPOINTS
  6
BYBLOCK
 62
     0
100
AcDbPoint
 10
158.581517
 20
252.400694
 30
0.0
  0
POINT
  5
71B
100
AcDbEntity
  8
DEFPOINTS
  6
BYBLOCK
 62
     0
100
AcDbPoint
 10
170.581517
 20
252.400694
 30
0.0
  0
POINT
  5
71C
100
AcDbEntity
  8
DEFPOINTS
  6
BYBLOCK
 62
     0
100
AcDbPoint
 10
170.581517
 20
260.045491
 30
0.0
  0
ENDBLK
  5
71D
100
AcDbEntity
  8
0
100
AcDbBlockEnd
  0
BLOCK
  5
75D
100
AcDbEntity
  8
0
100
AcDbBlockBegin
  2
*D11
 70
    65
 10
0.0
 20
0.0
 30
0.0
  3
*D11
  1

  0
LINE
  5
75E
100
AcDbEntity
  8
0
  6
BYBLOCK
 62
     0
100
AcDbLine
 10
153.100624
 20
246.485972
 30
0.0
 11
137.576477
 21
235.096471
 31
0.0
  0
LINE
  5
75F
100
AcDbEntity
  8
0
  6
BYBLOCK
 62
     0
100
AcDbLine
 10
157.414212
 20
249.650694
 30
0.0
 11
155.196947
 21
248.023968
 31
0.0
  0
SOLID
  5
760
100
AcDbEntity
  8
0
  6
BYBLOCK
 62
     0
100
AcDbTrace
 10
152.844292
 20
246.835359
 30
0.0
 11
153.356957
 21
246.136585
 31
0.0
 12
155.196947
 22
248.023968
 32
0.0
 13
155.196947
 23
248.023968
 33
0.0
  0
MTEXT
  5
761
100
AcDbEntity
  8
0
  6
BYBLOCK
 62
     0
100
AcDbMText
 10
140.381864
 20
239.79645
 30
0.0
 40
3.0
 41
0.0
 71
     5
 72
     1
  1
\A1;R2.75
 11
0.806278
 21
0.591537
 31
0.0
  0
LINE
  5
762
100
AcDbEntity
  8
0
  6
BYBLOCK
 62
     0
100
AcDbLine
 10
155.314212
 20
249.650694
 30
0.0
 11
159.514212
 21
249.650694
 31
0.0
  0
LINE
  5
763
100
AcDbEntity
  8
0
  6
BYBLOCK
 62
     0
100
AcDbLine
 10
157.414212
 20
247.550694
 30
0.0
 11
157.414212
 21
251.750694
 31
0.0
  0
POINT
  5
764
100
AcDbEntity
  8
DEFPOINTS
  6
BYBLOCK
 62
     0
100
AcDbPoint
 10
155.196947
 20
248.023968
 30
0.0
  0
POINT
  5
765
100
AcDbEntity
  8
DEFPOINTS
  6
BYBLOCK
 62
     0
100
AcDbPoint
 10
157.414212
 20
249.650694
 30
0.0
  0
ENDBLK
  5
766
100
AcDbEntity
  8
0
100
AcDbBlockEnd
  0
BLOCK
  5
749
100
AcDbEntity
  8
0
100
AcDbBlockBegin
  2
*D12
 70
    65
 10
0.0
 20
0.0
 30
0.0
  3
*D12
  1

  0
LINE
  5
74A
100
AcDbEntity
  8
0
  6
BYBLOCK
 62
     0
100
AcDbLine
 10
175.666224
 20
246.007004
 30
0.0
 11
184.953951
 21
237.368215
 31
0.0
  0
LINE
  5
74B
100
AcDbEntity
  8
0
  6
BYBLOCK
 62
     0
100
AcDbLine
 10
171.748823
 20
249.650694
 30
0.0
 11
173.76244
 21
247.777769
 31
0.0
  0
SOLID
  5
74C
100
AcDbEntity
  8
0
  6
BYBLOCK
 62
     0
100
AcDbTrace
 10
175.961351
 20
246.324302
 30
0.0
 11
175.371096
 21
245.689707
 31
0.0
 12
173.76244
 22
247.777769
 32
0.0
 13
173.76244
 23
247.777769
 33
0.0
  0
MTEXT
  5
74D
100
AcDbEntity
  8
0
  6
BYBLOCK
 62
     0
100
AcDbMText
 10
182.712644
 20
242.361865
 30
0.0
 40
3.0
 41
0.0
 71
     5
 72
     1
  1
\A1;R2.75
 11
0.732224
 21
-0.681063
 31
0.0
  0
LINE
  5
74E
100
AcDbEntity
  8
0
  6
BYBLOCK
 62
     0
100
AcDbLine
 10
169.648823
 20
249.650694
 30
0.0
 11
173.848823
 21
249.650694
 31
0.0
  0
LINE
  5
74F
100
AcDbEntity
  8
0
  6
BYBLOCK
 62
     0
100
AcDbLine
 10
171.748823
 20
247.550694
 30
0.0
 11
171.748823
 21
251.750694
 31
0.0
  0
POINT
  5
750
100
AcDbEntity
  8
DEFPOINTS
  6
BYBLOCK
 62
     0
100
AcDbPoint
 10
173.76244
 20
247.777769
 30
0.0
  0
POINT
  5
751
100
AcDbEntity
  8
DEFPOINTS
  6
BYBLOCK
 62
     0
100
AcDbPoint
 10
171.748823
 20
249.650694
 30
0.0
  0
ENDBLK
  5
752
100
AcDbEntity
  8
0
100
AcDbBlockEnd
  0
BLOCK
  5
73E
100
AcDbEntity
  8
0
100
AcDbBlockBegin
  2
*D13
 70
    65
 10
0.0
 20
0.0
 30
0.0
  3
*D13
  1

  0
LINE
  5
73F
100
AcDbEntity
  8
0
  6
BYBLOCK
 62
     0
100
AcDbLine
 10
166.811471
 20
244.753849
 30
0.0
 11
174.425153
 21
237.401402
 31
0.0
  0
LINE
  5
740
100
AcDbEntity
  8
0
  6
BYBLOCK
 62
     0
100
AcDbLine
 10
164.581517
 20
246.90729
 30
0.0
 11
164.941187
 21
246.559961
 31
0.0
  0
SOLID
  5
741
100
AcDbEntity
  8
0
  6
BYBLOCK
 62
     0
100
AcDbTrace
 10
167.11249
 20
245.065563
 30
0.0
 11
166.510452
 21
244.442135
 31
0.0
 12
164.941187
 22
246.559961
 32
0.0
 13
164.941187
 23
246.559961
 33
0.0
  0
MTEXT
  5
742
100
AcDbEntity
  8
0
  6
BYBLOCK
 62
     0
100
AcDbMText
 10
173.033076
 20
241.706763
 30
0.0
 40
3.0
 41
0.0
 71
     5
 72
     1
  1
\A1;R0.5
 11
0.71934
 21
-0.694658
 31
0.0
  0
LINE
  5
743
100
AcDbEntity
  8
0
  6
BYBLOCK
 62
     0
100
AcDbLine
 10
162.481517
 20
246.90729
 30
0.0
 11
166.681517
 21
246.90729
 31
0.0
  0
LINE
  5
744
100
AcDbEntity
  8
0
  6
BYBLOCK
 62
     0
100
AcDbLine
 10
164.581517
 20
244.80729
 30
0.0
 11
164.581517
 21
249.00729
 31
0.0
  0
POINT
  5
745
100
AcDbEntity
  8
DEFPOINTS
  6
BYBLOCK
 62
     0
100
AcDbPoint
 10
164.941187
 20
246.559961
 30
0.0
  0
POINT
  5
746
100
AcDbEntity
  8
DEFPOINTS
  6
BYBLOCK
 62
     0
100
AcDbPoint
 10
164.581517
 20
246.90729
 30
0.0
  0
ENDBLK
  5
747
100
AcDbEntity
  8
0
100
AcDbBlockEnd
  0
BLOCK
  5
76F
100
AcDbEntity
  8
0
100
AcDbBlockBegin
  2
*D14
 70
    65
 10
0.0
 20
0.0
 30
0.0
  3
*D14
  1

  0
LINE
  5
770
100
AcDbEntity
  8
0
  6
BYBLOCK
 62
     0
100
AcDbLine
 10
104.391227
 20
209.542527
 30
0.0
 11
45.757925
 21
209.542527
 31
0.0
  0
LINE
  5
771
100
AcDbEntity
  8
0
  6
BYBLOCK
 62
     0
100
AcDbLine
 10
75.391227
 20
121.11837
 30
0.0
 11
45.757925
 21
121.11837
 31
0.0
  0
LINE
  5
772
100
AcDbEntity
  8
0
  6
BYBLOCK
 62
     0
100
AcDbLine
 10
47.007925
 20
206.942527
 30
0.0
 11
47.007925
 21
123.71837
 31
0.0
  0
SOLID
  5
773
100
AcDbEntity
  8
0
  6
BYBLOCK
 62
     0
100
AcDbTrace
 10
46.574592
 20
206.942527
 30
0.0
 11
47.441258
 21
206.942527
 31
0.0
 12
47.007925
 22
209.542527
 32
0.0
 13
47.007925
 23
209.542527
 33
0.0
  0
SOLID
  5
774
100
AcDbEntity
  8
0
  6
BYBLOCK
 62
     0
100
AcDbTrace
 10
46.574592
 20
123.71837
 30
0.0
 11
47.441258
 21
123.71837
 31
0.0
 12
47.007925
 22
121.11837
 32
0.0
 13
47.007925
 23
121.11837
 33
0.0
  0
MTEXT
  5
775
100
AcDbEntity
  8
0
  6
BYBLOCK
 62
     0
100
AcDbMText
 10
42.952039
 20
165.330449
 30
0.0
 40
3.0
 41
0.0
 71
     5
 72
     1
  1
\A1;88.42\S+0.02^  0.00;
 11
0.0
 21
1.0
 31
0.0
  0
POINT
  5
776
100
AcDbEntity
  8
DEFPOINTS
  6
BYBLOCK
 62
     0
100
AcDbPoint
 10
105.021227
 20
209.542527
 30
0.0
  0
POINT
  5
777
100
AcDbEntity
  8
DEFPOINTS
  6
BYBLOCK
 62
     0
100
AcDbPoint
 10
76.021227
 20
121.11837
 30
0.0
  0
POINT
  5
778
100
AcDbEntity
  8
DEFPOINTS
  6
BYBLOCK
 62
     0
100
AcDbPoint
 10
47.007925
 20
121.11837
 30
0.0
  0
ENDBLK
  5
779
100
AcDbEntity
  8
0
100
AcDbBlockEnd
  0
BLOCK
  5
793
100
AcDbEntity
  8
0
100
AcDbBlockBegin
  2
*D15
 70
    65
 10
0.0
 20
0.0
 30
0.0
  3
*D15
  1

  0
LINE
  5
794
100
AcDbEntity
  8
0
  6
BYBLOCK
 62
     0
100
AcDbLine
 10
107.724393
 20
205.604781
 30
0.0
 11
102.31806
 21
201.480274
 31
0.0
  0
LINE
  5
795
100
AcDbEntity
  8
0
  6
BYBLOCK
 62
     0
100
AcDbLine
 10
100.250933
 20
199.903256
 30
0.0
 11
82.081838
 21
186.041998
 31
0.0
  0
SOLID
  5
796
100
AcDbEntity
  8
0
  6
BYBLOCK
 62
     0
100
AcDbTrace
 10
107.461557
 20
205.949303
 30
0.0
 11
107.98723
 21
205.26026
 31
0.0
 12
109.791521
 22
207.181799
 32
0.0
 13
109.791521
 23
207.181799
 33
0.0
  0
SOLID
  5
797
100
AcDbEntity
  8
0
  6
BYBLOCK
 62
     0
100
AcDbTrace
 10
102.055224
 20
201.824795
 30
0.0
 11
102.580897
 21
201.135752
 31
0.0
 12
100.250933
 22
199.903256
 32
0.0
 13
100.250933
 23
199.903256
 33
0.0
  0
MTEXT
  5
798
100
AcDbEntity
  8
0
  6
BYBLOCK
 62
     0
100
AcDbMText
 10
83.539139
 20
189.83323
 30
0.0
 40
3.0
 41
0.0
 71
     5
 72
     1
  1
\A1;\U+220512
 11
0.795049
 21
0.606545
 31
0.0
  0
POINT
  5
799
100
AcDbEntity
  8
DEFPOINTS
  6
BYBLOCK
 62
     0
100
AcDbPoint
 10
100.250933
 20
199.903256
 30
0.0
  0
POINT
  5
79A
100
AcDbEntity
  8
DEFPOINTS
  6
BYBLOCK
 62
     0
100
AcDbPoint
 10
109.791521
 20
207.181799
 30
0.0
  0
ENDBLK
  5
79B
100
AcDbEntity
  8
0
100
AcDbBlockEnd
  0
BLOCK
  5
7AC
100
AcDbEntity
  8
0
100
AcDbBlockBegin
  2
*X16
 70
    65
 10
0.0
 20
0.0
 30
0.0
  3
*X16
  1

  0
LINE
  5
7AE
100
AcDbEntity
  8
0
  6
CONTINUOUS
 62
     0
100
AcDbLine
 10
99.680628
 20
198.463446
 30
0.0
 11
100.649464
 21
199.432281
 31
0.0
  0
LINE
  5
7AF
100
AcDbEntity
  8
0
  6
CONTINUOUS
 62
     0
100
AcDbLine
 10
99.558485
 20
198.565809
 30
0.0
 11
100.53917
 21
199.546494
 31
0.0
  0
LINE
  5
7B0
100
AcDbEntity
  8
0
  6
CONTINUOUS
 62
     0
100
AcDbLine
 10
99.429722
 20
198.661552
 30
0.0
 11
100.428876
 21
199.660706
 31
0.0
  0
LINE
  5
7B1
100
AcDbEntity
  8
0
  6
CONTINUOUS
 62
     0
100
AcDbLine
 10
99.294164
 20
198.750501
 30
0.0
 11
100.318582
 21
199.774919
 31
0.0
  0
LINE
  5
7B2
100
AcDbEntity
  8
0
  6
CONTINUOUS
 62
     0
100
AcDbLine
 10
99.151557
 20
198.8324
 30
0.0
 11
100.208289
 21
199.889132
 31
0.0
  0
LINE
  5
7B3
100
AcDbEntity
  8
0
  6
CONTINUOUS
 62
     0
100
AcDbLine
 10
99.00155
 20
198.906899
 30
0.0
 11
100.097995
 21
200.003344
 31
0.0
  0
LINE
  5
7B4
100
AcDbEntity
  8
0
  6
CONTINUOUS
 62
     0
100
AcDbLine
 10
98.84367
 20
198.973525
 30
0.0
 11
99.987701
 21
200.117557
 31
0.0
  0
LINE
  5
7B5
100
AcDbEntity
  8
0
  6
CONTINUOUS
 62
     0
100
AcDbLine
 10
98.677292
 20
199.031654
 30
0.0
 11
99.877407
 21
200.231769
 31
0.0
  0
LINE
  5
7B6
100
AcDbEntity
  8
0
  6
CONTINUOUS
 62
     0
100
AcDbLine
 10
98.501586
 20
199.080454
 30
0.0
 11
99.765988
 21
200.344857
 31
0.0
  0
LINE
  5
7B7
100
AcDbEntity
  8
0
  6
CONTINUOUS
 62
     0
100
AcDbLine
 10
98.315432
 20
199.118807
 30
0.0
 11
99.648628
 21
200.452003
 31
0.0
  0
LINE
  5
7B8
100
AcDbEntity
  8
0
  6
CONTINUOUS
 62
     0
100
AcDbLine
 10
98.117288
 20
199.145169
 30
0.0
 11
99.524728
 21
200.55261
 31
0.0
  0
LINE
  5
7B9
100
AcDbEntity
  8
0
  6
CONTINUOUS
 62
     0
100
AcDbLine
 10
97.904948
 20
199.157336
 30
0.0
 11
99.394169
 21
200.646557
 31
0.0
  0
LINE
  5
7BA
100
AcDbEntity
  8
0
  6
CONTINUOUS
 62
     0
100
AcDbLine
 10
97.680915
 20
199.15781
 30
0.0
 11
99.256757
 21
200.733651
 31
0.0
  0
LINE
  5
7BB
100
AcDbEntity
  8
0
  6
CONTINUOUS
 62
     0
100
AcDbLine
 10
97.456409
 20
199.15781
 30
0.0
 11
99.112211
 21
200.813612
 31
0.0
  0
LINE
  5
7BC
100
AcDbEntity
  8
0
  6
CONTINUOUS
 62
     0
100
AcDbLine
 10
97.231903
 20
199.15781
 30
0.0
 11
98.960151
 21
200.886058
 31
0.0
  0
LINE
  5
7BD
100
AcDbEntity
  8
0
  6
CONTINUOUS
 62
     0
100
AcDbLine
 10
97.007396
 20
199.15781
 30
0.0
 11
98.800069
 21
200.950482
 31
0.0
  0
LINE
  5
7BE
100
AcDbEntity
  8
0
  6
CONTINUOUS
 62
     0
100
AcDbLine
 10
96.78289
 20
199.15781
 30
0.0
 11
98.63129
 21
201.00621
 31
0.0
  0
LINE
  5
7BF
100
AcDbEntity
  8
0
  6
CONTINUOUS
 62
     0
100
AcDbLine
 10
96.558383
 20
199.15781
 30
0.0
 11
98.452916
 21
201.052342
 31
0.0
  0
LINE
  5
7C0
100
AcDbEntity
  8
0
  6
CONTINUOUS
 62
     0
100
AcDbLine
 10
96.333877
 20
199.15781
 30
0.0
 11
98.263731
 21
201.087663
 31
0.0
  0
LINE
  5
7C1
100
AcDbEntity
  8
0
  6
CONTINUOUS
 62
     0
100
AcDbLine
 10
96.109371
 20
199.15781
 30
0.0
 11
98.062044
 21
201.110483
 31
0.0
  0
LINE
  5
7C2
100
AcDbEntity
  8
0
  6
CONTINUOUS
 62
     0
100
AcDbLine
 10
96.021227
 20
199.294172
 30
0.0
 11
97.845425
 21
201.11837
 31
0.0
  0
LINE
  5
7C3
100
AcDbEntity
  8
0
  6
CONTINUOUS
 62
     0
100
AcDbLine
 10
96.021227
 20
199.518679
 30
0.0
 11
97.620918
 21
201.11837
 31
0.0
  0
LINE
  5
7C4
100
AcDbEntity
  8
0
  6
CONTINUOUS
 62
     0
100
AcDbLine
 10
96.021227
 20
199.743185
 30
0.0
 11
97.396412
 21
201.11837
 31
0.0
  0
LINE
  5
7C5
100
AcDbEntity
  8
0
  6
CONTINUOUS
 62
     0
100
AcDbLine
 10
96.021227
 20
199.967691
 30
0.0
 11
97.171905
 21
201.11837
 31
0.0
  0
LINE
  5
7C6
100
AcDbEntity
  8
0
  6
CONTINUOUS
 62
     0
100
AcDbLine
 10
96.021227
 20
200.192198
 30
0.0
 11
96.947399
 21
201.11837
 31
0.0
  0
LINE
  5
7C7
100
AcDbEntity
  8
0
  6
CONTINUOUS
 62
     0
100
AcDbLine
 10
96.021227
 20
200.416704
 30
0.0
 11
96.722893
 21
201.11837
 31
0.0
  0
LINE
  5
7C8
100
AcDbEntity
  8
0
  6
CONTINUOUS
 62
     0
100
AcDbLine
 10
99.796252
 20
198.354563
 30
0.0
 11
100.759758
 21
199.318069
 31
0.0
  0
LINE
  5
7C9
100
AcDbEntity
  8
0
  6
CONTINUOUS
 62
     0
100
AcDbLine
 10
99.906882
 20
198.240687
 30
0.0
 11
100.870052
 21
199.203856
 31
0.0
  0
LINE
  5
7CA
100
AcDbEntity
  8
0
  6
CONTINUOUS
 62
     0
100
AcDbLine
 10
100.017176
 20
198.126474
 30
0.0
 11
100.980345
 21
199.089643
 31
0.0
  0
LINE
  5
7CB
100
AcDbEntity
  8
0
  6
CONTINUOUS
 62
     0
100
AcDbLine
 10
100.12747
 20
198.012262
 30
0.0
 11
101.090639
 21
198.975431
 31
0.0
  0
LINE
  5
7CC
100
AcDbEntity
  8
0
  6
CONTINUOUS
 62
     0
100
AcDbLine
 10
100.237764
 20
197.898049
 30
0.0
 11
101.200933
 21
198.861218
 31
0.0
  0
LINE
  5
7CD
100
AcDbEntity
  8
0
  6
CONTINUOUS
 62
     0
100
AcDbLine
 10
100.348057
 20
197.783836
 30
0.0
 11
101.311227
 21
198.747006
 31
0.0
  0
LINE
  5
7CE
100
AcDbEntity
  8
0
  6
CONTINUOUS
 62
     0
100
AcDbLine
 10
100.458351
 20
197.669624
 30
0.0
 11
101.421521
 21
198.632793
 31
0.0
  0
LINE
  5
7CF
100
AcDbEntity
  8
0
  6
CONTINUOUS
 62
     0
100
AcDbLine
 10
100.568645
 20
197.555411
 30
0.0
 11
101.531814
 21
198.518581
 31
0.0
  0
LINE
  5
7D0
100
AcDbEntity
  8
0
  6
CONTINUOUS
 62
     0
100
AcDbLine
 10
100.678939
 20
197.441199
 30
0.0
 11
101.642108
 21
198.404368
 31
0.0
  0
LINE
  5
7D1
100
AcDbEntity
  8
0
  6
CONTINUOUS
 62
     0
100
AcDbLine
 10
100.789233
 20
197.326986
 30
0.0
 11
101.752402
 21
198.290155
 31
0.0
  0
LINE
  5
7D2
100
AcDbEntity
  8
0
  6
CONTINUOUS
 62
     0
100
AcDbLine
 10
100.899527
 20
197.212773
 30
0.0
 11
101.862696
 21
198.175943
 31
0.0
  0
LINE
  5
7D3
100
AcDbEntity
  8
0
  6
CONTINUOUS
 62
     0
100
AcDbLine
 10
101.00982
 20
197.098561
 30
0.0
 11
101.97299
 21
198.06173
 31
0.0
  0
LINE
  5
7D4
100
AcDbEntity
  8
0
  6
CONTINUOUS
 62
     0
100
AcDbLine
 10
101.120114
 20
196.984348
 30
0.0
 11
102.083284
 21
197.947518
 31
0.0
  0
LINE
  5
7D5
100
AcDbEntity
  8
0
  6
CONTINUOUS
 62
     0
100
AcDbLine
 10
101.230408
 20
196.870136
 30
0.0
 11
102.193577
 21
197.833305
 31
0.0
  0
LINE
  5
7D6
100
AcDbEntity
  8
0
  6
CONTINUOUS
 62
     0
100
AcDbLine
 10
101.340702
 20
196.755923
 30
0.0
 11
102.303871
 21
197.719092
 31
0.0
  0
LINE
  5
7D7
100
AcDbEntity
  8
0
  6
CONTINUOUS
 62
     0
100
AcDbLine
 10
101.450996
 20
196.64171
 30
0.0
 11
102.414165
 21
197.60488
 31
0.0
  0
LINE
  5
7D8
100
AcDbEntity
  8
0
  6
CONTINUOUS
 62
     0
100
AcDbLine
 10
101.561289
 20
196.527498
 30
0.0
 11
102.524459
 21
197.490667
 31
0.0
  0
LINE
  5
7D9
100
AcDbEntity
  8
0
  6
CONTINUOUS
 62
     0
100
AcDbLine
 10
101.671583
 20
196.413285
 30
0.0
 11
102.634753
 21
197.376455
 31
0.0
  0
LINE
  5
7DA
100
AcDbEntity
  8
0
  6
CONTINUOUS
 62
     0
100
AcDbLine
 10
101.875137
 20
196.392332
 30
0.0
 11
102.745046
 21
197.262242
 31
0.0
  0
LINE
  5
7DB
100
AcDbEntity
  8
0
  6
CONTINUOUS
 62
     0
100
AcDbLine
 10
102.099643
 20
196.392332
 30
0.0
 11
102.85534
 21
197.148029
 31
0.0
  0
LINE
  5
7DC
100
AcDbEntity
  8
0
  6
CONTINUOUS
 62
     0
100
AcDbLine
 10
102.32415
 20
196.392332
 30
0.0
 11
102.965634
 21
197.033817
 31
0.0
  0
LINE
  5
7DD
100
AcDbEntity
  8
0
  6
CONTINUOUS
 62
     0
100
AcDbLine
 10
102.548656
 20
196.392332
 30
0.0
 11
103.075928
 21
196.919604
 31
0.0
  0
LINE
  5
7DE
100
AcDbEntity
  8
0
  6
CONTINUOUS
 62
     0
100
AcDbLine
 10
102.773162
 20
196.392332
 30
0.0
 11
103.186222
 21
196.805392
 31
0.0
  0
LINE
  5
7DF
100
AcDbEntity
  8
0
  6
CONTINUOUS
 62
     0
100
AcDbLine
 10
102.997669
 20
196.392332
 30
0.0
 11
103.296515
 21
196.691179
 31
0.0
  0
LINE
  5
7E0
100
AcDbEntity
  8
0
  6
CONTINUOUS
 62
     0
100
AcDbLine
 10
103.222175
 20
196.392332
 30
0.0
 11
103.406809
 21
196.576967
 31
0.0
  0
LINE
  5
7E1
100
AcDbEntity
  8
0
  6
CONTINUOUS
 62
     0
100
AcDbLine
 10
103.446682
 20
196.392332
 30
0.0
 11
103.517103
 21
196.462754
 31
0.0
  0
ENDBLK
  5
7E2
100
AcDbEntity
  8
0
100
AcDbBlockEnd
  0
BLOCK
  5
7E4
100
AcDbEntity
  8
0
100
AcDbBlockBegin
  2
*X17
 70
    65
 10
0.0
 20
0.0
 30
0.0
  3
*X17
  1

  0
LINE
  5
7E6
100
AcDbEntity
  8
0
  6
CONTINUOUS
 62
     0
100
AcDbLine
 10
107.93681
 20
196.392332
 30
0.0
 11
112.662847
 21
201.11837
 31
0.0
  0
LINE
  5
7E7
100
AcDbEntity
  8
0
  6
CONTINUOUS
 62
     0
100
AcDbLine
 10
107.712303
 20
196.392332
 30
0.0
 11
112.438341
 21
201.11837
 31
0.0
  0
LINE
  5
7E8
100
AcDbEntity
  8
0
  6
CONTINUOUS
 62
     0
100
AcDbLine
 10
107.487797
 20
196.392332
 30
0.0
 11
112.213834
 21
201.11837
 31
0.0
  0
LINE
  5
7E9
100
AcDbEntity
  8
0
  6
CONTINUOUS
 62
     0
100
AcDbLine
 10
107.26329
 20
196.392332
 30
0.0
 11
111.981526
 21
201.110568
 31
0.0
  0
LINE
  5
7EA
100
AcDbEntity
  8
0
  6
CONTINUOUS
 62
     0
100
AcDbLine
 10
107.038784
 20
196.392332
 30
0.0
 11
111.725572
 21
201.07912
 31
0.0
  0
LINE
  5
7EB
100
AcDbEntity
  8
0
  6
CONTINUOUS
 62
     0
100
AcDbLine
 10
106.814278
 20
196.392332
 30
0.0
 11
111.435088
 21
201.013142
 31
0.0
  0
LINE
  5
7EC
100
AcDbEntity
  8
0
  6
CONTINUOUS
 62
     0
100
AcDbLine
 10
106.589771
 20
196.392332
 30
0.0
 11
111.084432
 21
200.886993
 31
0.0
  0
LINE
  5
7ED
100
AcDbEntity
  8
0
  6
CONTINUOUS
 62
     0
100
AcDbLine
 10
109.048952
 20
199.076019
 30
0.0
 11
110.549443
 21
200.576511
 31
0.0
  0
LINE
  5
7EE
100
AcDbEntity
  8
0
  6
CONTINUOUS
 62
     0
100
AcDbLine
 10
108.161316
 20
196.392332
 30
0.0
 11
112.887354
 21
201.11837
 31
0.0
  0
LINE
  5
7EF
100
AcDbEntity
  8
0
  6
CONTINUOUS
 62
     0
100
AcDbLine
 10
110.737032
 20
198.743542
 30
0.0
 11
113.11186
 21
201.11837
 31
0.0
  0
LINE
  5
7F0
100
AcDbEntity
  8
0
  6
CONTINUOUS
 62
     0
100
AcDbLine
 10
111.18691
 20
198.968913
 30
0.0
 11
113.336366
 21
201.11837
 31
0.0
  0
LINE
  5
7F1
100
AcDbEntity
  8
0
  6
CONTINUOUS
 62
     0
100
AcDbLine
 10
111.517081
 20
199.074578
 30
0.0
 11
113.54105
 21
201.098547
 31
0.0
  0
LINE
  5
7F2
100
AcDbEntity
  8
0
  6
CONTINUOUS
 62
     0
100
AcDbLine
 10
111.796771
 20
199.129762
 30
0.0
 11
113.653303
 21
200.986294
 31
0.0
  0
LINE
  5
7F3
100
AcDbEntity
  8
0
  6
CONTINUOUS
 62
     0
100
AcDbLine
 10
112.045609
 20
199.154093
 30
0.0
 11
113.765556
 21
200.874041
 31
0.0
  0
LINE
  5
7F4
100
AcDbEntity
  8
0
  6
CONTINUOUS
 62
     0
100
AcDbLine
 10
112.273832
 20
199.15781
 30
0.0
 11
113.877809
 21
200.761787
 31
0.0
  0
LINE
  5
7F5
100
AcDbEntity
  8
0
  6
CONTINUOUS
 62
     0
100
AcDbLine
 10
112.498338
 20
199.15781
 30
0.0
 11
113.990063
 21
200.649534
 31
0.0
  0
LINE
  5
7F6
100
AcDbEntity
  8
0
  6
CONTINUOUS
 62
     0
100
AcDbLine
 10
112.722844
 20
199.15781
 30
0.0
 11
114.021227
 21
200.456192
 31
0.0
  0
LINE
  5
7F7
100
AcDbEntity
  8
0
  6
CONTINUOUS
 62
     0
100
AcDbLine
 10
112.947351
 20
199.15781
 30
0.0
 11
114.021227
 21
200.231686
 31
0.0
  0
LINE
  5
7F8
100
AcDbEntity
  8
0
  6
CONTINUOUS
 62
     0
100
AcDbLine
 10
113.171857
 20
199.15781
 30
0.0
 11
114.021227
 21
200.007179
 31
0.0
  0
LINE
  5
7F9
100
AcDbEntity
  8
0
  6
CONTINUOUS
 62
     0
100
AcDbLine
 10
113.396364
 20
199.15781
 30
0.0
 11
114.021227
 21
199.782673
 31
0.0
  0
LINE
  5
7FA
100
AcDbEntity
  8
0
  6
CONTINUOUS
 62
     0
100
AcDbLine
 10
113.62087
 20
199.15781
 30
0.0
 11
114.021227
 21
199.558166
 31
0.0
  0
LINE
  5
7FB
100
AcDbEntity
  8
0
  6
CONTINUOUS
 62
     0
100
AcDbLine
 10
113.845376
 20
199.15781
 30
0.0
 11
114.021227
 21
199.33366
 31
0.0
  0
ENDBLK
  5
7FC
100
AcDbEntity
  8
0
100
AcDbBlockEnd
  0
BLOCK
  5
803
100
AcDbEntity
  8
0
100
AcDbBlockBegin
  2
*D18
 70
    65
 10
0.0
 20
0.0
 30
0.0
  3
*D18
  1

  0
LINE
  5
804
100
AcDbEntity
  8
0
  6
BYBLOCK
 62
     0
100
AcDbLine
 10
164.143883
 20
245.734328
 30
0.0
 11
137.320686
 21
217.958094
 31
0.0
  0
LINE
  5
805
100
AcDbEntity
  8
0
  6
BYBLOCK
 62
     0
100
AcDbLine
 10
165.019152
 20
245.734328
 30
0.0
 11
191.842349
 21
217.958094
 31
0.0
  0
ARC
  5
806
100
AcDbEntity
  8
0
  6
BYBLOCK
 62
     0
100
AcDbCircle
 10
164.581517
 20
246.187512
 30
0.0
 40
37.993509
100
AcDbArc
 50
229.921673
 51
310.078327
  0
SOLID
  5
807
100
AcDbEntity
  8
0
  6
BYBLOCK
 62
     0
100
AcDbTrace
 10
139.829819
 20
216.794378
 30
0.0
 11
140.410172
 21
217.43804
 31
0.0
 12
138.189009
 22
218.857269
 32
0.0
 13
138.189009
 23
218.857269
 33
0.0
  0
SOLID
  5
808
100
AcDbEntity
  8
0
  6
BYBLOCK
 62
     0
100
AcDbTrace
 10
188.752863
 20
217.43804
 30
0.0
 11
189.333216
 21
216.794378
 31
0.0
 12
190.974026
 22
218.857269
 32
0.0
 13
190.974026
 23
218.857269
 33
0.0
  0
MTEXT
  5
809
100
AcDbEntity
  8
0
  6
BYBLOCK
 62
     0
100
AcDbMText
 10
164.581517
 20
210.324003
 30
0.0
 40
3.0
 41
0.0
 71
     5
 72
     1
  1
\A1;88°
  0
POINT
  5
80A
100
AcDbEntity
  8
DEFPOINTS
  6
BYBLOCK
 62
     0
100
AcDbPoint
 10
154.961745
 20
209.432013
 30
0.0
  0
POINT
  5
80B
100
AcDbEntity
  8
DEFPOINTS
  6
BYBLOCK
 62
     0
100
AcDbPoint
 10
159.392396
 20
251.561004
 30
0.0
  0
POINT
  5
80C
100
AcDbEntity
  8
DEFPOINTS
  6
BYBLOCK
 62
     0
100
AcDbPoint
 10
169.770639
 20
251.561004
 30
0.0
  0
POINT
  5
80D
100
AcDbEntity
  8
DEFPOINTS
  6
BYBLOCK
 62
     0
100
AcDbPoint
 10
164.941187
 20
246.559961
 30
0.0
  0
POINT
  5
80E
100
AcDbEntity
  8
DEFPOINTS
  6
BYBLOCK
 62
     0
100
AcDbPoint
 10
164.221848
 20
246.559961
 30
0.0
  0
ENDBLK
  5
80F
100
AcDbEntity
  8
0
100
AcDbBlockEnd
  0
ENDSEC
  0
SECTION
  2
ENTITIES
  0
LINE
  5
105
100
AcDbEntity
  8
OGGETTI
100
AcDbLine
 10
105.021227
 20
121.11837
 30
0.0
 11
134.021227
 21
121.11837
 31
0.0
  0
LINE
  5
106
100
AcDbEntity
  8
OGGETTI
100
AcDbLine
 10
135.021227
 20
122.11837
 30
0.0
 11
135.021227
 21
138.11837
 31
0.0
  0
LINE
  5
107
100
AcDbEntity
  8
OGGETTI
100
AcDbLine
 10
134.021227
 20
139.11837
 30
0.0
 11
114.021227
 21
139.11837
 31
0.0
  0
LINE
  5
10C
100
AcDbEntity
  8
OGGETTI
100
AcDbLine
 10
105.021227
 20
121.11837
 30
0.0
 11
76.021227
 21
121.11837
 31
0.0
  0
LINE
  5
10D
100
AcDbEntity
  8
OGGETTI
100
AcDbLine
 10
75.021227
 20
122.11837
 30
0.0
 11
75.021227
 21
138.11837
 31
0.0
  0
LINE
  5
10E
100
AcDbEntity
  8
OGGETTI
100
AcDbLine
 10
76.021227
 20
139.11837
 30
0.0
 11
96.021227
 21
139.11837
 31
0.0
  0
LINE
  5
115
100
AcDbEntity
  8
OGGETTI
100
AcDbLine
 10
75.021227
 20
138.11837
 30
0.0
 11
76.021227
 21
139.11837
 31
0.0
  0
LINE
  5
116
100
AcDbEntity
  8
OGGETTI
100
AcDbLine
 10
135.021227
 20
138.11837
 30
0.0
 11
134.021227
 21
139.11837
 31
0.0
  0
LINE
  5
117
100
AcDbEntity
  8
OGGETTI
100
AcDbLine
 10
135.021227
 20
122.11837
 30
0.0
 11
134.021227
 21
121.11837
 31
0.0
  0
LINE
  5
118
100
AcDbEntity
  8
OGGETTI
100
AcDbLine
 10
75.021227
 20
122.11837
 30
0.0
 11
76.021227
 21
121.11837
 31
0.0
  0
MTEXT
  5
121
100
AcDbEntity
  8
OGGETTI
100
AcDbMText
 10
32.315819
 20
28.71264
 30
0.0
 40
16.0
 41
71.279818
 71
     1
 72
     1
  1

  0
TEXT
  5
3A4
100
AcDbEntity
  8
QUOTE
100
AcDbText
 10
173.110681
 20
257.29952
 30
0.0
 40
3.0
  1

100
AcDbText
  0
MTEXT
  5
6A0
100
AcDbEntity
  8
TESTO
  6
CONTINUOUS
100
AcDbMText
 10
47.231009
 20
79.559233
 30
0.0
 40
2.6
 41
0.0
 71
     9
 72
     1
  1

  0
MTEXT
  5
6A2
100
AcDbEntity
  8
TESTO
  6
CONTINUOUS
100
AcDbMText
 10
47.177656
 20
79.559233
 30
0.0
 40
2.6
 41
0.0
 71
     9
 72
     1
  1

  0
MTEXT
  5
6A4
100
AcDbEntity
  8
TESTO
  6
CONTINUOUS
100
AcDbMText
 10
46.409256
 20
79.880663
 30
0.0
 40
2.6
 41
0.0
 71
     9
 72
     1
  1

  0
LINE
  5
6B8
100
AcDbEntity
  8
OGGETTI
100
AcDbLine
 10
114.021227
 20
139.11837
 30
0.0
 11
114.021227
 21
200.61837
 31
0.0
  0
LINE
  5
6B9
100
AcDbEntity
  8
OGGETTI
100
AcDbLine
 10
96.021227
 20
139.11837
 30
0.0
 11
96.021227
 21
200.61837
 31
0.0
  0
LINE
  5
6EB
100
AcDbEntity
  8
OGGETTI
  6
CONTINUOUS
100
AcDbLine
 10
112.188533
 20
201.11837
 30
0.0
 11
113.521227
 21
201.11837
 31
0.0
1001
ACAD
1000
ASC_BOUNDS
1002
{
1070
    19
1002
}
  0
LINE
  5
6EC
100
AcDbEntity
  8
OGGETTI
  6
CONTINUOUS
100
AcDbLine
 10
110.210348
 20
200.278681
 30
0.0
 11
105.380897
 21
195.277637
 31
0.0
  0
LINE
  5
6ED
100
AcDbEntity
  8
OGGETTI
  6
CONTINUOUS
100
AcDbLine
 10
97.853921
 20
201.11837
 30
0.0
 11
96.521227
 21
201.11837
 31
0.0
1001
ACAD
1000
ASC_BOUNDS
1002
{
1070
    19
1002
}
  0
LINE
  5
6EE
100
AcDbEntity
  8
OGGETTI
  6
CONTINUOUS
100
AcDbLine
 10
99.832106
 20
200.278681
 30
0.0
 11
104.661557
 21
195.277637
 31
0.0
  0
ARC
  5
6EF
100
AcDbEntity
  8
OGGETTI
  6
CONTINUOUS
100
AcDbCircle
 10
105.021227
 20
195.624966
 30
0.0
 40
0.5
100
AcDbArc
 50
224.0
 51
316.0
  0
LINE
  5
706
100
AcDbEntity
  8
OGGETTI
  6
CONTINUOUS
100
AcDbLine
 10
114.021227
 20
200.61837
 30
0.0
 11
113.521227
 21
201.11837
 31
0.0
1001
ACAD
1000
ASC_BOUNDS
1002
{
1070
    19
1002
}
  0
LINE
  5
707
100
AcDbEntity
  8
OGGETTI
  6
CONTINUOUS
100
AcDbLine
 10
96.021227
 20
200.61837
 30
0.0
 11
96.521227
 21
201.11837
 31
0.0
1001
ACAD
1000
ASC_BOUNDS
1002
{
1070
    19
1002
}
  0
ARC
  5
721
100
AcDbEntity
  8
OGGETTI
  6
CONTINUOUS
100
AcDbCircle
 10
112.188533
 20
198.36837
 30
0.0
 40
2.75
100
AcDbArc
 50
90.0
 51
136.0
1001
ACAD
1000
ASC_BOUNDS
1002
{
1070
    19
1002
}
  0
ARC
  5
722
100
AcDbEntity
  8
OGGETTI
  6
CONTINUOUS
100
AcDbCircle
 10
97.853921
 20
198.36837
 30
0.0
 40
2.75
100
AcDbArc
 50
44.0
 51
90.0
1001
ACAD
1000
ASC_BOUNDS
1002
{
1070
    19
1002
}
  0
VIEWPORT
  5
22
100
AcDbEntity
 67
     1
  8
0
100
AcDbViewport
 10
272.205225
 20
154.724298
 30
0.0
 40
544.41045
 41
309.448596
 68
    -1
 69
     1
1001
ACAD
1000
MVIEW
1002
{
1070
    16
1010
0.0
1020
0.0
1030
0.0
1010
0.0
1020
0.0
1030
1.0
1040
0.0
1040
309.448596
1040
272.205225
1040
154.724298
1040
50.0
1040
0.0
1040
0.0
1070
     0
1070
   100
1070
     1
1070
     0
1070
     0
1070
     0
1070
     0
1070
     0
1040
0.0
1040
0.0
1040
0.0
1040
1.0
1040
1.0
1040
10.0
1040
10.0
1070
     0
1002
{
1002
}
1002
}
  0
ENDSEC
  0
SECTION
  2
OBJECTS
  0
DICTIONARY
  5
C
100
AcDbDictionary
  3
ACAD_GROUP
350
D
  3
ACAD_MLINESTYLE
350
E
  0
DICTIONARY
  5
D
102
{ACAD_REACTORS
330
C
102
}
100
AcDbDictionary
  0
DICTIONARY
  5
E
102
{ACAD_REACTORS
330
C
102
}
100
AcDbDictionary
  3
STANDARD
350
13
  0
MLINESTYLE
  5
13
102
{ACAD_REACTORS
330
E
102
}
100
AcDbMlineStyle
  2
STANDARD
 70
     0
  3

 62
     0
 51
90.0
 52
90.0
 71
     2
 49
0.5
 62
   256
  6
BYLAYER
 49
-0.5
 62
   256
  6
BYLAYER
  0
ENDSEC
  0
EOF
