  0
SECTION
  2
HEADER
  9
$ACADVER
  1
AC1012
  9
$DWGCODEPAGE
  3
iso8859-1
  9
$INSBASE
 10
0.0
 20
0.0
 30
0.0
  9
$EXTMIN
 10
-2606.129665
 20
-1399.656777
 30
0.0
  9
$EXTMAX
 10
-2335.043517
 20
-1270.980827
 30
0.0
  9
$LIMMIN
 10
0.0
 20
0.0
  9
$LIMMAX
 10
210.0
 20
297.0
  9
$ORTHOMODE
 70
     1
  9
$REGENMODE
 70
     1
  9
$FILLMODE
 70
     1
  9
$QTEXTMODE
 70
     0
  9
$MIRRTEXT
 70
     1
  9
$DRAGMODE
 70
     2
  9
$LTSCALE
 40
1.0
  9
$OSMODE
 70
     0
  9
$ATTMODE
 70
     1
  9
$TEXTSIZE
 40
3.0
  9
$TRACEWID
 40
0.05
  9
$TEXTSTYLE
  7
STANDARD
  9
$CLAYER
  8
QUOTE
  9
$CELTYPE
  6
BYLAYER
  9
$CECOLOR
 62
   256
  9
$CELTSCALE
 40
1.0
  9
$DELOBJ
 70
     1
  9
$DISPSILH
 70
     0
  9
$DIMSCALE
 40
1.0
  9
$DIMASZ
 40
2.5
  9
$DIMEXO
 40
0.625
  9
$DIMDLI
 40
3.75
  9
$DIMRND
 40
0.0
  9
$DIMDLE
 40
0.0
  9
$DIMEXE
 40
1.25
  9
$DIMTP
 40
0.0
  9
$DIMTM
 40
0.0
  9
$DIMTXT
 40
3.5
  9
$DIMCEN
 40
0.0
  9
$DIMTSZ
 40
0.0
  9
$DIMTOL
 70
     0
  9
$DIMLIM
 70
     0
  9
$DIMTIH
 70
     0
  9
$DIMTOH
 70
     0
  9
$DIMSE1
 70
     0
  9
$DIMSE2
 70
     0
  9
$DIMTAD
 70
     1
  9
$DIMZIN
 70
     8
  9
$DIMBLK
  1

  9
$DIMASO
 70
     1
  9
$DIMSHO
 70
     1
  9
$DIMPOST
  1

  9
$DIMAPOST
  1

  9
$DIMALT
 70
     0
  9
$DIMALTD
 70
     2
  9
$DIMALTF
 40
0.03937
  9
$DIMLFAC
 40
1.0
  9
$DIMTOFL
 70
     0
  9
$DIMTVP
 40
0.0
  9
$DIMTIX
 70
     0
  9
$DIMSOXD
 70
     0
  9
$DIMSAH
 70
     0
  9
$DIMBLK1
  1

  9
$DIMBLK2
  1

  9
$DIMSTYLE
  2
STANDARD
  9
$DIMCLRD
 70
     0
  9
$DIMCLRE
 70
     0
  9
$DIMCLRT
 70
     0
  9
$DIMTFAC
 40
1.0
  9
$DIMGAP
 40
0.625
  9
$DIMJUST
 70
     0
  9
$DIMSD1
 70
     0
  9
$DIMSD2
 70
     0
  9
$DIMTOLJ
 70
     1
  9
$DIMTZIN
 70
     8
  9
$DIMALTZ
 70
     0
  9
$DIMALTTZ
 70
     0
  9
$DIMFIT
 70
     3
  9
$DIMUPT
 70
     0
  9
$DIMUNIT
 70
     2
  9
$DIMDEC
 70
     2
  9
$DIMTDEC
 70
     2
  9
$DIMALTU
 70
     2
  9
$DIMALTTD
 70
     2
  9
$DIMTXSTY
  7
STANDARD
  9
$DIMAUNIT
 70
     0
  9
$LUNITS
 70
     2
  9
$LUPREC
 70
     4
  9
$SKETCHINC
 40
0.1
  9
$FILLETRAD
 40
6.0
  9
$AUNITS
 70
     0
  9
$AUPREC
 70
     0
  9
$MENU
  1
acad
  9
$ELEVATION
 40
0.0
  9
$PELEVATION
 40
0.0
  9
$THICKNESS
 40
0.0
  9
$LIMCHECK
 70
     0
  9
$BLIPMODE
 70
     1
  9
$CHAMFERA
 40
0.0
  9
$CHAMFERB
 40
0.0
  9
$CHAMFERC
 40
20.0
  9
$CHAMFERD
 40
0.0
  9
$SKPOLY
 70
     0
  9
$TDCREATE
 40
2452457.675795833
  9
$TDUPDATE
 40
2453081.654224190
  9
$TDINDWG
 40
0.4252377431
  9
$TDUSRTIMER
 40
0.4252377431
  9
$USRTIMER
 70
     1
  9
$ANGBASE
 50
0.0
  9
$ANGDIR
 70
     0
  9
$PDMODE
 70
     0
  9
$PDSIZE
 40
0.0
  9
$PLINEWID
 40
0.0
  9
$COORDS
 70
     1
  9
$SPLFRAME
 70
     0
  9
$SPLINETYPE
 70
     6
  9
$SPLINESEGS
 70
     8
  9
$ATTDIA
 70
     0
  9
$ATTREQ
 70
     1
  9
$HANDLING
 70
     1
  9
$HANDSEED
  5
2CA4
  9
$SURFTAB1
 70
     6
  9
$SURFTAB2
 70
     6
  9
$SURFTYPE
 70
     6
  9
$SURFU
 70
     6
  9
$SURFV
 70
     6
  9
$UCSNAME
  2

  9
$UCSORG
 10
0.0
 20
0.0
 30
0.0
  9
$UCSXDIR
 10
1.0
 20
0.0
 30
0.0
  9
$UCSYDIR
 10
0.0
 20
1.0
 30
0.0
  9
$PUCSNAME
  2

  9
$PUCSORG
 10
0.0
 20
0.0
 30
0.0
  9
$PUCSXDIR
 10
1.0
 20
0.0
 30
0.0
  9
$PUCSYDIR
 10
0.0
 20
1.0
 30
0.0
  9
$USERI1
 70
     0
  9
$USERI2
 70
     0
  9
$USERI3
 70
     0
  9
$USERI4
 70
     0
  9
$USERI5
 70
     0
  9
$USERR1
 40
0.0
  9
$USERR2
 40
0.0
  9
$USERR3
 40
0.0
  9
$USERR4
 40
0.0
  9
$USERR5
 40
0.0
  9
$WORLDVIEW
 70
     1
  9
$SHADEDGE
 70
     3
  9
$SHADEDIF
 70
    70
  9
$TILEMODE
 70
     1
  9
$MAXACTVP
 70
    16
  9
$PINSBASE
 10
0.0
 20
0.0
 30
0.0
  9
$PLIMCHECK
 70
     0
  9
$PEXTMIN
 10
1.000000E+20
 20
1.000000E+20
 30
1.000000E+20
  9
$PEXTMAX
 10
-1.000000E+20
 20
-1.000000E+20
 30
-1.000000E+20
  9
$PLIMMIN
 10
0.0
 20
0.0
  9
$PLIMMAX
 10
12.0
 20
9.0
  9
$UNITMODE
 70
     0
  9
$VISRETAIN
 70
     0
  9
$PLINEGEN
 70
     0
  9
$PSLTSCALE
 70
     1
  9
$TREEDEPTH
 70
  3020
  9
$PICKSTYLE
 70
     1
  9
$CMLSTYLE
  2
STANDARD
  9
$CMLJUST
 70
     0
  9
$CMLSCALE
 40
20.0
  9
$SAVEIMAGES
 70
     0
  0
ENDSEC
  0
SECTION
  2
CLASSES
  0
ENDSEC
  0
SECTION
  2
TABLES
  0
TABLE
  2
VPORT
  5
8
100
AcDbSymbolTable
 70
     2
  0
VPORT
  5
2CA3
100
AcDbSymbolTableRecord
100
AcDbViewportTableRecord
  2
*ACTIVE
 70
     0
 10
0.0
 20
0.0
 11
1.0
 21
1.0
 12
-2535.063563
 22
-1349.097219
 13
0.0
 23
0.0
 14
10.0
 24
10.0
 15
10.0
 25
10.0
 16
0.0
 26
0.0
 36
1.0
 17
0.0
 27
0.0
 37
0.0
 40
152.907779
 41
1.563011
 42
50.0
 43
0.0
 44
0.0
 50
0.0
 51
0.0
 71
     0
 72
   100
 73
     1
 74
     0
 75
     0
 76
     1
 77
     0
 78
     0
  0
ENDTAB
  0
TABLE
  2
LTYPE
  5
5
100
AcDbSymbolTable
 70
     5
  0
LTYPE
  5
13
100
AcDbSymbolTableRecord
100
AcDbLinetypeTableRecord
  2
BYBLOCK
 70
     0
  3

 72
    65
 73
     0
 40
0.0
  0
LTYPE
  5
14
100
AcDbSymbolTableRecord
100
AcDbLinetypeTableRecord
  2
BYLAYER
 70
     0
  3

 72
    65
 73
     0
 40
0.0
  0
LTYPE
  5
15
100
AcDbSymbolTableRecord
100
AcDbLinetypeTableRecord
  2
CONTINUOUS
 70
    64
  3
Solid line
 72
    65
 73
     0
 40
0.0
  0
LTYPE
  5
94
100
AcDbSymbolTableRecord
100
AcDbLinetypeTableRecord
  2
ACAD_ISO04W100
 70
    64
  3
____ . ____ . ____ . ____ . ____ . ____ . ____ 
 72
    65
 73
     4
 40
30.5
 49
24.0
 74
     0
 49
-3.0
 74
     0
 49
0.5
 74
     0
 49
-3.0
 74
     0
  0
LTYPE
  5
225
100
AcDbSymbolTableRecord
100
AcDbLinetypeTableRecord
  2
TRATTEGGIATAX2
 70
    64
  3
____  ____  ____  ____  ____  ____  ____  ____ 
 72
    65
 73
     2
 40
1.5
 49
1.0
 74
     0
 49
-0.5
 74
     0
  0
LTYPE
  5
226
100
AcDbSymbolTableRecord
100
AcDbLinetypeTableRecord
  2
NASCOSTA
 70
    64
  3
__ __ __ __ __ __ __ __ __ __ __ __ __ __ __ __
 72
    65
 73
     2
 40
0.375
 49
0.25
 74
     0
 49
-0.125
 74
     0
  0
LTYPE
  5
2C2A
100
AcDbSymbolTableRecord
100
AcDbLinetypeTableRecord
  2
CENTER
 70
    64
  3
____ _ ____ _
 72
    65
 73
     4
 40
5.263158
 49
3.289474
 74
     0
 49
-0.657895
 74
     0
 49
0.657895
 74
     0
 49
-0.657895
 74
     0
  0
ENDTAB
  0
TABLE
  2
LAYER
  5
2
100
AcDbSymbolTable
 70
    12
  0
LAYER
  5
F
100
AcDbSymbolTableRecord
100
AcDbLayerTableRecord
  2
0
 70
     0
 62
     7
  6
CONTINUOUS
  0
LAYER
  5
95
100
AcDbSymbolTableRecord
100
AcDbLayerTableRecord
  2
DISEGNO
 70
    64
 62
     7
  6
CONTINUOUS
  0
LAYER
  5
96
100
AcDbSymbolTableRecord
100
AcDbLayerTableRecord
  2
ASSI
 70
    64
 62
     1
  6
ACAD_ISO04W100
  0
LAYER
  5
97
100
AcDbSymbolTableRecord
100
AcDbLayerTableRecord
  2
SEZIONE
 70
    64
 62
     3
  6
CONTINUOUS
  0
LAYER
  5
98
100
AcDbSymbolTableRecord
100
AcDbLayerTableRecord
  2
TEMPRA
 70
    64
 62
     2
  6
CONTINUOUS
  0
LAYER
  5
99
100
AcDbSymbolTableRecord
100
AcDbLayerTableRecord
  2
QUOTE
 70
    64
 62
     5
  6
CONTINUOUS
  0
LAYER
  5
1A3
100
AcDbSymbolTableRecord
100
AcDbLayerTableRecord
  2
TRATTO
 70
    64
 62
     6
  6
NASCOSTA
  0
LAYER
  5
28A
100
AcDbSymbolTableRecord
100
AcDbLayerTableRecord
  2
DEFPOINTS
 70
    64
 62
     7
  6
CONTINUOUS
  0
LAYER
  5
4A6
100
AcDbSymbolTableRecord
100
AcDbLayerTableRecord
  2
TABELLA
 70
    64
 62
     8
  6
CONTINUOUS
  0
LAYER
  5
55B
100
AcDbSymbolTableRecord
100
AcDbLayerTableRecord
  2
MARCATURA
 70
    64
 62
   136
  6
CONTINUOUS
  0
LAYER
  5
55C
100
AcDbSymbolTableRecord
100
AcDbLayerTableRecord
  2
TESTO
 70
    64
 62
   140
  6
CONTINUOUS
  0
LAYER
  5
2A5A
100
AcDbSymbolTableRecord
100
AcDbLayerTableRecord
  2
1
 70
     0
 62
     7
  6
CONTINUOUS
  0
ENDTAB
  0
TABLE
  2
STYLE
  5
3
100
AcDbSymbolTable
 70
     2
  0
STYLE
  5
10
100
AcDbSymbolTableRecord
100
AcDbTextStyleTableRecord
  2
STANDARD
 70
    64
 40
0.0
 41
1.1
 50
0.0
 71
     0
 42
3.0
  3
D:\Programmi\AutoCAD LT\isocp.shx
  4

  0
STYLE
  5
B0
100
AcDbSymbolTableRecord
100
AcDbTextStyleTableRecord
  2
STYLE3
 70
    64
 40
0.0
 41
1.1
 50
0.0
 71
     0
 42
2.5
  3
C:\Programmi\AutoCAD LT\isocp.shx
  4

  0
ENDTAB
  0
TABLE
  2
VIEW
  5
6
100
AcDbSymbolTable
 70
     0
  0
ENDTAB
  0
TABLE
  2
UCS
  5
7
100
AcDbSymbolTable
 70
     0
  0
ENDTAB
  0
TABLE
  2
APPID
  5
9
100
AcDbSymbolTable
 70
     1
  0
APPID
  5
11
100
AcDbSymbolTableRecord
100
AcDbRegAppTableRecord
  2
ACAD
 70
     0
  0
ENDTAB
  0
TABLE
  2
DIMSTYLE
  5
A
100
AcDbSymbolTable
 70
    24
  0
DIMSTYLE
105
1D
100
AcDbSymbolTableRecord
100
AcDbDimStyleTableRecord
  2
STANDARD
 70
     0
  3

  4

  5

  6

  7

 40
1.0
 41
2.5
 42
0.625
 43
3.75
 44
1.25
 45
0.0
 46
0.0
 47
0.0
 48
0.0
140
3.5
141
2.5
142
0.0
143
0.03937
144
1.0
145
0.0
146
1.0
147
0.625
 71
     0
 72
     0
 73
     0
 74
     0
 75
     0
 76
     0
 77
     1
 78
     8
170
     0
171
     2
172
     0
173
     0
174
     0
175
     0
176
     0
177
     0
178
     0
270
     2
271
     2
272
     2
273
     2
274
     2
340
10
275
     0
280
     0
281
     0
282
     0
283
     1
284
     8
285
     0
286
     0
287
     3
288
     0
  0
DIMSTYLE
105
234
100
AcDbSymbolTableRecord
100
AcDbDimStyleTableRecord
  2
TOLL-04
 70
     0
  3

  4

  5

  6

  7

 40
1.0
 41
2.5
 42
0.625
 43
3.75
 44
1.25
 45
0.0
 46
0.0
 47
0.02
 48
0.02
140
3.5
141
2.5
142
0.0
143
0.03937
144
1.0
145
0.0
146
0.8
147
0.625
 71
     1
 72
     0
 73
     0
 74
     0
 75
     0
 76
     0
 77
     1
 78
     8
170
     0
171
     2
172
     0
173
     0
174
     0
175
     0
176
     0
177
     0
178
     0
270
     2
271
     2
272
     2
273
     2
274
     2
340
10
275
     0
280
     0
281
     0
282
     0
283
     2
284
     8
285
     0
286
     0
287
     3
288
     0
  0
DIMSTYLE
105
4A7
100
AcDbSymbolTableRecord
100
AcDbDimStyleTableRecord
  2
ISO-25
 70
     0
  3

  4

  5

  6

  7

 40
1.0
 41
2.5
 42
0.625
 43
3.75
 44
1.25
 45
0.0
 46
0.0
 47
0.0
 48
0.0
140
2.5
141
2.5
142
0.0
143
0.0394
144
1.0
145
1.0
146
1.0
147
0.625
 71
     0
 72
     0
 73
     1
 74
     0
 75
     0
 76
     0
 77
     1
 78
     8
170
     0
171
     2
172
     1
173
     0
174
     0
175
     0
176
     0
177
     0
178
     0
270
     2
271
     4
272
     4
273
     2
274
     2
340
10
275
     0
280
     0
281
     0
282
     0
283
     1
284
     0
285
     0
286
     0
287
     3
288
     0
  0
DIMSTYLE
105
574
100
AcDbSymbolTableRecord
100
AcDbDimStyleTableRecord
  2
TOLL-01
 70
     0
  3

  4

  5

  6

  7

 40
1.0
 41
2.5
 42
0.625
 43
3.75
 44
1.25
 45
0.0
 46
0.0
 47
0.01
 48
0.01
140
3.5
141
2.5
142
0.0
143
0.03937
144
1.0
145
0.0
146
0.8
147
0.625
 71
     1
 72
     0
 73
     0
 74
     0
 75
     0
 76
     0
 77
     1
 78
     8
170
     0
171
     2
172
     0
173
     0
174
     0
175
     0
176
     0
177
     0
178
     0
270
     2
271
     2
272
     2
273
     2
274
     2
340
10
275
     0
280
     0
281
     0
282
     0
283
     2
284
     8
285
     0
286
     0
287
     3
288
     0
  0
DIMSTYLE
105
575
100
AcDbSymbolTableRecord
100
AcDbDimStyleTableRecord
  2
TOLL-02
 70
     0
  3

  4

  5

  6

  7

 40
1.0
 41
2.5
 42
0.625
 43
3.75
 44
1.25
 45
0.0
 46
0.0
 47
0.01
 48
0.0
140
3.5
141
2.5
142
0.0
143
0.03937
144
1.0
145
0.0
146
0.8
147
0.625
 71
     1
 72
     0
 73
     0
 74
     0
 75
     0
 76
     0
 77
     1
 78
     8
170
     0
171
     2
172
     0
173
     0
174
     0
175
     0
176
     0
177
     0
178
     0
270
     2
271
     2
272
     2
273
     2
274
     2
340
10
275
     0
280
     0
281
     0
282
     0
283
     2
284
     8
285
     0
286
     0
287
     3
288
     0
  0
DIMSTYLE
105
576
100
AcDbSymbolTableRecord
100
AcDbDimStyleTableRecord
  2
TOLL-03
 70
     0
  3

  4

  5

  6

  7

 40
1.0
 41
2.5
 42
0.625
 43
3.75
 44
1.25
 45
0.0
 46
0.0
 47
-0.01
 48
0.0
140
3.5
141
2.5
142
0.0
143
0.03937
144
1.0
145
0.0
146
0.8
147
0.625
 71
     1
 72
     0
 73
     0
 74
     0
 75
     0
 76
     0
 77
     1
 78
     8
170
     0
171
     2
172
     0
173
     0
174
     0
175
     0
176
     0
177
     0
178
     0
270
     2
271
     2
272
     2
273
     2
274
     2
340
10
275
     0
280
     0
281
     0
282
     0
283
     2
284
     8
285
     0
286
     0
287
     3
288
     0
  0
DIMSTYLE
105
577
100
AcDbSymbolTableRecord
100
AcDbDimStyleTableRecord
  2
TOLL-05
 70
     0
  3

  4

  5

  6

  7

 40
1.0
 41
2.5
 42
0.625
 43
3.75
 44
1.25
 45
0.0
 46
0.0
 47
0.02
 48
0.0
140
3.5
141
2.5
142
0.0
143
0.03937
144
1.0
145
0.0
146
0.8
147
0.625
 71
     1
 72
     0
 73
     0
 74
     0
 75
     0
 76
     0
 77
     1
 78
     8
170
     0
171
     2
172
     0
173
     0
174
     0
175
     0
176
     0
177
     0
178
     0
270
     2
271
     2
272
     2
273
     2
274
     2
340
10
275
     0
280
     0
281
     0
282
     0
283
     2
284
     8
285
     0
286
     0
287
     3
288
     0
  0
DIMSTYLE
105
578
100
AcDbSymbolTableRecord
100
AcDbDimStyleTableRecord
  2
TOLL-06
 70
     0
  3

  4

  5

  6

  7

 40
1.0
 41
2.5
 42
0.625
 43
3.75
 44
1.25
 45
0.0
 46
0.0
 47
-0.02
 48
0.0
140
3.5
141
2.5
142
0.0
143
0.03937
144
1.0
145
0.0
146
0.8
147
0.625
 71
     1
 72
     0
 73
     0
 74
     0
 75
     0
 76
     0
 77
     1
 78
     8
170
     0
171
     2
172
     0
173
     0
174
     0
175
     0
176
     0
177
     0
178
     0
270
     2
271
     2
272
     2
273
     2
274
     2
340
10
275
     0
280
     0
281
     0
282
     0
283
     2
284
     8
285
     0
286
     0
287
     3
288
     0
  0
DIMSTYLE
105
579
100
AcDbSymbolTableRecord
100
AcDbDimStyleTableRecord
  2
TOLL-07
 70
     0
  3

  4

  5

  6

  7

 40
1.0
 41
2.5
 42
0.625
 43
3.75
 44
1.25
 45
0.0
 46
0.0
 47
0.05
 48
0.05
140
3.5
141
2.5
142
0.0
143
0.03937
144
1.0
145
0.0
146
0.8
147
0.625
 71
     1
 72
     0
 73
     0
 74
     0
 75
     0
 76
     0
 77
     1
 78
     8
170
     0
171
     2
172
     0
173
     0
174
     0
175
     0
176
     0
177
     0
178
     0
270
     2
271
     2
272
     2
273
     2
274
     2
340
10
275
     0
280
     0
281
     0
282
     0
283
     2
284
     8
285
     0
286
     0
287
     3
288
     0
  0
DIMSTYLE
105
57A
100
AcDbSymbolTableRecord
100
AcDbDimStyleTableRecord
  2
TOLL-08
 70
     0
  3

  4

  5

  6

  7

 40
1.0
 41
2.5
 42
0.625
 43
3.75
 44
1.25
 45
0.0
 46
0.0
 47
0.05
 48
0.0
140
3.5
141
2.5
142
0.0
143
0.03937
144
1.0
145
0.0
146
0.8
147
0.625
 71
     1
 72
     0
 73
     0
 74
     0
 75
     0
 76
     0
 77
     1
 78
     8
170
     0
171
     2
172
     0
173
     0
174
     0
175
     0
176
     0
177
     0
178
     0
270
     2
271
     2
272
     2
273
     2
274
     2
340
10
275
     0
280
     0
281
     0
282
     0
283
     2
284
     8
285
     0
286
     0
287
     3
288
     0
  0
DIMSTYLE
105
57B
100
AcDbSymbolTableRecord
100
AcDbDimStyleTableRecord
  2
TOLL-09
 70
     0
  3

  4

  5

  6

  7

 40
1.0
 41
2.5
 42
0.625
 43
3.75
 44
1.25
 45
0.0
 46
0.0
 47
-0.05
 48
0.0
140
3.5
141
2.5
142
0.0
143
0.03937
144
1.0
145
0.0
146
0.8
147
0.625
 71
     1
 72
     0
 73
     0
 74
     0
 75
     0
 76
     0
 77
     1
 78
     8
170
     0
171
     2
172
     0
173
     0
174
     0
175
     0
176
     0
177
     0
178
     0
270
     2
271
     2
272
     2
273
     2
274
     2
340
10
275
     0
280
     0
281
     0
282
     0
283
     2
284
     8
285
     0
286
     0
287
     3
288
     0
  0
DIMSTYLE
105
57C
100
AcDbSymbolTableRecord
100
AcDbDimStyleTableRecord
  2
TOLL-10
 70
     0
  3

  4

  5

  6

  7

 40
1.0
 41
2.5
 42
0.625
 43
3.75
 44
1.25
 45
0.0
 46
0.0
 47
0.1
 48
0.1
140
3.5
141
2.5
142
0.0
143
0.03937
144
1.0
145
0.0
146
0.8
147
0.625
 71
     1
 72
     0
 73
     0
 74
     0
 75
     0
 76
     0
 77
     1
 78
     8
170
     0
171
     2
172
     0
173
     0
174
     0
175
     0
176
     0
177
     0
178
     0
270
     2
271
     2
272
     2
273
     2
274
     2
340
10
275
     0
280
     0
281
     0
282
     0
283
     2
284
     8
285
     0
286
     0
287
     3
288
     0
  0
DIMSTYLE
105
57D
100
AcDbSymbolTableRecord
100
AcDbDimStyleTableRecord
  2
TOLL-11
 70
     0
  3

  4

  5

  6

  7

 40
1.0
 41
2.5
 42
0.625
 43
3.75
 44
1.25
 45
0.0
 46
0.0
 47
0.1
 48
0.0
140
3.5
141
2.5
142
0.0
143
0.03937
144
1.0
145
0.0
146
0.8
147
0.625
 71
     1
 72
     0
 73
     0
 74
     0
 75
     0
 76
     0
 77
     1
 78
     8
170
     0
171
     2
172
     0
173
     0
174
     0
175
     0
176
     0
177
     0
178
     0
270
     2
271
     2
272
     2
273
     2
274
     2
340
10
275
     0
280
     0
281
     0
282
     0
283
     2
284
     8
285
     0
286
     0
287
     3
288
     0
  0
DIMSTYLE
105
57E
100
AcDbSymbolTableRecord
100
AcDbDimStyleTableRecord
  2
TOLL-12
 70
     0
  3

  4

  5

  6

  7

 40
1.0
 41
2.5
 42
0.625
 43
3.75
 44
1.25
 45
0.0
 46
0.0
 47
-0.1
 48
0.0
140
3.5
141
2.5
142
0.0
143
0.03937
144
1.0
145
0.0
146
0.8
147
0.625
 71
     1
 72
     0
 73
     0
 74
     0
 75
     0
 76
     0
 77
     1
 78
     8
170
     0
171
     2
172
     0
173
     0
174
     0
175
     0
176
     0
177
     0
178
     0
270
     2
271
     2
272
     2
273
     2
274
     2
340
10
275
     0
280
     0
281
     0
282
     0
283
     2
284
     8
285
     0
286
     0
287
     3
288
     0
  0
DIMSTYLE
105
57F
100
AcDbSymbolTableRecord
100
AcDbDimStyleTableRecord
  2
TOLL-13
 70
     0
  3

  4

  5

  6

  7

 40
1.0
 41
2.5
 42
0.625
 43
3.75
 44
1.25
 45
0.0
 46
0.0
 47
0.2
 48
0.2
140
3.5
141
2.5
142
0.0
143
0.03937
144
1.0
145
0.0
146
0.8
147
0.625
 71
     1
 72
     0
 73
     0
 74
     0
 75
     0
 76
     0
 77
     1
 78
     8
170
     0
171
     2
172
     0
173
     0
174
     0
175
     0
176
     0
177
     0
178
     0
270
     2
271
     2
272
     2
273
     2
274
     2
340
10
275
     0
280
     0
281
     0
282
     0
283
     2
284
     8
285
     0
286
     0
287
     3
288
     0
  0
DIMSTYLE
105
580
100
AcDbSymbolTableRecord
100
AcDbDimStyleTableRecord
  2
TOLL-14
 70
     0
  3

  4

  5

  6

  7

 40
1.0
 41
2.5
 42
0.625
 43
3.75
 44
1.25
 45
0.0
 46
0.0
 47
0.2
 48
0.0
140
3.5
141
2.5
142
0.0
143
0.03937
144
1.0
145
0.0
146
0.8
147
0.625
 71
     1
 72
     0
 73
     0
 74
     0
 75
     0
 76
     0
 77
     1
 78
     8
170
     0
171
     2
172
     0
173
     0
174
     0
175
     0
176
     0
177
     0
178
     0
270
     2
271
     2
272
     2
273
     2
274
     2
340
10
275
     0
280
     0
281
     0
282
     0
283
     2
284
     8
285
     0
286
     0
287
     3
288
     0
  0
DIMSTYLE
105
581
100
AcDbSymbolTableRecord
100
AcDbDimStyleTableRecord
  2
TOLL-15
 70
     0
  3

  4

  5

  6

  7

 40
1.0
 41
2.5
 42
0.625
 43
3.75
 44
1.25
 45
0.0
 46
0.0
 47
-0.2
 48
0.0
140
3.5
141
2.5
142
0.0
143
0.03937
144
1.0
145
0.0
146
0.8
147
0.625
 71
     1
 72
     0
 73
     0
 74
     0
 75
     0
 76
     0
 77
     1
 78
     8
170
     0
171
     2
172
     0
173
     0
174
     0
175
     0
176
     0
177
     0
178
     0
270
     2
271
     2
272
     2
273
     2
274
     2
340
10
275
     0
280
     0
281
     0
282
     0
283
     2
284
     8
285
     0
286
     0
287
     3
288
     0
  0
DIMSTYLE
105
582
100
AcDbSymbolTableRecord
100
AcDbDimStyleTableRecord
  2
TOLL-16
 70
     0
  3

  4

  5

  6

  7

 40
1.0
 41
2.5
 42
0.625
 43
3.75
 44
1.25
 45
0.0
 46
0.0
 47
0.5
 48
0.5
140
3.5
141
2.5
142
0.0
143
0.03937
144
1.0
145
0.0
146
0.8
147
0.625
 71
     1
 72
     0
 73
     0
 74
     0
 75
     0
 76
     0
 77
     1
 78
     8
170
     0
171
     2
172
     0
173
     0
174
     0
175
     0
176
     0
177
     0
178
     0
270
     2
271
     2
272
     2
273
     2
274
     2
340
10
275
     0
280
     0
281
     0
282
     0
283
     2
284
     8
285
     0
286
     0
287
     3
288
     0
  0
DIMSTYLE
105
583
100
AcDbSymbolTableRecord
100
AcDbDimStyleTableRecord
  2
TOLL-17
 70
     0
  3

  4

  5

  6

  7

 40
1.0
 41
2.5
 42
0.625
 43
3.75
 44
1.25
 45
0.0
 46
0.0
 47
0.5
 48
0.0
140
3.5
141
2.5
142
0.0
143
0.03937
144
1.0
145
0.0
146
0.8
147
0.625
 71
     1
 72
     0
 73
     0
 74
     0
 75
     0
 76
     0
 77
     1
 78
     8
170
     0
171
     2
172
     0
173
     0
174
     0
175
     0
176
     0
177
     0
178
     0
270
     2
271
     2
272
     2
273
     2
274
     2
340
10
275
     0
280
     0
281
     0
282
     0
283
     2
284
     8
285
     0
286
     0
287
     3
288
     0
  0
DIMSTYLE
105
584
100
AcDbSymbolTableRecord
100
AcDbDimStyleTableRecord
  2
TOLL-18
 70
     0
  3

  4

  5

  6

  7

 40
1.0
 41
2.5
 42
0.625
 43
3.75
 44
1.25
 45
0.0
 46
0.0
 47
-0.5
 48
0.0
140
3.5
141
2.5
142
0.0
143
0.03937
144
1.0
145
0.0
146
0.8
147
0.625
 71
     1
 72
     0
 73
     0
 74
     0
 75
     0
 76
     0
 77
     1
 78
     8
170
     0
171
     2
172
     0
173
     0
174
     0
175
     0
176
     0
177
     0
178
     0
270
     2
271
     2
272
     2
273
     2
274
     2
340
10
275
     0
280
     0
281
     0
282
     0
283
     2
284
     8
285
     0
286
     0
287
     3
288
     0
  0
DIMSTYLE
105
585
100
AcDbSymbolTableRecord
100
AcDbDimStyleTableRecord
  2
TOLL-19
 70
     0
  3

  4

  5

  6

  7

 40
1.0
 41
2.5
 42
0.625
 43
3.75
 44
1.25
 45
0.0
 46
0.0
 47
0.16
 48
0.0
140
3.5
141
2.5
142
0.0
143
0.03937
144
1.0
145
0.0
146
0.8
147
0.625
 71
     1
 72
     0
 73
     0
 74
     0
 75
     0
 76
     0
 77
     1
 78
     8
170
     0
171
     2
172
     0
173
     0
174
     0
175
     0
176
     0
177
     0
178
     0
270
     2
271
     0
272
     2
273
     2
274
     2
340
10
275
     1
280
     0
281
     0
282
     0
283
     2
284
     8
285
     0
286
     0
287
     3
288
     0
  0
DIMSTYLE
105
5E5
100
AcDbSymbolTableRecord
100
AcDbDimStyleTableRecord
  2
TOLL-20
 70
     0
  3

  4

  5

  6

  7

 40
1.0
 41
2.5
 42
0.625
 43
3.75
 44
1.25
 45
0.0
 46
0.0
 47
-0.16
 48
-0.16
140
3.5
141
2.5
142
0.0
143
0.03937
144
1.0
145
0.0
146
0.8
147
0.625
 71
     1
 72
     0
 73
     0
 74
     0
 75
     0
 76
     0
 77
     1
 78
     8
170
     0
171
     2
172
     0
173
     0
174
     0
175
     0
176
     0
177
     0
178
     0
270
     2
271
     0
272
     2
273
     2
274
     2
340
10
275
     1
280
     0
281
     0
282
     0
283
     2
284
     8
285
     0
286
     0
287
     3
288
     0
  0
DIMSTYLE
105
5E6
100
AcDbSymbolTableRecord
100
AcDbDimStyleTableRecord
  2
TOLL-21
 70
     0
  3

  4

  5

  6

  7

 40
1.0
 41
2.5
 42
0.625
 43
3.75
 44
1.25
 45
0.0
 46
0.0
 47
0.033
 48
0.0
140
3.5
141
2.5
142
0.0
143
0.03937
144
1.0
145
0.0
146
0.8
147
0.625
 71
     1
 72
     0
 73
     0
 74
     0
 75
     0
 76
     0
 77
     1
 78
     8
170
     0
171
     2
172
     0
173
     0
174
     0
175
     0
176
     0
177
     0
178
     0
270
     2
271
     0
272
     2
273
     2
274
     2
340
10
275
     1
280
     0
281
     0
282
     0
283
     2
284
     8
285
     0
286
     0
287
     3
288
     0
  0
DIMSTYLE
105
60E
100
AcDbSymbolTableRecord
100
AcDbDimStyleTableRecord
  2
TOLL-22
 70
     0
  3

  4

  5

  6

  7

 40
1.0
 41
2.5
 42
0.625
 43
3.75
 44
1.25
 45
0.0
 46
0.0
 47
-0.033
 48
0.0
140
3.5
141
2.5
142
0.0
143
0.03937
144
1.0
145
0.0
146
0.8
147
0.625
 71
     1
 72
     0
 73
     0
 74
     0
 75
     0
 76
     0
 77
     1
 78
     8
170
     0
171
     2
172
     0
173
     0
174
     0
175
     0
176
     0
177
     0
178
     0
270
     2
271
     0
272
     2
273
     2
274
     2
340
10
275
     1
280
     0
281
     0
282
     0
283
     2
284
     8
285
     0
286
     0
287
     3
288
     0
  0
ENDTAB
  0
TABLE
  2
BLOCK_RECORD
  5
1
100
AcDbSymbolTable
 70
    15
  0
BLOCK_RECORD
  5
19
100
AcDbSymbolTableRecord
100
AcDbBlockTableRecord
  2
*MODEL_SPACE
  0
BLOCK_RECORD
  5
16
100
AcDbSymbolTableRecord
100
AcDbBlockTableRecord
  2
*PAPER_SPACE
  0
BLOCK_RECORD
  5
3A2
100
AcDbSymbolTableRecord
100
AcDbBlockTableRecord
  2
RUGOSITA
  0
BLOCK_RECORD
  5
4A8
100
AcDbSymbolTableRecord
100
AcDbBlockTableRecord
  2
A$C52B2
  0
BLOCK_RECORD
  5
783
100
AcDbSymbolTableRecord
100
AcDbBlockTableRecord
  2
A$C7134
  0
BLOCK_RECORD
  5
88D
100
AcDbSymbolTableRecord
100
AcDbBlockTableRecord
  2
A$CD0B2
  0
BLOCK_RECORD
  5
916
100
AcDbSymbolTableRecord
100
AcDbBlockTableRecord
  2
A$CD226
  0
BLOCK_RECORD
  5
997
100
AcDbSymbolTableRecord
100
AcDbBlockTableRecord
  2
A$CD363
  0
BLOCK_RECORD
  5
208E
100
AcDbSymbolTableRecord
100
AcDbBlockTableRecord
  2
A$CA330
  0
BLOCK_RECORD
  5
2A5B
100
AcDbSymbolTableRecord
100
AcDbBlockTableRecord
  2
A$C5161
  0
BLOCK_RECORD
  5
2C2B
100
AcDbSymbolTableRecord
100
AcDbBlockTableRecord
  2
A$C2343
  0
BLOCK_RECORD
  5
2C5D
100
AcDbSymbolTableRecord
100
AcDbBlockTableRecord
  2
A$C72A2
  0
BLOCK_RECORD
  5
2C6D
100
AcDbSymbolTableRecord
100
AcDbBlockTableRecord
  2
*D12
  0
BLOCK_RECORD
  5
2C7A
100
AcDbSymbolTableRecord
100
AcDbBlockTableRecord
  2
*D13
  0
BLOCK_RECORD
  5
2C87
100
AcDbSymbolTableRecord
100
AcDbBlockTableRecord
  2
*D14
  0
ENDTAB
  0
ENDSEC
  0
SECTION
  2
BLOCKS
  0
BLOCK
  5
1A
100
AcDbEntity
  8
0
100
AcDbBlockBegin
  2
*MODEL_SPACE
 70
     0
 10
0.0
 20
0.0
 30
0.0
  3
*MODEL_SPACE
  1

  0
ENDBLK
  5
1B
100
AcDbEntity
  8
0
100
AcDbBlockEnd
  0
BLOCK
  5
17
100
AcDbEntity
 67
     1
  8
0
100
AcDbBlockBegin
  2
*PAPER_SPACE
 70
     0
 10
0.0
 20
0.0
 30
0.0
  3
*PAPER_SPACE
  1

  0
ENDBLK
  5
18
100
AcDbEntity
 67
     1
  8
0
100
AcDbBlockEnd
  0
BLOCK
  5
3A7
100
AcDbEntity
  8
DISEGNO
100
AcDbBlockBegin
  2
RUGOSITA
 70
     2
 10
0.0
 20
0.0
 30
0.0
  3
RUGOSITA
  1

  0
ATTDEF
  5
3A3
100
AcDbEntity
  8
QUOTE
100
AcDbText
 10
-1.071886
 20
3.214106
 30
0.0
 40
1.5
  1
0.8
100
AcDbAttributeDefinition
  3
CHE RUGOSITA ?
  2
RUGOSITA
 70
     0
  0
LINE
  5
3A4
100
AcDbEntity
  8
QUOTE
100
AcDbLine
 10
0.0
 20
0.0
 30
0.0
 11
4.0
 21
6.928203
 31
0.0
  0
LINE
  5
3A5
100
AcDbEntity
  8
QUOTE
100
AcDbLine
 10
0.0
 20
0.0
 30
0.0
 11
-1.75
 21
3.031089
 31
0.0
  0
LINE
  5
3A6
100
AcDbEntity
  8
QUOTE
100
AcDbLine
 10
-1.75
 20
3.031089
 30
0.0
 11
1.75
 21
3.031089
 31
0.0
  0
ENDBLK
  5
3A8
100
AcDbEntity
  8
DISEGNO
100
AcDbBlockEnd
  0
BLOCK
  5
547
100
AcDbEntity
  8
QUOTE
100
AcDbBlockBegin
  2
A$C52B2
 70
     0
 10
0.0
 20
0.0
 30
0.0
  3
A$C52B2
  1

  0
LINE
  5
4A9
100
AcDbEntity
  8
TABELLA
  6
CONTINUOUS
100
AcDbLine
 10
100.781064
 20
5.387067
 30
0.0
 11
103.281064
 21
0.387067
 31
0.0
  0
LINE
  5
4AA
100
AcDbEntity
  8
TABELLA
  6
CONTINUOUS
100
AcDbLine
 10
100.781064
 20
0.387067
 30
0.0
 11
103.281064
 21
0.387067
 31
0.0
  0
LINE
  5
4AB
100
AcDbEntity
  8
TABELLA
  6
CONTINUOUS
100
AcDbLine
 10
103.281064
 20
287.387067
 30
0.0
 11
100.781064
 21
282.387067
 31
0.0
  0
LINE
  5
4AC
100
AcDbEntity
  8
TABELLA
  6
CONTINUOUS
100
AcDbLine
 10
100.781064
 20
287.387067
 30
0.0
 11
103.281064
 21
287.387067
 31
0.0
  0
TEXT
  5
4AD
100
AcDbEntity
  8
TABELLA
  6
CONTINUOUS
100
AcDbText
 10
83.891226
 20
14.123583
 30
0.0
 40
6.0
  1
ROLLERI
100
AcDbText
  0
LINE
  5
4AE
100
AcDbEntity
  8
TABELLA
  6
CONTINUOUS
100
AcDbLine
 10
115.706968
 20
22.612261
 30
0.0
 11
84.107383
 21
22.612261
 31
0.0
1001
ACAD
1000
ASC_BOUNDS
1002
{
1070
    19
1002
}
  0
LINE
  5
4AF
100
AcDbEntity
  8
TABELLA
  6
CONTINUOUS
100
AcDbLine
 10
82.055262
 20
11.456564
 30
0.0
 11
113.654847
 21
11.456564
 31
0.0
1001
ACAD
1000
ASC_BOUNDS
1002
{
1070
    19
1002
}
  0
LINE
  5
4B0
100
AcDbEntity
  8
TABELLA
  6
CONTINUOUS
100
AcDbLine
 10
116.407176
 20
23.612261
 30
0.0
 11
83.407176
 21
23.612261
 31
0.0
1001
ACAD
1000
ASC_BOUNDS
1002
{
1070
    19
1002
}
  0
LINE
  5
4B1
100
AcDbEntity
  8
TABELLA
  6
CONTINUOUS
100
AcDbLine
 10
81.355055
 20
10.456564
 30
0.0
 11
114.355055
 21
10.456564
 31
0.0
1001
ACAD
1000
ASC_BOUNDS
1002
{
1070
    19
1002
}
  0
TEXT
  5
4B2
100
AcDbEntity
  8
TABELLA
  6
CONTINUOUS
100
AcDbText
 10
79.770815
 20
6.679292
 30
0.0
 40
2.0
  1
Vigolzone ( Piacenza ) - ITALIA
100
AcDbText
  0
LINE
  5
4B3
100
AcDbEntity
  8
TABELLA
  6
CONTINUOUS
100
AcDbLine
 10
125.782064
 20
35.387067
 30
0.0
 11
75.782064
 21
35.387067
 31
0.0
  0
LINE
  5
4B4
100
AcDbEntity
  8
TABELLA
  6
CONTINUOUS
100
AcDbLine
 10
195.782064
 20
45.387067
 30
0.0
 11
5.697058
 21
45.395351
 31
0.0
  0
LINE
  5
4B5
100
AcDbEntity
  8
TABELLA
  6
CONTINUOUS
100
AcDbLine
 10
125.782064
 20
25.387067
 30
0.0
 11
75.782064
 21
25.387067
 31
0.0
  0
LINE
  5
4B6
100
AcDbEntity
  8
TABELLA
  6
CONTINUOUS
100
AcDbLine
 10
195.782064
 20
5.387067
 30
0.0
 11
5.782064
 21
5.387067
 31
0.0
  0
LINE
  5
4B7
100
AcDbEntity
  8
TABELLA
  6
CONTINUOUS
100
AcDbLine
 10
5.782064
 20
282.387067
 30
0.0
 11
195.782064
 21
282.387067
 31
0.0
  0
LINE
  5
4B8
100
AcDbEntity
  8
TABELLA
  6
CONTINUOUS
100
AcDbLine
 10
5.782064
 20
143.887067
 30
0.0
 11
0.782064
 21
141.387067
 31
0.0
  0
LINE
  5
4B9
100
AcDbEntity
  8
TABELLA
  6
CONTINUOUS
100
AcDbLine
 10
0.782064
 20
143.887067
 30
0.0
 11
0.782064
 21
141.387067
 31
0.0
  0
LINE
  5
4BA
100
AcDbEntity
  8
TABELLA
  6
CONTINUOUS
100
AcDbLine
 10
5.782064
 20
5.387067
 30
0.0
 11
5.782064
 21
282.387067
 31
0.0
  0
POLYLINE
  5
4BB
100
AcDbEntity
  8
QUOTE
100
AcDb2dPolyline
 66
     1
 10
0.0
 20
0.0
 30
0.0
 70
     1
  0
VERTEX
  5
4BC
100
AcDbEntity
  8
QUOTE
100
AcDbVertex
100
AcDb2dVertex
 10
11.507487
 20
62.582414
 30
0.0
  0
VERTEX
  5
4BD
100
AcDbEntity
  8
QUOTE
100
AcDbVertex
100
AcDb2dVertex
 10
11.507487
 20
49.867806
 30
0.0
  0
VERTEX
  5
4BE
100
AcDbEntity
  8
QUOTE
100
AcDbVertex
100
AcDb2dVertex
 10
52.626527
 20
49.867806
 30
0.0
  0
VERTEX
  5
4BF
100
AcDbEntity
  8
QUOTE
100
AcDbVertex
100
AcDb2dVertex
 10
52.626527
 20
62.582414
 30
0.0
  0
SEQEND
  5
4C0
100
AcDbEntity
  8
QUOTE
  0
TOLERANCE
  5
4C1
100
AcDbEntity
  8
QUOTE
  6
CONTINUOUS
100
AcDbFcf
  3
ISO-25
 10
30.863585
 20
54.182522
 30
0.0
  1
{\Fgdt;u}%%v0.02%%v%%v%%v%%v
1001
ACAD
1000
DSTYLE
1002
{
1070
   140
1040
2.6
1070
    47
1040
0.02
1070
    73
1070
     0
1070
   272
1070
     2
1070
   147
1040
0.53
1070
    42
1040
0.5261
1070
    44
1040
1.0522
1070
    43
1040
3.1566
1070
   271
1070
     2
1070
   141
1040
2.1044
1070
    41
1040
2.6
1002
}
  0
TEXT
  5
4C2
100
AcDbEntity
  8
QUOTE
100
AcDbText
 10
12.101072
 20
58.118453
 30
0.0
 40
2.5
  1
TOLLERANZE AL METRO
 41
1.1
100
AcDbText
  0
TEXT
  5
4C3
100
AcDbEntity
  8
TABELLA
  6
CONTINUOUS
100
AcDbText
 10
7.271803
 20
15.7314
 30
0.0
 40
2.0
  1
- Angoli su superfici lavorate = +/- 30'
100
AcDbText
  0
TEXT
  5
4C4
100
AcDbEntity
  8
TABELLA
  6
CONTINUOUS
100
AcDbText
 10
7.271803
 20
23.3314
 30
0.0
 40
2.0
  1
   da mm 151 a mm 500 = +/- 0.4
100
AcDbText
  0
TEXT
  5
4C5
100
AcDbEntity
  8
TABELLA
  6
CONTINUOUS
100
AcDbText
 10
7.271803
 20
27.1314
 30
0.0
 40
2.0
  1
   da mm 51 a mm 150 = +/- 0.3
100
AcDbText
  0
TEXT
  5
4C6
100
AcDbEntity
  8
TABELLA
  6
CONTINUOUS
100
AcDbText
 10
7.271803
 20
30.9314
 30
0.0
 40
2.0
  1
- Superfici lavorate da mm 1 a mm 50 = +/- 0.2
100
AcDbText
  0
TEXT
  5
4C7
100
AcDbEntity
  8
TABELLA
  6
CONTINUOUS
100
AcDbText
 10
7.271803
 20
34.7314
 30
0.0
 40
2.0
  1
- Parti fuse con spessori >10 mm = +/- 10%
100
AcDbText
  0
TEXT
  5
4C8
100
AcDbEntity
  8
TABELLA
  6
CONTINUOUS
100
AcDbText
 10
7.271803
 20
38.5314
 30
0.0
 40
2.0
  1
- Parti fuse con spessori <10 mm = +/- 1 mm
100
AcDbText
  0
TOLERANCE
  5
4C9
100
AcDbEntity
  8
QUOTE
  6
CONTINUOUS
100
AcDbFcf
  3
ISO-25
 10
15.305627
 20
54.182522
 30
0.0
  1
{\Fgdt;b}%%v0.02%%v%%v%%v%%v
1001
ACAD
1000
DSTYLE
1002
{
1070
   140
1040
2.6
1070
    47
1040
0.02
1070
    73
1070
     0
1070
   272
1070
     2
1070
   147
1040
0.53
1070
    42
1040
0.5261
1070
    44
1040
1.0522
1070
    43
1040
3.1566
1070
   271
1070
     2
1070
   141
1040
2.1044
1070
    41
1040
2.6
1002
}
  0
TEXT
  5
4CA
100
AcDbEntity
  8
TABELLA
  6
CONTINUOUS
100
AcDbText
 10
0.769342
 20
51.259863
 30
0.0
 40
4.0
  1
B
100
AcDbText
  0
TEXT
  5
4CB
100
AcDbEntity
  8
TABELLA
  6
CONTINUOUS
100
AcDbText
 10
0.353187
 20
15.100813
 30
0.0
 40
4.0
  1
A
100
AcDbText
  0
LINE
  5
4CC
100
AcDbEntity
  8
TABELLA
  6
CONTINUOUS
100
AcDbLine
 10
5.782064
 20
36.262067
 30
0.0
 11
0.782064
 21
36.262067
 31
0.0
  0
TEXT
  5
4CD
100
AcDbEntity
  8
TABELLA
  6
CONTINUOUS
100
AcDbText
 10
15.583223
 20
0.138446
 30
0.0
 40
4.0
  1
6
100
AcDbText
  0
LINE
  5
4CE
100
AcDbEntity
  8
TABELLA
  6
CONTINUOUS
100
AcDbLine
 10
34.115064
 20
5.387067
 30
0.0
 11
34.115064
 21
0.387067
 31
0.0
  0
TEXT
  5
4CF
100
AcDbEntity
  8
TABELLA
  6
CONTINUOUS
100
AcDbText
 10
7.271803
 20
11.9314
 30
0.0
 40
2.0
  1
- Interassi fori = +/- 0.25
100
AcDbText
  0
TEXT
  5
4D0
100
AcDbEntity
  8
TABELLA
  6
CONTINUOUS
100
AcDbText
 10
7.271803
 20
19.5314
 30
0.0
 40
2.0
  1
   oltre 500 mm = +/- 0.5
100
AcDbText
  0
TEXT
  5
4D1
100
AcDbEntity
  8
TABELLA
  6
CONTINUOUS
100
AcDbText
 10
7.271803
 20
42.3314
 30
0.0
 40
2.0
  1
TOLLERANZE GENERALI :
100
AcDbText
  0
LINE
  5
4D2
100
AcDbEntity
  8
TABELLA
  6
CONTINUOUS
100
AcDbLine
 10
5.782064
 20
72.137067
 30
0.0
 11
0.782064
 21
72.137067
 31
0.0
  0
TEXT
  5
4D3
100
AcDbEntity
  8
TABELLA
  6
CONTINUOUS
100
AcDbText
 10
0.769342
 20
87.459725
 30
0.0
 40
4.0
  1
C
100
AcDbText
  0
LINE
  5
4D4
100
AcDbEntity
  8
TABELLA
  6
CONTINUOUS
100
AcDbLine
 10
5.782064
 20
108.012067
 30
0.0
 11
0.782064
 21
108.012067
 31
0.0
  0
TEXT
  5
4D5
100
AcDbEntity
  8
TABELLA
  6
CONTINUOUS
100
AcDbText
 10
0.769342
 20
124.034397
 30
0.0
 40
4.0
  1
D
100
AcDbText
  0
LINE
  5
4D6
100
AcDbEntity
  8
TABELLA
  6
CONTINUOUS
100
AcDbLine
 10
65.792444
 20
45.394891
 30
0.0
 11
65.782064
 21
5.389662
 31
0.0
  0
TEXT
  5
4D7
100
AcDbEntity
  8
TABELLA
  6
CONTINUOUS
100
AcDbText
 10
68.438556
 20
7.454028
 30
0.0
 40
1.5
  1
A termine di legge la Rolleri si riserva la
 50
90.0
100
AcDbText
  0
TEXT
  5
4D8
100
AcDbEntity
  8
TABELLA
  6
CONTINUOUS
100
AcDbText
 10
49.29176
 20
0.138446
 30
0.0
 40
4.0
  1
5
100
AcDbText
  0
LINE
  5
4D9
100
AcDbEntity
  8
TABELLA
  6
CONTINUOUS
100
AcDbLine
 10
67.448064
 20
5.387067
 30
0.0
 11
67.448064
 21
0.387067
 31
0.0
  0
LINE
  5
4DA
100
AcDbEntity
  8
TABELLA
  6
CONTINUOUS
100
AcDbLine
 10
75.792442
 20
45.387067
 30
0.0
 11
75.792442
 21
5.387067
 31
0.0
  0
TEXT
  5
4DB
100
AcDbEntity
  8
TABELLA
  6
CONTINUOUS
100
AcDbText
 10
74.138556
 20
7.454028
 30
0.0
 40
1.5
  1
di riprodurlo e di comunicarlo a terzi.
 50
90.0
100
AcDbText
  0
TEXT
  5
4DC
100
AcDbEntity
  8
TABELLA
  6
CONTINUOUS
100
AcDbText
 10
71.288556
 20
7.454028
 30
0.0
 40
1.5
  1
proprietà di questo disegno, con divieto
 50
90.0
100
AcDbText
  0
TEXT
  5
4DD
100
AcDbEntity
  8
TABELLA
  6
CONTINUOUS
100
AcDbText
 10
83.416451
 20
0.554068
 30
0.0
 40
4.0
  1
4
100
AcDbText
  0
LINE
  5
4DE
100
AcDbEntity
  8
TABELLA
  6
CONTINUOUS
100
AcDbLine
 10
98.281064
 20
0.387067
 30
0.0
 11
100.781064
 21
5.387067
 31
0.0
  0
LINE
  5
4DF
100
AcDbEntity
  8
TABELLA
  6
CONTINUOUS
100
AcDbLine
 10
100.781064
 20
5.387067
 30
0.0
 11
100.781064
 21
0.387067
 31
0.0
  0
LINE
  5
4E0
100
AcDbEntity
  8
TABELLA
  6
CONTINUOUS
100
AcDbLine
 10
100.781064
 20
0.387067
 30
0.0
 11
98.281064
 21
0.387067
 31
0.0
  0
TEXT
  5
4E1
100
AcDbEntity
  8
TABELLA
  6
CONTINUOUS
100
AcDbText
 10
77.180326
 20
42.484843
 30
0.0
 40
2.0
  1
Materiale
100
AcDbText
  0
TEXT
  5
4E2
100
AcDbEntity
  8
TABELLA
  6
CONTINUOUS
100
AcDbText
 10
76.949018
 20
32.320687
 30
0.0
 40
2.0
  1
Disegnato da
100
AcDbText
  0
LINE
  5
4E3
100
AcDbEntity
  8
TABELLA
  6
CONTINUOUS
100
AcDbLine
 10
84.107383
 20
22.612261
 30
0.0
 11
81.051152
 21
14.215335
 31
0.0
1001
ACAD
1000
ASC_BOUNDS
1002
{
1070
    19
1002
}
  0
LINE
  5
4E4
100
AcDbEntity
  8
TABELLA
  6
CONTINUOUS
100
AcDbLine
 10
83.407176
 20
23.612261
 30
0.0
 11
79.986974
 21
14.215335
 31
0.0
1001
ACAD
1000
ASC_BOUNDS
1002
{
1070
    19
1002
}
  0
LINE
  5
4E5
100
AcDbEntity
  8
TABELLA
  6
CONTINUOUS
100
AcDbLine
 10
81.051152
 20
14.215335
 30
0.0
 11
82.055262
 21
11.456564
 31
0.0
1001
ACAD
1000
ASC_BOUNDS
1002
{
1070
    19
1002
}
  0
LINE
  5
4E6
100
AcDbEntity
  8
TABELLA
  6
CONTINUOUS
100
AcDbLine
 10
79.986974
 20
14.215335
 30
0.0
 11
81.355055
 21
10.456564
 31
0.0
1001
ACAD
1000
ASC_BOUNDS
1002
{
1070
    19
1002
}
  0
LINE
  5
4E7
100
AcDbEntity
  8
TABELLA
  6
CONTINUOUS
100
AcDbLine
 10
100.782064
 20
35.387067
 30
0.0
 11
100.782064
 21
25.387067
 31
0.0
  0
TEXT
  5
4E8
100
AcDbEntity
  8
TABELLA
  6
CONTINUOUS
100
AcDbText
 10
1.185497
 20
230.800736
 30
0.0
 40
4.0
  1
G
100
AcDbText
  0
LINE
  5
4E9
100
AcDbEntity
  8
TABELLA
  6
CONTINUOUS
100
AcDbLine
 10
0.782064
 20
146.387067
 30
0.0
 11
5.782064
 21
143.887067
 31
0.0
  0
LINE
  5
4EA
100
AcDbEntity
  8
TABELLA
  6
CONTINUOUS
100
AcDbLine
 10
5.782064
 20
143.887067
 30
0.0
 11
0.782064
 21
143.887067
 31
0.0
  0
LINE
  5
4EB
100
AcDbEntity
  8
TABELLA
  6
CONTINUOUS
100
AcDbLine
 10
0.782064
 20
143.887067
 30
0.0
 11
0.782064
 21
146.387067
 31
0.0
  0
TEXT
  5
4EC
100
AcDbEntity
  8
TABELLA
  6
CONTINUOUS
100
AcDbText
 10
1.601651
 20
158.319393
 30
0.0
 40
4.0
  1
E
100
AcDbText
  0
LINE
  5
4ED
100
AcDbEntity
  8
TABELLA
  6
CONTINUOUS
100
AcDbLine
 10
5.782064
 20
179.762067
 30
0.0
 11
0.782064
 21
179.762067
 31
0.0
  0
TEXT
  5
4EE
100
AcDbEntity
  8
TABELLA
  6
CONTINUOUS
100
AcDbText
 10
1.185497
 20
195.309687
 30
0.0
 40
4.0
  1
F
100
AcDbText
  0
LINE
  5
4EF
100
AcDbEntity
  8
TABELLA
  6
CONTINUOUS
100
AcDbLine
 10
5.782064
 20
215.637067
 30
0.0
 11
0.782064
 21
215.637067
 31
0.0
  0
LINE
  5
4F0
100
AcDbEntity
  8
TABELLA
  6
CONTINUOUS
100
AcDbLine
 10
5.782064
 20
251.512067
 30
0.0
 11
0.782064
 21
251.512067
 31
0.0
  0
TEXT
  5
4F1
100
AcDbEntity
  8
TABELLA
  6
CONTINUOUS
100
AcDbText
 10
1.185497
 20
268.206651
 30
0.0
 40
4.0
  1
H
100
AcDbText
  0
TEXT
  5
4F2
100
AcDbEntity
  8
TABELLA
  6
CONTINUOUS
100
AcDbText
 10
15.583224
 20
283.209827
 30
0.0
 40
4.0
  1
6
100
AcDbText
  0
LINE
  5
4F3
100
AcDbEntity
  8
TABELLA
  6
CONTINUOUS
100
AcDbLine
 10
34.115064
 20
282.387067
 30
0.0
 11
34.115064
 21
287.387067
 31
0.0
  0
TEXT
  5
4F4
100
AcDbEntity
  8
TABELLA
  6
CONTINUOUS
100
AcDbText
 10
50.12407
 20
283.250638
 30
0.0
 40
4.0
  1
5
100
AcDbText
  0
LINE
  5
4F5
100
AcDbEntity
  8
TABELLA
  6
CONTINUOUS
100
AcDbLine
 10
67.448064
 20
282.387067
 30
0.0
 11
67.448064
 21
287.387067
 31
0.0
  0
TEXT
  5
4F6
100
AcDbEntity
  8
TABELLA
  6
CONTINUOUS
100
AcDbText
 10
83.832607
 20
283.250638
 30
0.0
 40
4.0
  1
4
100
AcDbText
  0
LINE
  5
4F7
100
AcDbEntity
  8
TABELLA
  6
CONTINUOUS
100
AcDbLine
 10
100.781064
 20
282.387067
 30
0.0
 11
98.281064
 21
287.387067
 31
0.0
  0
LINE
  5
4F8
100
AcDbEntity
  8
TABELLA
  6
CONTINUOUS
100
AcDbLine
 10
100.781064
 20
282.387067
 30
0.0
 11
100.781064
 21
287.387067
 31
0.0
  0
LINE
  5
4F9
100
AcDbEntity
  8
TABELLA
  6
CONTINUOUS
100
AcDbLine
 10
100.781064
 20
287.387067
 30
0.0
 11
98.281064
 21
287.387067
 31
0.0
  0
LINE
  5
4FA
100
AcDbEntity
  8
TABELLA
  6
CONTINUOUS
100
AcDbLine
 10
200.782064
 20
141.387067
 30
0.0
 11
195.782064
 21
143.887067
 31
0.0
  0
LINE
  5
4FB
100
AcDbEntity
  8
TABELLA
  6
CONTINUOUS
100
AcDbLine
 10
200.782064
 20
143.887067
 30
0.0
 11
200.782064
 21
141.387067
 31
0.0
  0
LINE
  5
4FC
100
AcDbEntity
  8
TABELLA
  6
CONTINUOUS
100
AcDbLine
 10
191.781227
 20
165.387241
 30
0.0
 11
191.781227
 21
45.387241
 31
0.0
  0
LINE
  5
4FD
100
AcDbEntity
  8
TABELLA
  6
CONTINUOUS
100
AcDbLine
 10
195.782064
 20
5.387067
 30
0.0
 11
195.782064
 21
282.387067
 31
0.0
  0
TEXT
  5
4FE
100
AcDbEntity
  8
TABELLA
  6
CONTINUOUS
100
AcDbText
 10
147.267168
 20
42.484843
 30
0.0
 40
2.0
  1
Trattamento Termico
100
AcDbText
  0
TEXT
  5
4FF
100
AcDbEntity
  8
TABELLA
  6
CONTINUOUS
100
AcDbText
 10
161.83968
 20
32.089683
 30
0.0
 40
2.0
  1
Scala
100
AcDbText
  0
TEXT
  5
500
100
AcDbEntity
  8
TABELLA
  6
CONTINUOUS
100
AcDbText
 10
162.070991
 20
12.223377
 30
0.0
 40
2.0
  1
Data
100
AcDbText
  0
LINE
  5
501
100
AcDbEntity
  8
TABELLA
  6
CONTINUOUS
100
AcDbLine
 10
125.782064
 20
35.387067
 30
0.0
 11
195.782064
 21
35.387067
 31
0.0
  0
LINE
  5
502
100
AcDbEntity
  8
TABELLA
  6
CONTINUOUS
100
AcDbLine
 10
125.782064
 20
25.387067
 30
0.0
 11
195.782064
 21
25.387067
 31
0.0
  0
LINE
  5
503
100
AcDbEntity
  8
TABELLA
  6
CONTINUOUS
100
AcDbLine
 10
120.666552
 20
15.457427
 30
0.0
 11
195.782064
 21
15.387067
 31
0.0
  0
TEXT
  5
504
100
AcDbEntity
  8
TABELLA
  6
CONTINUOUS
100
AcDbText
 10
116.965597
 20
42.484843
 30
0.0
 40
2.0
  1
Dimensioni di prelievo
100
AcDbText
  0
TEXT
  5
505
100
AcDbEntity
  8
TABELLA
  6
CONTINUOUS
100
AcDbText
 10
126.911915
 20
32.089683
 30
0.0
 40
2.0
  1
Approvato da - data
100
AcDbText
  0
TEXT
  5
506
100
AcDbEntity
  8
TABELLA
  6
CONTINUOUS
100
AcDbText
 10
121.823101
 20
22.387534
 30
0.0
 40
2.0
  1
Particolare
100
AcDbText
  0
LINE
  5
507
100
AcDbEntity
  8
TABELLA
  6
CONTINUOUS
100
AcDbLine
 10
120.782064
 20
15.387067
 30
0.0
 11
120.782064
 21
5.387067
 31
0.0
  0
TEXT
  5
508
100
AcDbEntity
  8
TABELLA
  6
CONTINUOUS
100
AcDbText
 10
116.708833
 20
0.138446
 30
0.0
 40
4.0
  1
3
100
AcDbText
  0
LINE
  5
509
100
AcDbEntity
  8
TABELLA
  6
CONTINUOUS
100
AcDbLine
 10
116.711078
 20
19.853491
 30
0.0
 11
115.706968
 21
22.612261
 31
0.0
1001
ACAD
1000
ASC_BOUNDS
1002
{
1070
    19
1002
}
  0
LINE
  5
50A
100
AcDbEntity
  8
TABELLA
  6
CONTINUOUS
100
AcDbLine
 10
113.654847
 20
11.456564
 30
0.0
 11
116.711078
 21
19.853491
 31
0.0
1001
ACAD
1000
ASC_BOUNDS
1002
{
1070
    19
1002
}
  0
LINE
  5
50B
100
AcDbEntity
  8
TABELLA
  6
CONTINUOUS
100
AcDbLine
 10
114.355055
 20
10.456564
 30
0.0
 11
117.775256
 21
19.853491
 31
0.0
1001
ACAD
1000
ASC_BOUNDS
1002
{
1070
    19
1002
}
  0
TEXT
  5
50C
100
AcDbEntity
  8
TABELLA
  6
CONTINUOUS
100
AcDbText
 10
101.930465
 20
32.089683
 30
0.0
 40
2.0
  1
Controllato da
100
AcDbText
  0
LINE
  5
50D
100
AcDbEntity
  8
TABELLA
  6
CONTINUOUS
100
AcDbLine
 10
115.782064
 20
35.387067
 30
0.0
 11
115.782064
 21
45.387067
 31
0.0
  0
LINE
  5
50E
100
AcDbEntity
  8
TABELLA
  6
CONTINUOUS
100
AcDbLine
 10
125.782064
 20
35.387067
 30
0.0
 11
125.782064
 21
25.387067
 31
0.0
  0
TEXT
  5
50F
100
AcDbEntity
  8
TABELLA
  6
CONTINUOUS
100
AcDbText
 10
121.591791
 20
12.223377
 30
0.0
 40
2.0
  1
Disegno
100
AcDbText
  0
LINE
  5
510
100
AcDbEntity
  8
TABELLA
  6
CONTINUOUS
100
AcDbLine
 10
117.775256
 20
19.853491
 30
0.0
 11
116.407176
 21
23.612261
 31
0.0
1001
ACAD
1000
ASC_BOUNDS
1002
{
1070
    19
1002
}
  0
LINE
  5
511
100
AcDbEntity
  8
TABELLA
  6
CONTINUOUS
100
AcDbLine
 10
120.782064
 20
25.387067
 30
0.0
 11
120.782064
 21
15.387067
 31
0.0
  0
LINE
  5
512
100
AcDbEntity
  8
TABELLA
  6
CONTINUOUS
100
AcDbLine
 10
160.782064
 20
15.387067
 30
0.0
 11
160.782064
 21
5.387067
 31
0.0
  0
LINE
  5
513
100
AcDbEntity
  8
TABELLA
  6
CONTINUOUS
100
AcDbLine
 10
134.114064
 20
5.387067
 30
0.0
 11
134.114064
 21
0.387067
 31
0.0
  0
TEXT
  5
514
100
AcDbEntity
  8
TABELLA
  6
CONTINUOUS
100
AcDbText
 10
150.41737
 20
0.138446
 30
0.0
 40
4.0
  1
2
100
AcDbText
  0
LINE
  5
515
100
AcDbEntity
  8
TABELLA
  6
CONTINUOUS
100
AcDbLine
 10
145.782064
 20
35.387067
 30
0.0
 11
145.782064
 21
45.387067
 31
0.0
  0
LINE
  5
516
100
AcDbEntity
  8
TABELLA
  6
CONTINUOUS
100
AcDbLine
 10
160.782064
 20
35.387067
 30
0.0
 11
160.782064
 21
25.387067
 31
0.0
  0
TEXT
  5
517
100
AcDbEntity
  8
TABELLA
  6
CONTINUOUS
100
AcDbText
 10
197.026704
 20
51.259863
 30
0.0
 40
4.0
  1
B
100
AcDbText
  0
TEXT
  5
518
100
AcDbEntity
  8
TABELLA
  6
CONTINUOUS
100
AcDbText
 10
195.001816
 20
46.303578
 30
0.0
 40
2.0
  1
N° rev.
 50
90.0
100
AcDbText
  0
LINE
  5
519
100
AcDbEntity
  8
TABELLA
  6
CONTINUOUS
100
AcDbLine
 10
176.747411
 20
30.474182
 30
0.0
 11
194.673913
 21
30.474182
 31
0.0
  0
LINE
  5
51A
100
AcDbEntity
  8
TABELLA
  6
CONTINUOUS
100
AcDbLine
 10
180.782064
 20
15.387067
 30
0.0
 11
180.782064
 21
5.387067
 31
0.0
  0
LINE
  5
51B
100
AcDbEntity
  8
TABELLA
  6
CONTINUOUS
100
AcDbLine
 10
167.447064
 20
5.387067
 30
0.0
 11
167.447064
 21
0.387067
 31
0.0
  0
TEXT
  5
51C
100
AcDbEntity
  8
TABELLA
  6
CONTINUOUS
100
AcDbText
 10
184.542061
 20
0.138446
 30
0.0
 40
4.0
  1
1
100
AcDbText
  0
LINE
  5
51D
100
AcDbEntity
  8
TABELLA
  6
CONTINUOUS
100
AcDbLine
 10
176.747411
 20
31.974182
 30
0.0
 11
182.656258
 21
33.016071
 31
0.0
  0
LINE
  5
51E
100
AcDbEntity
  8
TABELLA
  6
CONTINUOUS
100
AcDbLine
 10
176.747411
 20
28.974182
 30
0.0
 11
182.656258
 21
27.932293
 31
0.0
  0
LINE
  5
51F
100
AcDbEntity
  8
TABELLA
  6
CONTINUOUS
100
AcDbLine
 10
176.747411
 20
31.974182
 30
0.0
 11
176.747411
 21
28.974182
 31
0.0
  0
LINE
  5
520
100
AcDbEntity
  8
TABELLA
  6
CONTINUOUS
100
AcDbLine
 10
175.782064
 20
35.387067
 30
0.0
 11
175.782064
 21
25.387067
 31
0.0
  0
CIRCLE
  5
521
100
AcDbEntity
  8
TABELLA
  6
CONTINUOUS
100
AcDbCircle
 10
189.932065
 20
30.474182
 30
0.0
 40
1.5
  0
LINE
  5
522
100
AcDbEntity
  8
TABELLA
  6
CONTINUOUS
100
AcDbLine
 10
189.932065
 20
28.369782
 30
0.0
 11
189.932065
 21
32.578582
 31
0.0
  0
CIRCLE
  5
523
100
AcDbEntity
  8
TABELLA
  6
CONTINUOUS
100
AcDbCircle
 10
189.932065
 20
30.474182
 30
0.0
 40
2.54
  0
LINE
  5
524
100
AcDbEntity
  8
TABELLA
  6
CONTINUOUS
100
AcDbLine
 10
182.656258
 20
33.016071
 30
0.0
 11
182.656258
 21
27.932293
 31
0.0
  0
TEXT
  5
525
100
AcDbEntity
  8
TABELLA
  6
CONTINUOUS
100
AcDbText
 10
181.963625
 20
11.992375
 30
0.0
 40
2.0
  1
Formato
100
AcDbText
  0
LINE
  5
526
100
AcDbEntity
  8
TABELLA
  6
CONTINUOUS
100
AcDbLine
 10
187.827665
 20
30.474182
 30
0.0
 11
192.036465
 21
30.474182
 31
0.0
  0
LINE
  5
527
100
AcDbEntity
  8
TABELLA
  6
CONTINUOUS
100
AcDbLine
 10
195.782064
 20
5.387067
 30
0.0
 11
195.782064
 21
35.387067
 31
0.0
  0
TEXT
  5
528
100
AcDbEntity
  8
TABELLA
  6
CONTINUOUS
100
AcDbText
 10
197.026704
 20
14.685191
 30
0.0
 40
4.0
  1
A
100
AcDbText
  0
LINE
  5
529
100
AcDbEntity
  8
TABELLA
  6
CONTINUOUS
100
AcDbLine
 10
195.782064
 20
36.262067
 30
0.0
 11
200.782064
 21
36.262067
 31
0.0
  0
TEXT
  5
52A
100
AcDbEntity
  8
TABELLA
  6
CONTINUOUS
100
AcDbText
 10
195.209894
 20
130.984517
 30
0.0
 40
2.0
  1
Data
 50
90.0
100
AcDbText
  0
TEXT
  5
52B
100
AcDbEntity
  8
TABELLA
  6
CONTINUOUS
100
AcDbText
 10
195.209894
 20
56.278486
 30
0.0
 40
2.0
  1
Nota di revisione
 50
90.0
100
AcDbText
  0
LINE
  5
52C
100
AcDbEntity
  8
TABELLA
  6
CONTINUOUS
100
AcDbLine
 10
191.781227
 20
55.387241
 30
0.0
 11
195.782064
 21
55.387241
 31
0.0
  0
LINE
  5
52D
100
AcDbEntity
  8
TABELLA
  6
CONTINUOUS
100
AcDbLine
 10
191.781227
 20
130.387241
 30
0.0
 11
195.782064
 21
130.387241
 31
0.0
  0
LINE
  5
52E
100
AcDbEntity
  8
TABELLA
  6
CONTINUOUS
100
AcDbLine
 10
195.782064
 20
72.137067
 30
0.0
 11
200.782064
 21
72.137067
 31
0.0
  0
TEXT
  5
52F
100
AcDbEntity
  8
TABELLA
  6
CONTINUOUS
100
AcDbText
 10
197.442859
 20
87.459725
 30
0.0
 40
4.0
  1
C
100
AcDbText
  0
LINE
  5
530
100
AcDbEntity
  8
TABELLA
  6
CONTINUOUS
100
AcDbLine
 10
195.782064
 20
108.012067
 30
0.0
 11
200.782064
 21
108.012067
 31
0.0
  0
TEXT
  5
531
100
AcDbEntity
  8
TABELLA
  6
CONTINUOUS
100
AcDbText
 10
197.442859
 20
123.618776
 30
0.0
 40
4.0
  1
D
100
AcDbText
  0
TEXT
  5
532
100
AcDbEntity
  8
TABELLA
  6
CONTINUOUS
100
AcDbText
 10
116.708835
 20
283.250638
 30
0.0
 40
4.0
  1
3
100
AcDbText
  0
LINE
  5
533
100
AcDbEntity
  8
TABELLA
  6
CONTINUOUS
100
AcDbLine
 10
134.114064
 20
282.387067
 30
0.0
 11
134.114064
 21
287.387067
 31
0.0
  0
TEXT
  5
534
100
AcDbEntity
  8
TABELLA
  6
CONTINUOUS
100
AcDbText
 10
150.417372
 20
283.250638
 30
0.0
 40
4.0
  1
2
100
AcDbText
  0
TEXT
  5
535
100
AcDbEntity
  8
TABELLA
  6
CONTINUOUS
100
AcDbText
 10
197.026704
 20
230.800736
 30
0.0
 40
4.0
  1
G
100
AcDbText
  0
TEXT
  5
536
100
AcDbEntity
  8
TABELLA
  6
CONTINUOUS
100
AcDbText
 10
195.209894
 20
155.7956
 30
0.0
 40
2.0
  1
Control.
 50
90.0
100
AcDbText
  0
TEXT
  5
537
100
AcDbEntity
  8
TABELLA
  6
CONTINUOUS
100
AcDbText
 10
195.209894
 20
146.028502
 30
0.0
 40
2.0
  1
Firma
 50
90.0
100
AcDbText
  0
LINE
  5
538
100
AcDbEntity
  8
TABELLA
  6
CONTINUOUS
100
AcDbLine
 10
191.781227
 20
145.387241
 30
0.0
 11
195.782064
 21
145.387241
 31
0.0
  0
LINE
  5
539
100
AcDbEntity
  8
TABELLA
  6
CONTINUOUS
100
AcDbLine
 10
191.781227
 20
155.387241
 30
0.0
 11
195.782064
 21
155.387241
 31
0.0
  0
LINE
  5
53A
100
AcDbEntity
  8
TABELLA
  6
CONTINUOUS
100
AcDbLine
 10
191.781227
 20
165.387241
 30
0.0
 11
195.782064
 21
165.387241
 31
0.0
  0
LINE
  5
53B
100
AcDbEntity
  8
TABELLA
  6
CONTINUOUS
100
AcDbLine
 10
195.782064
 20
143.887067
 30
0.0
 11
200.782064
 21
146.387067
 31
0.0
  0
LINE
  5
53C
100
AcDbEntity
  8
TABELLA
  6
CONTINUOUS
100
AcDbLine
 10
195.782064
 20
143.887067
 30
0.0
 11
200.782064
 21
143.887067
 31
0.0
  0
LINE
  5
53D
100
AcDbEntity
  8
TABELLA
  6
CONTINUOUS
100
AcDbLine
 10
200.782064
 20
143.887067
 30
0.0
 11
200.782064
 21
146.387067
 31
0.0
  0
TEXT
  5
53E
100
AcDbEntity
  8
TABELLA
  6
CONTINUOUS
100
AcDbText
 10
197.442859
 20
158.319393
 30
0.0
 40
4.0
  1
E
100
AcDbText
  0
LINE
  5
53F
100
AcDbEntity
  8
TABELLA
  6
CONTINUOUS
100
AcDbLine
 10
195.782064
 20
179.762067
 30
0.0
 11
200.782064
 21
179.762067
 31
0.0
  0
TEXT
  5
540
100
AcDbEntity
  8
TABELLA
  6
CONTINUOUS
100
AcDbText
 10
197.859013
 20
195.309687
 30
0.0
 40
4.0
  1
F
100
AcDbText
  0
LINE
  5
541
100
AcDbEntity
  8
TABELLA
  6
CONTINUOUS
100
AcDbLine
 10
195.782064
 20
215.637067
 30
0.0
 11
200.782064
 21
215.637067
 31
0.0
  0
LINE
  5
542
100
AcDbEntity
  8
TABELLA
  6
CONTINUOUS
100
AcDbLine
 10
167.447064
 20
282.387067
 30
0.0
 11
167.447064
 21
287.387067
 31
0.0
  0
TEXT
  5
543
100
AcDbEntity
  8
TABELLA
  6
CONTINUOUS
100
AcDbText
 10
184.958217
 20
283.250638
 30
0.0
 40
4.0
  1
1
100
AcDbText
  0
LINE
  5
544
100
AcDbEntity
  8
TABELLA
  6
CONTINUOUS
100
AcDbLine
 10
195.782064
 20
282.387067
 30
0.0
 11
195.782064
 21
278.387067
 31
0.0
  0
LINE
  5
545
100
AcDbEntity
  8
TABELLA
  6
CONTINUOUS
100
AcDbLine
 10
195.782064
 20
251.512067
 30
0.0
 11
200.782064
 21
251.512067
 31
0.0
  0
TEXT
  5
546
100
AcDbEntity
  8
TABELLA
  6
CONTINUOUS
100
AcDbText
 10
197.026704
 20
268.206651
 30
0.0
 40
4.0
  1
H
100
AcDbText
  0
ENDBLK
  5
548
100
AcDbEntity
  8
QUOTE
100
AcDbBlockEnd
  0
BLOCK
  5
7FF
100
AcDbEntity
  8
TABELLA
100
AcDbBlockBegin
  2
A$C7134
 70
     0
 10
0.0
 20
0.0
 30
0.0
  3
A$C7134
  1

  0
LINE
  5
784
100
AcDbEntity
  8
TABELLA
 62
   250
100
AcDbLine
 10
140.942649
 20
405.893939
 30
0.0
 11
145.561451
 21
405.893939
 31
0.0
  0
LINE
  5
785
100
AcDbEntity
  8
TABELLA
 62
   250
100
AcDbLine
 10
143.25205
 20
401.893939
 30
0.0
 11
140.942649
 21
405.893939
 31
0.0
  0
LINE
  5
786
100
AcDbEntity
  8
TABELLA
 62
   250
100
AcDbLine
 10
143.25205
 20
401.893939
 30
0.0
 11
145.561451
 21
405.893939
 31
0.0
  0
LINE
  5
787
100
AcDbEntity
  8
TABELLA
 62
   250
100
AcDbLine
 10
140.942649
 20
0.893939
 30
0.0
 11
145.561451
 21
0.893939
 31
0.0
  0
LINE
  5
788
100
AcDbEntity
  8
TABELLA
 62
   250
100
AcDbLine
 10
143.25205
 20
4.893939
 30
0.0
 11
140.942649
 21
0.893939
 31
0.0
  0
LINE
  5
789
100
AcDbEntity
  8
TABELLA
 62
   250
100
AcDbLine
 10
143.25205
 20
4.893939
 30
0.0
 11
145.561451
 21
0.893939
 31
0.0
  0
LINE
  5
78A
100
AcDbEntity
  8
TABELLA
  6
CONTINUOUS
 62
   250
100
AcDbLine
 10
276.251213
 20
164.894113
 30
0.0
 11
276.251213
 21
44.894113
 31
0.0
  0
TEXT
  5
78B
100
AcDbEntity
  8
TABELLA
  6
CONTINUOUS
 62
   250
100
AcDbText
 10
279.471803
 20
45.810449
 30
0.0
 40
2.0
  1
N° rev.
 50
90.0
100
AcDbText
  0
TEXT
  5
78C
100
AcDbEntity
  8
TABELLA
  6
CONTINUOUS
 62
   250
100
AcDbText
 10
279.67988
 20
130.491389
 30
0.0
 40
2.0
  1
Data
 50
90.0
100
AcDbText
  0
TEXT
  5
78D
100
AcDbEntity
  8
TABELLA
  6
CONTINUOUS
 62
   250
100
AcDbText
 10
279.67988
 20
55.785357
 30
0.0
 40
2.0
  1
Nota di revisione
 50
90.0
100
AcDbText
  0
LINE
  5
78E
100
AcDbEntity
  8
TABELLA
  6
CONTINUOUS
 62
   250
100
AcDbLine
 10
276.251213
 20
54.894113
 30
0.0
 11
280.25205
 21
54.894113
 31
0.0
  0
LINE
  5
78F
100
AcDbEntity
  8
TABELLA
  6
CONTINUOUS
 62
   250
100
AcDbLine
 10
276.251213
 20
129.894113
 30
0.0
 11
280.25205
 21
129.894113
 31
0.0
  0
TEXT
  5
790
100
AcDbEntity
  8
TABELLA
  6
CONTINUOUS
 62
   250
100
AcDbText
 10
279.67988
 20
155.302471
 30
0.0
 40
2.0
  1
Control.
 50
90.0
100
AcDbText
  0
TEXT
  5
791
100
AcDbEntity
  8
TABELLA
  6
CONTINUOUS
 62
   250
100
AcDbText
 10
279.67988
 20
145.535373
 30
0.0
 40
2.0
  1
Firma
 50
90.0
100
AcDbText
  0
LINE
  5
792
100
AcDbEntity
  8
TABELLA
  6
CONTINUOUS
 62
   250
100
AcDbLine
 10
276.251213
 20
144.894113
 30
0.0
 11
280.25205
 21
144.894113
 31
0.0
  0
LINE
  5
793
100
AcDbEntity
  8
TABELLA
  6
CONTINUOUS
 62
   250
100
AcDbLine
 10
276.251213
 20
154.894113
 30
0.0
 11
280.25205
 21
154.894113
 31
0.0
  0
LINE
  5
794
100
AcDbEntity
  8
TABELLA
  6
CONTINUOUS
 62
   250
100
AcDbLine
 10
276.251213
 20
164.894113
 30
0.0
 11
280.25205
 21
164.894113
 31
0.0
  0
LINE
  5
795
100
AcDbEntity
  8
TABELLA
  6
CONTINUOUS
 62
   250
100
AcDbLine
 10
90.25205
 20
4.893939
 30
0.0
 11
90.25205
 21
44.902219
 31
0.0
  0
TEXT
  5
796
100
AcDbEntity
  8
TABELLA
  6
CONTINUOUS
 62
   250
100
AcDbText
 10
168.361212
 20
13.630455
 30
0.0
 40
6.0
  1
ROLLERI
100
AcDbText
  0
LINE
  5
797
100
AcDbEntity
  8
TABELLA
  6
CONTINUOUS
 62
   250
100
AcDbLine
 10
200.176954
 20
22.119133
 30
0.0
 11
168.577369
 21
22.119133
 31
0.0
1001
ACAD
1000
ASC_BOUNDS
1002
{
1070
    19
1002
}
  0
LINE
  5
798
100
AcDbEntity
  8
TABELLA
  6
CONTINUOUS
 62
   250
100
AcDbLine
 10
166.525248
 20
10.963436
 30
0.0
 11
198.124833
 21
10.963436
 31
0.0
1001
ACAD
1000
ASC_BOUNDS
1002
{
1070
    19
1002
}
  0
LINE
  5
799
100
AcDbEntity
  8
TABELLA
  6
CONTINUOUS
 62
   250
100
AcDbLine
 10
200.877162
 20
23.119133
 30
0.0
 11
167.877162
 21
23.119133
 31
0.0
1001
ACAD
1000
ASC_BOUNDS
1002
{
1070
    19
1002
}
  0
LINE
  5
79A
100
AcDbEntity
  8
TABELLA
  6
CONTINUOUS
 62
   250
100
AcDbLine
 10
165.825041
 20
9.963436
 30
0.0
 11
198.825041
 21
9.963436
 31
0.0
1001
ACAD
1000
ASC_BOUNDS
1002
{
1070
    19
1002
}
  0
TEXT
  5
79B
100
AcDbEntity
  8
TABELLA
  6
CONTINUOUS
 62
   250
100
AcDbText
 10
164.240801
 20
6.186164
 30
0.0
 40
2.0
  1
Vigolzone ( Piacenza ) - ITALIA
100
AcDbText
  0
LINE
  5
79C
100
AcDbEntity
  8
TABELLA
  6
CONTINUOUS
 62
   250
100
AcDbLine
 10
210.25205
 20
34.893939
 30
0.0
 11
160.25205
 21
34.893939
 31
0.0
  0
LINE
  5
79D
100
AcDbEntity
  8
TABELLA
  6
CONTINUOUS
 62
   250
100
AcDbLine
 10
280.25205
 20
44.893939
 30
0.0
 11
90.167044
 21
44.902223
 31
0.0
  0
LINE
  5
79E
100
AcDbEntity
  8
TABELLA
  6
CONTINUOUS
 62
   250
100
AcDbLine
 10
210.25205
 20
24.893939
 30
0.0
 11
160.25205
 21
24.893939
 31
0.0
  0
TEXT
  5
79F
100
AcDbEntity
  8
TABELLA
  6
CONTINUOUS
 62
   250
100
AcDbText
 10
91.741789
 20
15.238272
 30
0.0
 40
2.0
  1
- Angoli su superfici lavorate = +/- 30'
100
AcDbText
  0
TEXT
  5
7A0
100
AcDbEntity
  8
TABELLA
  6
CONTINUOUS
 62
   250
100
AcDbText
 10
91.741789
 20
22.838272
 30
0.0
 40
2.0
  1
   da mm 151 a mm 500 = +/- 0.4
100
AcDbText
  0
TEXT
  5
7A1
100
AcDbEntity
  8
TABELLA
  6
CONTINUOUS
 62
   250
100
AcDbText
 10
91.741789
 20
26.638272
 30
0.0
 40
2.0
  1
   da mm 51 a mm 150 = +/- 0.3
100
AcDbText
  0
TEXT
  5
7A2
100
AcDbEntity
  8
TABELLA
  6
CONTINUOUS
 62
   250
100
AcDbText
 10
91.741789
 20
30.438272
 30
0.0
 40
2.0
  1
- Superfici lavorate da mm 1 a mm 50 = +/- 0.2
100
AcDbText
  0
TEXT
  5
7A3
100
AcDbEntity
  8
TABELLA
  6
CONTINUOUS
 62
   250
100
AcDbText
 10
91.741789
 20
34.238272
 30
0.0
 40
2.0
  1
- Parti fuse con spessori >10 mm = +/- 10%
100
AcDbText
  0
TEXT
  5
7A4
100
AcDbEntity
  8
TABELLA
  6
CONTINUOUS
 62
   250
100
AcDbText
 10
91.741789
 20
38.038272
 30
0.0
 40
2.0
  1
- Parti fuse con spessori <10 mm = +/- 1 mm
100
AcDbText
  0
TEXT
  5
7A5
100
AcDbEntity
  8
TABELLA
  6
CONTINUOUS
 62
   250
100
AcDbText
 10
91.741789
 20
11.438272
 30
0.0
 40
2.0
  1
- Interassi fori = +/- 0.25
100
AcDbText
  0
TEXT
  5
7A6
100
AcDbEntity
  8
TABELLA
  6
CONTINUOUS
 62
   250
100
AcDbText
 10
91.741789
 20
19.038272
 30
0.0
 40
2.0
  1
   oltre 500 mm = +/- 0.5
100
AcDbText
  0
TEXT
  5
7A7
100
AcDbEntity
  8
TABELLA
  6
CONTINUOUS
 62
   250
100
AcDbText
 10
91.741789
 20
41.838272
 30
0.0
 40
2.0
  1
TOLLERANZE GENERALI :
100
AcDbText
  0
LINE
  5
7A8
100
AcDbEntity
  8
TABELLA
  6
CONTINUOUS
 62
   250
100
AcDbLine
 10
150.26243
 20
44.901763
 30
0.0
 11
150.25205
 21
4.896533
 31
0.0
  0
TEXT
  5
7A9
100
AcDbEntity
  8
TABELLA
  6
CONTINUOUS
 62
   250
100
AcDbText
 10
152.908542
 20
6.960899
 30
0.0
 40
1.5
  1
A termine di legge la Rolleri si riserva la
 50
90.0
100
AcDbText
  0
LINE
  5
7AA
100
AcDbEntity
  8
TABELLA
  6
CONTINUOUS
 62
   250
100
AcDbLine
 10
160.262428
 20
44.893939
 30
0.0
 11
160.262428
 21
4.893939
 31
0.0
  0
TEXT
  5
7AB
100
AcDbEntity
  8
TABELLA
  6
CONTINUOUS
 62
   250
100
AcDbText
 10
158.608542
 20
6.960899
 30
0.0
 40
1.5
  1
di riprodurlo e di comunicarlo a terzi.
 50
90.0
100
AcDbText
  0
TEXT
  5
7AC
100
AcDbEntity
  8
TABELLA
  6
CONTINUOUS
 62
   250
100
AcDbText
 10
155.758542
 20
6.960899
 30
0.0
 40
1.5
  1
proprietà di questo disegno, con divieto
 50
90.0
100
AcDbText
  0
TEXT
  5
7AD
100
AcDbEntity
  8
TABELLA
  6
CONTINUOUS
 62
   250
100
AcDbText
 10
161.650313
 20
41.991715
 30
0.0
 40
2.0
  1
Materiale
100
AcDbText
  0
TEXT
  5
7AE
100
AcDbEntity
  8
TABELLA
  6
CONTINUOUS
 62
   250
100
AcDbText
 10
161.419004
 20
31.827559
 30
0.0
 40
2.0
  1
Disegnato da
100
AcDbText
  0
LINE
  5
7AF
100
AcDbEntity
  8
TABELLA
  6
CONTINUOUS
 62
   250
100
AcDbLine
 10
168.577369
 20
22.119133
 30
0.0
 11
165.521138
 21
13.722206
 31
0.0
1001
ACAD
1000
ASC_BOUNDS
1002
{
1070
    19
1002
}
  0
LINE
  5
7B0
100
AcDbEntity
  8
TABELLA
  6
CONTINUOUS
 62
   250
100
AcDbLine
 10
167.877162
 20
23.119133
 30
0.0
 11
164.45696
 21
13.722206
 31
0.0
1001
ACAD
1000
ASC_BOUNDS
1002
{
1070
    19
1002
}
  0
LINE
  5
7B1
100
AcDbEntity
  8
TABELLA
  6
CONTINUOUS
 62
   250
100
AcDbLine
 10
165.521138
 20
13.722206
 30
0.0
 11
166.525248
 21
10.963436
 31
0.0
1001
ACAD
1000
ASC_BOUNDS
1002
{
1070
    19
1002
}
  0
LINE
  5
7B2
100
AcDbEntity
  8
TABELLA
  6
CONTINUOUS
 62
   250
100
AcDbLine
 10
164.45696
 20
13.722206
 30
0.0
 11
165.825041
 21
9.963436
 31
0.0
1001
ACAD
1000
ASC_BOUNDS
1002
{
1070
    19
1002
}
  0
LINE
  5
7B3
100
AcDbEntity
  8
TABELLA
  6
CONTINUOUS
 62
   250
100
AcDbLine
 10
185.25205
 20
34.893939
 30
0.0
 11
185.25205
 21
24.893939
 31
0.0
  0
TEXT
  5
7B4
100
AcDbEntity
  8
TABELLA
  6
CONTINUOUS
 62
   250
100
AcDbText
 10
231.737154
 20
41.991715
 30
0.0
 40
2.0
  1
Trattamento Termico
100
AcDbText
  0
TEXT
  5
7B5
100
AcDbEntity
  8
TABELLA
  6
CONTINUOUS
 62
   250
100
AcDbText
 10
246.309667
 20
31.596555
 30
0.0
 40
2.0
  1
Scala
100
AcDbText
  0
TEXT
  5
7B6
100
AcDbEntity
  8
TABELLA
  6
CONTINUOUS
 62
   250
100
AcDbText
 10
246.540977
 20
11.730249
 30
0.0
 40
2.0
  1
Data
100
AcDbText
  0
LINE
  5
7B7
100
AcDbEntity
  8
TABELLA
  6
CONTINUOUS
 62
   250
100
AcDbLine
 10
210.25205
 20
34.893939
 30
0.0
 11
280.25205
 21
34.893939
 31
0.0
  0
LINE
  5
7B8
100
AcDbEntity
  8
TABELLA
  6
CONTINUOUS
 62
   250
100
AcDbLine
 10
210.25205
 20
24.893939
 30
0.0
 11
280.25205
 21
24.893939
 31
0.0
  0
LINE
  5
7B9
100
AcDbEntity
  8
TABELLA
  6
CONTINUOUS
 62
   250
100
AcDbLine
 10
205.25205
 20
14.96419
 30
0.0
 11
280.25205
 21
14.893939
 31
0.0
  0
TEXT
  5
7BA
100
AcDbEntity
  8
TABELLA
  6
CONTINUOUS
 62
   250
100
AcDbText
 10
201.435583
 20
41.991715
 30
0.0
 40
2.0
  1
Dimensioni di prelievo
100
AcDbText
  0
TEXT
  5
7BB
100
AcDbEntity
  8
TABELLA
  6
CONTINUOUS
 62
   250
100
AcDbText
 10
211.381901
 20
31.596555
 30
0.0
 40
2.0
  1
Approvato da - data
100
AcDbText
  0
TEXT
  5
7BC
100
AcDbEntity
  8
TABELLA
  6
CONTINUOUS
 62
   250
100
AcDbText
 10
206.293088
 20
21.894405
 30
0.0
 40
2.0
  1
Particolare
100
AcDbText
  0
LINE
  5
7BD
100
AcDbEntity
  8
TABELLA
  6
CONTINUOUS
 62
   250
100
AcDbLine
 10
205.25205
 20
14.893939
 30
0.0
 11
205.25205
 21
4.893939
 31
0.0
  0
LINE
  5
7BE
100
AcDbEntity
  8
TABELLA
  6
CONTINUOUS
 62
   250
100
AcDbLine
 10
201.181065
 20
19.360362
 30
0.0
 11
200.176954
 21
22.119133
 31
0.0
1001
ACAD
1000
ASC_BOUNDS
1002
{
1070
    19
1002
}
  0
LINE
  5
7BF
100
AcDbEntity
  8
TABELLA
  6
CONTINUOUS
 62
   250
100
AcDbLine
 10
198.124833
 20
10.963436
 30
0.0
 11
201.181065
 21
19.360362
 31
0.0
1001
ACAD
1000
ASC_BOUNDS
1002
{
1070
    19
1002
}
  0
LINE
  5
7C0
100
AcDbEntity
  8
TABELLA
  6
CONTINUOUS
 62
   250
100
AcDbLine
 10
198.825041
 20
9.963436
 30
0.0
 11
202.245242
 21
19.360362
 31
0.0
1001
ACAD
1000
ASC_BOUNDS
1002
{
1070
    19
1002
}
  0
TEXT
  5
7C1
100
AcDbEntity
  8
TABELLA
  6
CONTINUOUS
 62
   250
100
AcDbText
 10
186.400451
 20
31.596555
 30
0.0
 40
2.0
  1
Controllato da
100
AcDbText
  0
LINE
  5
7C2
100
AcDbEntity
  8
TABELLA
  6
CONTINUOUS
 62
   250
100
AcDbLine
 10
200.25205
 20
34.893939
 30
0.0
 11
200.25205
 21
44.893939
 31
0.0
  0
LINE
  5
7C3
100
AcDbEntity
  8
TABELLA
  6
CONTINUOUS
 62
   250
100
AcDbLine
 10
210.25205
 20
34.893939
 30
0.0
 11
210.25205
 21
24.893939
 31
0.0
  0
TEXT
  5
7C4
100
AcDbEntity
  8
TABELLA
  6
CONTINUOUS
 62
   250
100
AcDbText
 10
206.061777
 20
11.730249
 30
0.0
 40
2.0
  1
Disegno
100
AcDbText
  0
LINE
  5
7C5
100
AcDbEntity
  8
TABELLA
  6
CONTINUOUS
 62
   250
100
AcDbLine
 10
202.245242
 20
19.360362
 30
0.0
 11
200.877162
 21
23.119133
 31
0.0
1001
ACAD
1000
ASC_BOUNDS
1002
{
1070
    19
1002
}
  0
LINE
  5
7C6
100
AcDbEntity
  8
TABELLA
  6
CONTINUOUS
 62
   250
100
AcDbLine
 10
205.25205
 20
24.893939
 30
0.0
 11
205.25205
 21
14.893939
 31
0.0
  0
LINE
  5
7C7
100
AcDbEntity
  8
TABELLA
  6
CONTINUOUS
 62
   250
100
AcDbLine
 10
245.25205
 20
14.893939
 30
0.0
 11
245.25205
 21
4.893939
 31
0.0
  0
LINE
  5
7C8
100
AcDbEntity
  8
TABELLA
  6
CONTINUOUS
 62
   250
100
AcDbLine
 10
230.25205
 20
34.893939
 30
0.0
 11
230.25205
 21
44.893939
 31
0.0
  0
LINE
  5
7C9
100
AcDbEntity
  8
TABELLA
  6
CONTINUOUS
 62
   250
100
AcDbLine
 10
245.25205
 20
34.893939
 30
0.0
 11
245.25205
 21
24.893939
 31
0.0
  0
LINE
  5
7CA
100
AcDbEntity
  8
TABELLA
  6
CONTINUOUS
 62
   250
100
AcDbLine
 10
261.217397
 20
29.981053
 30
0.0
 11
279.1439
 21
29.981053
 31
0.0
  0
LINE
  5
7CB
100
AcDbEntity
  8
TABELLA
  6
CONTINUOUS
 62
   250
100
AcDbLine
 10
265.25205
 20
14.893939
 30
0.0
 11
265.25205
 21
4.893939
 31
0.0
  0
LINE
  5
7CC
100
AcDbEntity
  8
TABELLA
  6
CONTINUOUS
 62
   250
100
AcDbLine
 10
261.217397
 20
31.481053
 30
0.0
 11
267.126244
 21
32.522942
 31
0.0
  0
LINE
  5
7CD
100
AcDbEntity
  8
TABELLA
  6
CONTINUOUS
 62
   250
100
AcDbLine
 10
261.217397
 20
28.481053
 30
0.0
 11
267.126244
 21
27.439164
 31
0.0
  0
LINE
  5
7CE
100
AcDbEntity
  8
TABELLA
  6
CONTINUOUS
 62
   250
100
AcDbLine
 10
261.217397
 20
31.481053
 30
0.0
 11
261.217397
 21
28.481053
 31
0.0
  0
LINE
  5
7CF
100
AcDbEntity
  8
TABELLA
  6
CONTINUOUS
 62
   250
100
AcDbLine
 10
260.25205
 20
34.893939
 30
0.0
 11
260.25205
 21
24.893939
 31
0.0
  0
CIRCLE
  5
7D0
100
AcDbEntity
  8
TABELLA
  6
CONTINUOUS
 62
   250
100
AcDbCircle
 10
274.402051
 20
29.981053
 30
0.0
 40
1.5
  0
LINE
  5
7D1
100
AcDbEntity
  8
TABELLA
  6
CONTINUOUS
 62
   250
100
AcDbLine
 10
274.402051
 20
27.876653
 30
0.0
 11
274.402051
 21
32.085453
 31
0.0
  0
CIRCLE
  5
7D2
100
AcDbEntity
  8
TABELLA
  6
CONTINUOUS
 62
   250
100
AcDbCircle
 10
274.402051
 20
29.981053
 30
0.0
 40
2.54
  0
LINE
  5
7D3
100
AcDbEntity
  8
TABELLA
  6
CONTINUOUS
 62
   250
100
AcDbLine
 10
267.126244
 20
32.522942
 30
0.0
 11
267.126244
 21
27.439164
 31
0.0
  0
TEXT
  5
7D4
100
AcDbEntity
  8
TABELLA
  6
CONTINUOUS
 62
   250
100
AcDbText
 10
266.433611
 20
11.499246
 30
0.0
 40
2.0
  1
Formato
100
AcDbText
  0
LINE
  5
7D5
100
AcDbEntity
  8
TABELLA
  6
CONTINUOUS
 62
   250
100
AcDbLine
 10
272.297651
 20
29.981053
 30
0.0
 11
276.506451
 21
29.981053
 31
0.0
  0
LINE
  5
7D6
100
AcDbEntity
  8
TABELLA
  6
CONTINUOUS
 62
   250
100
AcDbLine
 10
280.25205
 20
4.893939
 30
0.0
 11
280.25205
 21
34.893939
 31
0.0
  0
LINE
  5
7D7
100
AcDbEntity
  8
TABELLA
 62
   250
100
AcDbLine
 10
6.25205
 20
401.893939
 30
0.0
 11
280.25205
 21
401.893939
 31
0.0
  0
LINE
  5
7D8
100
AcDbEntity
  8
TABELLA
 62
   250
100
AcDbLine
 10
6.25205
 20
4.893939
 30
0.0
 11
6.25205
 21
401.893939
 31
0.0
  0
LINE
  5
7D9
100
AcDbEntity
  8
TABELLA
 62
   250
100
AcDbLine
 10
280.25205
 20
401.893939
 30
0.0
 11
280.25205
 21
4.893939
 31
0.0
  0
LINE
  5
7DA
100
AcDbEntity
  8
TABELLA
 62
   250
100
AcDbLine
 10
6.25205
 20
4.893939
 30
0.0
 11
280.25205
 21
4.893939
 31
0.0
  0
LINE
  5
7DB
100
AcDbEntity
  8
TABELLA
 62
   250
100
AcDbLine
 10
143.25205
 20
405.893939
 30
0.0
 11
143.25205
 21
401.893939
 31
0.0
  0
LINE
  5
7DC
100
AcDbEntity
  8
TABELLA
 62
   250
100
AcDbLine
 10
108.00205
 20
405.893939
 30
0.0
 11
108.00205
 21
401.893939
 31
0.0
  0
LINE
  5
7DD
100
AcDbEntity
  8
TABELLA
 62
   250
100
AcDbLine
 10
72.75205
 20
405.893939
 30
0.0
 11
72.75205
 21
401.893939
 31
0.0
  0
LINE
  5
7DE
100
AcDbEntity
  8
TABELLA
 62
   250
100
AcDbLine
 10
37.50205
 20
405.893939
 30
0.0
 11
37.50205
 21
401.893939
 31
0.0
  0
LINE
  5
7DF
100
AcDbEntity
  8
TABELLA
 62
   250
100
AcDbLine
 10
178.50205
 20
405.893939
 30
0.0
 11
178.50205
 21
401.893939
 31
0.0
  0
LINE
  5
7E0
100
AcDbEntity
  8
TABELLA
 62
   250
100
AcDbLine
 10
213.75205
 20
405.893939
 30
0.0
 11
213.75205
 21
401.893939
 31
0.0
  0
LINE
  5
7E1
100
AcDbEntity
  8
TABELLA
 62
   250
100
AcDbLine
 10
249.00205
 20
405.893939
 30
0.0
 11
249.00205
 21
401.893939
 31
0.0
  0
LINE
  5
7E2
100
AcDbEntity
  8
TABELLA
 62
   250
100
AcDbLine
 10
2.25205
 20
203.393939
 30
0.0
 11
6.25205
 21
203.393939
 31
0.0
  0
LINE
  5
7E3
100
AcDbEntity
  8
TABELLA
 62
   250
100
AcDbLine
 10
2.25205
 20
238.393939
 30
0.0
 11
6.25205
 21
238.393939
 31
0.0
  0
LINE
  5
7E4
100
AcDbEntity
  8
TABELLA
 62
   250
100
AcDbLine
 10
2.25205
 20
273.393939
 30
0.0
 11
6.25205
 21
273.393939
 31
0.0
  0
LINE
  5
7E5
100
AcDbEntity
  8
TABELLA
 62
   250
100
AcDbLine
 10
2.25205
 20
308.393939
 30
0.0
 11
6.25205
 21
308.393939
 31
0.0
  0
LINE
  5
7E6
100
AcDbEntity
  8
TABELLA
 62
   250
100
AcDbLine
 10
2.25205
 20
343.393939
 30
0.0
 11
6.25205
 21
343.393939
 31
0.0
  0
LINE
  5
7E7
100
AcDbEntity
  8
TABELLA
 62
   250
100
AcDbLine
 10
2.25205
 20
378.393939
 30
0.0
 11
6.25205
 21
378.393939
 31
0.0
  0
LINE
  5
7E8
100
AcDbEntity
  8
TABELLA
 62
   250
100
AcDbLine
 10
2.25205
 20
168.393939
 30
0.0
 11
6.25205
 21
168.393939
 31
0.0
  0
LINE
  5
7E9
100
AcDbEntity
  8
TABELLA
 62
   250
100
AcDbLine
 10
2.25205
 20
133.393939
 30
0.0
 11
6.25205
 21
133.393939
 31
0.0
  0
LINE
  5
7EA
100
AcDbEntity
  8
TABELLA
 62
   250
100
AcDbLine
 10
2.25205
 20
98.393939
 30
0.0
 11
6.25205
 21
98.393939
 31
0.0
  0
LINE
  5
7EB
100
AcDbEntity
  8
TABELLA
 62
   250
100
AcDbLine
 10
2.25205
 20
63.393939
 30
0.0
 11
6.25205
 21
63.393939
 31
0.0
  0
LINE
  5
7EC
100
AcDbEntity
  8
TABELLA
 62
   250
100
AcDbLine
 10
2.25205
 20
28.393939
 30
0.0
 11
6.25205
 21
28.393939
 31
0.0
  0
LINE
  5
7ED
100
AcDbEntity
  8
TABELLA
 62
   250
100
AcDbLine
 10
284.25205
 20
28.393939
 30
0.0
 11
280.25205
 21
28.393939
 31
0.0
  0
LINE
  5
7EE
100
AcDbEntity
  8
TABELLA
 62
   250
100
AcDbLine
 10
284.25205
 20
63.393939
 30
0.0
 11
280.25205
 21
63.393939
 31
0.0
  0
LINE
  5
7EF
100
AcDbEntity
  8
TABELLA
 62
   250
100
AcDbLine
 10
284.25205
 20
98.393939
 30
0.0
 11
280.25205
 21
98.393939
 31
0.0
  0
LINE
  5
7F0
100
AcDbEntity
  8
TABELLA
 62
   250
100
AcDbLine
 10
284.25205
 20
133.393939
 30
0.0
 11
280.25205
 21
133.393939
 31
0.0
  0
LINE
  5
7F1
100
AcDbEntity
  8
TABELLA
 62
   250
100
AcDbLine
 10
284.25205
 20
168.393939
 30
0.0
 11
280.25205
 21
168.393939
 31
0.0
  0
LINE
  5
7F2
100
AcDbEntity
  8
TABELLA
 62
   250
100
AcDbLine
 10
284.25205
 20
378.393939
 30
0.0
 11
280.25205
 21
378.393939
 31
0.0
  0
LINE
  5
7F3
100
AcDbEntity
  8
TABELLA
 62
   250
100
AcDbLine
 10
284.25205
 20
343.393939
 30
0.0
 11
280.25205
 21
343.393939
 31
0.0
  0
LINE
  5
7F4
100
AcDbEntity
  8
TABELLA
 62
   250
100
AcDbLine
 10
284.25205
 20
308.393939
 30
0.0
 11
280.25205
 21
308.393939
 31
0.0
  0
LINE
  5
7F5
100
AcDbEntity
  8
TABELLA
 62
   250
100
AcDbLine
 10
284.25205
 20
273.393939
 30
0.0
 11
280.25205
 21
273.393939
 31
0.0
  0
LINE
  5
7F6
100
AcDbEntity
  8
TABELLA
 62
   250
100
AcDbLine
 10
284.25205
 20
238.393939
 30
0.0
 11
280.25205
 21
238.393939
 31
0.0
  0
LINE
  5
7F7
100
AcDbEntity
  8
TABELLA
 62
   250
100
AcDbLine
 10
249.00205
 20
0.893939
 30
0.0
 11
249.00205
 21
4.893939
 31
0.0
  0
LINE
  5
7F8
100
AcDbEntity
  8
TABELLA
 62
   250
100
AcDbLine
 10
213.75205
 20
0.893939
 30
0.0
 11
213.75205
 21
4.893939
 31
0.0
  0
LINE
  5
7F9
100
AcDbEntity
  8
TABELLA
 62
   250
100
AcDbLine
 10
178.50205
 20
0.893939
 30
0.0
 11
178.50205
 21
4.893939
 31
0.0
  0
LINE
  5
7FA
100
AcDbEntity
  8
TABELLA
 62
   250
100
AcDbLine
 10
37.50205
 20
0.893939
 30
0.0
 11
37.50205
 21
4.893939
 31
0.0
  0
LINE
  5
7FB
100
AcDbEntity
  8
TABELLA
 62
   250
100
AcDbLine
 10
72.75205
 20
0.893939
 30
0.0
 11
72.75205
 21
4.893939
 31
0.0
  0
LINE
  5
7FC
100
AcDbEntity
  8
TABELLA
 62
   250
100
AcDbLine
 10
108.00205
 20
0.893939
 30
0.0
 11
108.00205
 21
4.893939
 31
0.0
  0
LINE
  5
7FD
100
AcDbEntity
  8
TABELLA
 62
   250
100
AcDbLine
 10
284.25205
 20
203.393939
 30
0.0
 11
280.25205
 21
203.393939
 31
0.0
  0
LINE
  5
7FE
100
AcDbEntity
  8
TABELLA
 62
   250
100
AcDbLine
 10
143.25205
 20
0.893939
 30
0.0
 11
143.25205
 21
4.893939
 31
0.0
  0
ENDBLK
  5
800
100
AcDbEntity
  8
TABELLA
100
AcDbBlockEnd
  0
BLOCK
  5
914
100
AcDbEntity
  8
TABELLA
100
AcDbBlockBegin
  2
A$CD0B2
 70
     0
 10
0.0
 20
0.0
 30
0.0
  3
A$CD0B2
  1

  0
POLYLINE
  5
88E
100
AcDbEntity
  8
TABELLA
 62
     8
100
AcDb2dPolyline
 66
     1
 10
0.0
 20
0.0
 30
0.0
 70
     1
  0
VERTEX
  5
88F
100
AcDbEntity
  8
TABELLA
 62
     8
100
AcDbVertex
100
AcDb2dVertex
 10
279.514894
 20
401.880161
 30
0.0
  0
VERTEX
  5
890
100
AcDbEntity
  8
TABELLA
 62
     8
100
AcDbVertex
100
AcDb2dVertex
 10
279.514894
 20
4.880161
 30
0.0
  0
VERTEX
  5
891
100
AcDbEntity
  8
TABELLA
 62
     8
100
AcDbVertex
100
AcDb2dVertex
 10
5.514894
 20
4.880161
 30
0.0
  0
VERTEX
  5
892
100
AcDbEntity
  8
TABELLA
 62
     8
100
AcDbVertex
100
AcDb2dVertex
 10
5.514894
 20
401.880161
 30
0.0
  0
SEQEND
  5
893
100
AcDbEntity
  8
TABELLA
 62
     8
  0
LINE
  5
894
100
AcDbEntity
  8
TABELLA
 62
     8
100
AcDbLine
 10
142.514894
 20
0.880161
 30
0.0
 11
142.514894
 21
4.880161
 31
0.0
  0
LINE
  5
895
100
AcDbEntity
  8
TABELLA
 62
     8
100
AcDbLine
 10
283.514894
 20
203.380161
 30
0.0
 11
279.514894
 21
203.380161
 31
0.0
  0
LINE
  5
896
100
AcDbEntity
  8
TABELLA
 62
     8
100
AcDbLine
 10
107.264894
 20
0.880161
 30
0.0
 11
107.264894
 21
4.880161
 31
0.0
  0
LINE
  5
897
100
AcDbEntity
  8
TABELLA
 62
     8
100
AcDbLine
 10
72.014894
 20
0.880161
 30
0.0
 11
72.014894
 21
4.880161
 31
0.0
  0
LINE
  5
898
100
AcDbEntity
  8
TABELLA
 62
     8
100
AcDbLine
 10
36.764894
 20
0.880161
 30
0.0
 11
36.764894
 21
4.880161
 31
0.0
  0
LINE
  5
899
100
AcDbEntity
  8
TABELLA
 62
     8
100
AcDbLine
 10
177.764894
 20
0.880161
 30
0.0
 11
177.764894
 21
4.880161
 31
0.0
  0
LINE
  5
89A
100
AcDbEntity
  8
TABELLA
 62
     8
100
AcDbLine
 10
213.014894
 20
0.880161
 30
0.0
 11
213.014894
 21
4.880161
 31
0.0
  0
LINE
  5
89B
100
AcDbEntity
  8
TABELLA
 62
     8
100
AcDbLine
 10
248.264894
 20
0.880161
 30
0.0
 11
248.264894
 21
4.880161
 31
0.0
  0
LINE
  5
89C
100
AcDbEntity
  8
TABELLA
 62
     8
100
AcDbLine
 10
283.514894
 20
238.380161
 30
0.0
 11
279.514894
 21
238.380161
 31
0.0
  0
LINE
  5
89D
100
AcDbEntity
  8
TABELLA
 62
     8
100
AcDbLine
 10
283.514894
 20
273.380161
 30
0.0
 11
279.514894
 21
273.380161
 31
0.0
  0
LINE
  5
89E
100
AcDbEntity
  8
TABELLA
 62
     8
100
AcDbLine
 10
283.514894
 20
308.380161
 30
0.0
 11
279.514894
 21
308.380161
 31
0.0
  0
LINE
  5
89F
100
AcDbEntity
  8
TABELLA
 62
     8
100
AcDbLine
 10
283.514894
 20
343.380161
 30
0.0
 11
279.514894
 21
343.380161
 31
0.0
  0
LINE
  5
8A0
100
AcDbEntity
  8
TABELLA
 62
     8
100
AcDbLine
 10
283.514894
 20
378.380161
 30
0.0
 11
279.514894
 21
378.380161
 31
0.0
  0
LINE
  5
8A1
100
AcDbEntity
  8
TABELLA
 62
     8
100
AcDbLine
 10
283.514894
 20
168.380161
 30
0.0
 11
279.514894
 21
168.380161
 31
0.0
  0
LINE
  5
8A2
100
AcDbEntity
  8
TABELLA
 62
     8
100
AcDbLine
 10
283.514894
 20
133.380161
 30
0.0
 11
279.514894
 21
133.380161
 31
0.0
  0
LINE
  5
8A3
100
AcDbEntity
  8
TABELLA
 62
     8
100
AcDbLine
 10
283.514894
 20
98.380161
 30
0.0
 11
279.514894
 21
98.380161
 31
0.0
  0
LINE
  5
8A4
100
AcDbEntity
  8
TABELLA
 62
     8
100
AcDbLine
 10
283.514894
 20
63.380161
 30
0.0
 11
279.514894
 21
63.380161
 31
0.0
  0
LINE
  5
8A5
100
AcDbEntity
  8
TABELLA
 62
     8
100
AcDbLine
 10
283.514894
 20
28.380161
 30
0.0
 11
279.514894
 21
28.380161
 31
0.0
  0
LINE
  5
8A6
100
AcDbEntity
  8
TABELLA
 62
     8
100
AcDbLine
 10
1.514894
 20
28.380161
 30
0.0
 11
5.514894
 21
28.380161
 31
0.0
  0
LINE
  5
8A7
100
AcDbEntity
  8
TABELLA
 62
     8
100
AcDbLine
 10
1.514894
 20
63.380161
 30
0.0
 11
5.514894
 21
63.380161
 31
0.0
  0
LINE
  5
8A8
100
AcDbEntity
  8
TABELLA
 62
     8
100
AcDbLine
 10
1.514894
 20
98.380161
 30
0.0
 11
5.514894
 21
98.380161
 31
0.0
  0
LINE
  5
8A9
100
AcDbEntity
  8
TABELLA
 62
     8
100
AcDbLine
 10
1.514894
 20
133.380161
 30
0.0
 11
5.514894
 21
133.380161
 31
0.0
  0
LINE
  5
8AA
100
AcDbEntity
  8
TABELLA
 62
     8
100
AcDbLine
 10
1.514894
 20
168.380161
 30
0.0
 11
5.514894
 21
168.380161
 31
0.0
  0
LINE
  5
8AB
100
AcDbEntity
  8
TABELLA
 62
     8
100
AcDbLine
 10
1.514894
 20
378.380161
 30
0.0
 11
5.514894
 21
378.380161
 31
0.0
  0
LINE
  5
8AC
100
AcDbEntity
  8
TABELLA
 62
     8
100
AcDbLine
 10
1.514894
 20
343.380161
 30
0.0
 11
5.514894
 21
343.380161
 31
0.0
  0
LINE
  5
8AD
100
AcDbEntity
  8
TABELLA
 62
     8
100
AcDbLine
 10
1.514894
 20
308.380161
 30
0.0
 11
5.514894
 21
308.380161
 31
0.0
  0
LINE
  5
8AE
100
AcDbEntity
  8
TABELLA
 62
     8
100
AcDbLine
 10
1.514894
 20
273.380161
 30
0.0
 11
5.514894
 21
273.380161
 31
0.0
  0
LINE
  5
8AF
100
AcDbEntity
  8
TABELLA
 62
     8
100
AcDbLine
 10
1.514894
 20
238.380161
 30
0.0
 11
5.514894
 21
238.380161
 31
0.0
  0
LINE
  5
8B0
100
AcDbEntity
  8
TABELLA
 62
     8
100
AcDbLine
 10
1.514894
 20
203.380161
 30
0.0
 11
5.514894
 21
203.380161
 31
0.0
  0
LINE
  5
8B1
100
AcDbEntity
  8
TABELLA
 62
     8
100
AcDbLine
 10
248.264894
 20
405.880161
 30
0.0
 11
248.264894
 21
401.880161
 31
0.0
  0
LINE
  5
8B2
100
AcDbEntity
  8
TABELLA
 62
     8
100
AcDbLine
 10
213.014894
 20
405.880161
 30
0.0
 11
213.014894
 21
401.880161
 31
0.0
  0
LINE
  5
8B3
100
AcDbEntity
  8
TABELLA
 62
     8
100
AcDbLine
 10
177.764894
 20
405.880161
 30
0.0
 11
177.764894
 21
401.880161
 31
0.0
  0
LINE
  5
8B4
100
AcDbEntity
  8
TABELLA
 62
     8
100
AcDbLine
 10
36.764894
 20
405.880161
 30
0.0
 11
36.764894
 21
401.880161
 31
0.0
  0
LINE
  5
8B5
100
AcDbEntity
  8
TABELLA
 62
     8
100
AcDbLine
 10
72.014894
 20
405.880161
 30
0.0
 11
72.014894
 21
401.880161
 31
0.0
  0
LINE
  5
8B6
100
AcDbEntity
  8
TABELLA
 62
     8
100
AcDbLine
 10
107.264894
 20
405.880161
 30
0.0
 11
107.264894
 21
401.880161
 31
0.0
  0
LINE
  5
8B7
100
AcDbEntity
  8
TABELLA
 62
     8
100
AcDbLine
 10
142.514894
 20
405.880161
 30
0.0
 11
142.514894
 21
401.880161
 31
0.0
  0
LINE
  5
8B8
100
AcDbEntity
  8
TABELLA
  6
CONTINUOUS
 62
     8
100
AcDbLine
 10
279.514894
 20
4.880161
 30
0.0
 11
279.514894
 21
34.880161
 31
0.0
  0
LINE
  5
8B9
100
AcDbEntity
  8
TABELLA
  6
CONTINUOUS
 62
     8
100
AcDbLine
 10
271.560495
 20
29.967275
 30
0.0
 11
275.769295
 21
29.967275
 31
0.0
  0
TEXT
  5
8BA
100
AcDbEntity
  8
TABELLA
  6
CONTINUOUS
 62
     8
100
AcDbText
 10
265.696455
 20
11.485468
 30
0.0
 40
2.0
  1
Formato
100
AcDbText
  0
LINE
  5
8BB
100
AcDbEntity
  8
TABELLA
  6
CONTINUOUS
 62
     8
100
AcDbLine
 10
266.389088
 20
32.509164
 30
0.0
 11
266.389088
 21
27.425386
 31
0.0
  0
CIRCLE
  5
8BC
100
AcDbEntity
  8
TABELLA
  6
CONTINUOUS
 62
     8
100
AcDbCircle
 10
273.664895
 20
29.967275
 30
0.0
 40
2.54
  0
LINE
  5
8BD
100
AcDbEntity
  8
TABELLA
  6
CONTINUOUS
 62
     8
100
AcDbLine
 10
273.664895
 20
27.862875
 30
0.0
 11
273.664895
 21
32.071675
 31
0.0
  0
CIRCLE
  5
8BE
100
AcDbEntity
  8
TABELLA
  6
CONTINUOUS
 62
     8
100
AcDbCircle
 10
273.664895
 20
29.967275
 30
0.0
 40
1.5
  0
LINE
  5
8BF
100
AcDbEntity
  8
TABELLA
  6
CONTINUOUS
 62
     8
100
AcDbLine
 10
259.514894
 20
34.880161
 30
0.0
 11
259.514894
 21
24.880161
 31
0.0
  0
LINE
  5
8C0
100
AcDbEntity
  8
TABELLA
  6
CONTINUOUS
 62
     8
100
AcDbLine
 10
260.480242
 20
31.467275
 30
0.0
 11
260.480242
 21
28.467275
 31
0.0
  0
LINE
  5
8C1
100
AcDbEntity
  8
TABELLA
  6
CONTINUOUS
 62
     8
100
AcDbLine
 10
260.480242
 20
28.467275
 30
0.0
 11
266.389088
 21
27.425386
 31
0.0
  0
LINE
  5
8C2
100
AcDbEntity
  8
TABELLA
  6
CONTINUOUS
 62
     8
100
AcDbLine
 10
260.480242
 20
31.467275
 30
0.0
 11
266.389088
 21
32.509164
 31
0.0
  0
LINE
  5
8C3
100
AcDbEntity
  8
TABELLA
  6
CONTINUOUS
 62
     8
100
AcDbLine
 10
264.514894
 20
14.880161
 30
0.0
 11
264.514894
 21
4.880161
 31
0.0
  0
LINE
  5
8C4
100
AcDbEntity
  8
TABELLA
  6
CONTINUOUS
 62
     8
100
AcDbLine
 10
260.480242
 20
29.967275
 30
0.0
 11
278.406744
 21
29.967275
 31
0.0
  0
LINE
  5
8C5
100
AcDbEntity
  8
TABELLA
  6
CONTINUOUS
 62
     8
100
AcDbLine
 10
244.514894
 20
34.880161
 30
0.0
 11
244.514894
 21
24.880161
 31
0.0
  0
LINE
  5
8C6
100
AcDbEntity
  8
TABELLA
  6
CONTINUOUS
 62
     8
100
AcDbLine
 10
229.514894
 20
34.880161
 30
0.0
 11
229.514894
 21
44.880161
 31
0.0
  0
LINE
  5
8C7
100
AcDbEntity
  8
TABELLA
  6
CONTINUOUS
 62
     8
100
AcDbLine
 10
244.514894
 20
14.880161
 30
0.0
 11
244.514894
 21
4.880161
 31
0.0
  0
LINE
  5
8C8
100
AcDbEntity
  8
TABELLA
  6
CONTINUOUS
 62
     8
100
AcDbLine
 10
204.514894
 20
24.880161
 30
0.0
 11
204.514894
 21
14.880161
 31
0.0
  0
LINE
  5
8C9
100
AcDbEntity
  8
TABELLA
  6
CONTINUOUS
 62
     8
100
AcDbLine
 10
201.508086
 20
19.346584
 30
0.0
 11
200.140006
 21
23.105355
 31
0.0
1001
ACAD
1000
ASC_BOUNDS
1002
{
1070
    19
1002
}
  0
TEXT
  5
8CA
100
AcDbEntity
  8
TABELLA
  6
CONTINUOUS
 62
     8
100
AcDbText
 10
205.324621
 20
11.716471
 30
0.0
 40
2.0
  1
Disegno
100
AcDbText
  0
LINE
  5
8CB
100
AcDbEntity
  8
TABELLA
  6
CONTINUOUS
 62
     8
100
AcDbLine
 10
209.514894
 20
34.880161
 30
0.0
 11
209.514894
 21
24.880161
 31
0.0
  0
LINE
  5
8CC
100
AcDbEntity
  8
TABELLA
  6
CONTINUOUS
 62
     8
100
AcDbLine
 10
199.514894
 20
34.880161
 30
0.0
 11
199.514894
 21
44.880161
 31
0.0
  0
TEXT
  5
8CD
100
AcDbEntity
  8
TABELLA
  6
CONTINUOUS
 62
     8
100
AcDbText
 10
185.663295
 20
31.582777
 30
0.0
 40
2.0
  1
Controllato da
100
AcDbText
  0
LINE
  5
8CE
100
AcDbEntity
  8
TABELLA
  6
CONTINUOUS
 62
     8
100
AcDbLine
 10
198.087885
 20
9.949658
 30
0.0
 11
201.508086
 21
19.346584
 31
0.0
1001
ACAD
1000
ASC_BOUNDS
1002
{
1070
    19
1002
}
  0
LINE
  5
8CF
100
AcDbEntity
  8
TABELLA
  6
CONTINUOUS
 62
     8
100
AcDbLine
 10
197.387677
 20
10.949658
 30
0.0
 11
200.443909
 21
19.346584
 31
0.0
1001
ACAD
1000
ASC_BOUNDS
1002
{
1070
    19
1002
}
  0
LINE
  5
8D0
100
AcDbEntity
  8
TABELLA
  6
CONTINUOUS
 62
     8
100
AcDbLine
 10
200.443909
 20
19.346584
 30
0.0
 11
199.439798
 21
22.105355
 31
0.0
1001
ACAD
1000
ASC_BOUNDS
1002
{
1070
    19
1002
}
  0
LINE
  5
8D1
100
AcDbEntity
  8
TABELLA
  6
CONTINUOUS
 62
     8
100
AcDbLine
 10
204.514894
 20
14.880161
 30
0.0
 11
204.514894
 21
4.880161
 31
0.0
  0
TEXT
  5
8D2
100
AcDbEntity
  8
TABELLA
  6
CONTINUOUS
 62
     8
100
AcDbText
 10
205.555932
 20
21.880627
 30
0.0
 40
2.0
  1
Particolare
100
AcDbText
  0
TEXT
  5
8D3
100
AcDbEntity
  8
TABELLA
  6
CONTINUOUS
 62
     8
100
AcDbText
 10
210.644745
 20
31.582777
 30
0.0
 40
2.0
  1
Approvato da - data
100
AcDbText
  0
TEXT
  5
8D4
100
AcDbEntity
  8
TABELLA
  6
CONTINUOUS
 62
     8
100
AcDbText
 10
200.698427
 20
41.977937
 30
0.0
 40
2.0
  1
Dimensioni di prelievo
100
AcDbText
  0
LINE
  5
8D5
100
AcDbEntity
  8
TABELLA
  6
CONTINUOUS
 62
     8
100
AcDbLine
 10
204.514894
 20
14.950412
 30
0.0
 11
279.514894
 21
14.880161
 31
0.0
  0
LINE
  5
8D6
100
AcDbEntity
  8
TABELLA
  6
CONTINUOUS
 62
     8
100
AcDbLine
 10
209.514894
 20
24.880161
 30
0.0
 11
279.514894
 21
24.880161
 31
0.0
  0
LINE
  5
8D7
100
AcDbEntity
  8
TABELLA
  6
CONTINUOUS
 62
     8
100
AcDbLine
 10
209.514894
 20
34.880161
 30
0.0
 11
279.514894
 21
34.880161
 31
0.0
  0
TEXT
  5
8D8
100
AcDbEntity
  8
TABELLA
  6
CONTINUOUS
 62
     8
100
AcDbText
 10
245.803821
 20
11.716471
 30
0.0
 40
2.0
  1
Data
100
AcDbText
  0
TEXT
  5
8D9
100
AcDbEntity
  8
TABELLA
  6
CONTINUOUS
 62
     8
100
AcDbText
 10
245.572511
 20
31.582777
 30
0.0
 40
2.0
  1
Scala
100
AcDbText
  0
TEXT
  5
8DA
100
AcDbEntity
  8
TABELLA
  6
CONTINUOUS
 62
     8
100
AcDbText
 10
230.999999
 20
41.977937
 30
0.0
 40
2.0
  1
Trattamento Termico
100
AcDbText
  0
LINE
  5
8DB
100
AcDbEntity
  8
TABELLA
  6
CONTINUOUS
 62
     8
100
AcDbLine
 10
184.514894
 20
34.880161
 30
0.0
 11
184.514894
 21
24.880161
 31
0.0
  0
LINE
  5
8DC
100
AcDbEntity
  8
TABELLA
  6
CONTINUOUS
 62
     8
100
AcDbLine
 10
163.719804
 20
13.708428
 30
0.0
 11
165.087885
 21
9.949658
 31
0.0
1001
ACAD
1000
ASC_BOUNDS
1002
{
1070
    19
1002
}
  0
LINE
  5
8DD
100
AcDbEntity
  8
TABELLA
  6
CONTINUOUS
 62
     8
100
AcDbLine
 10
164.783982
 20
13.708428
 30
0.0
 11
165.788093
 21
10.949658
 31
0.0
1001
ACAD
1000
ASC_BOUNDS
1002
{
1070
    19
1002
}
  0
LINE
  5
8DE
100
AcDbEntity
  8
TABELLA
  6
CONTINUOUS
 62
     8
100
AcDbLine
 10
167.140006
 20
23.105355
 30
0.0
 11
163.719804
 21
13.708428
 31
0.0
1001
ACAD
1000
ASC_BOUNDS
1002
{
1070
    19
1002
}
  0
LINE
  5
8DF
100
AcDbEntity
  8
TABELLA
  6
CONTINUOUS
 62
     8
100
AcDbLine
 10
167.840213
 20
22.105355
 30
0.0
 11
164.783982
 21
13.708428
 31
0.0
1001
ACAD
1000
ASC_BOUNDS
1002
{
1070
    19
1002
}
  0
TEXT
  5
8E0
100
AcDbEntity
  8
TABELLA
  6
CONTINUOUS
 62
     8
100
AcDbText
 10
160.681848
 20
31.81378
 30
0.0
 40
2.0
  1
Disegnato da
100
AcDbText
  0
TEXT
  5
8E1
100
AcDbEntity
  8
TABELLA
  6
CONTINUOUS
 62
     8
100
AcDbText
 10
160.913157
 20
41.977937
 30
0.0
 40
2.0
  1
Materiale
100
AcDbText
  0
TEXT
  5
8E2
100
AcDbEntity
  8
TABELLA
  6
CONTINUOUS
 62
     8
100
AcDbText
 10
155.021386
 20
6.947121
 30
0.0
 40
1.5
  1
proprietà di questo disegno, con divieto
 50
90.0
100
AcDbText
  0
TEXT
  5
8E3
100
AcDbEntity
  8
TABELLA
  6
CONTINUOUS
 62
     8
100
AcDbText
 10
157.871386
 20
6.947121
 30
0.0
 40
1.5
  1
di riprodurlo e di comunicarlo a terzi.
 50
90.0
100
AcDbText
  0
LINE
  5
8E4
100
AcDbEntity
  8
TABELLA
  6
CONTINUOUS
 62
     8
100
AcDbLine
 10
159.525272
 20
44.880161
 30
0.0
 11
159.525272
 21
4.880161
 31
0.0
  0
TEXT
  5
8E5
100
AcDbEntity
  8
TABELLA
  6
CONTINUOUS
 62
     8
100
AcDbText
 10
152.171386
 20
6.947121
 30
0.0
 40
1.5
  1
A termine di legge la Rolleri si riserva la
 50
90.0
100
AcDbText
  0
LINE
  5
8E6
100
AcDbEntity
  8
TABELLA
  6
CONTINUOUS
 62
     8
100
AcDbLine
 10
149.525274
 20
44.887984
 30
0.0
 11
149.514894
 21
4.882755
 31
0.0
  0
TEXT
  5
8E7
100
AcDbEntity
  8
TABELLA
  6
CONTINUOUS
 62
     8
100
AcDbText
 10
91.004633
 20
41.824494
 30
0.0
 40
2.0
  1
TOLLERANZE GENERALI :
100
AcDbText
  0
TEXT
  5
8E8
100
AcDbEntity
  8
TABELLA
  6
CONTINUOUS
 62
     8
100
AcDbText
 10
91.004633
 20
19.024494
 30
0.0
 40
2.0
  1
   oltre 500 mm = +/- 0.5
100
AcDbText
  0
TEXT
  5
8E9
100
AcDbEntity
  8
TABELLA
  6
CONTINUOUS
 62
     8
100
AcDbText
 10
91.004633
 20
11.424494
 30
0.0
 40
2.0
  1
- Interassi fori = +/- 0.25
100
AcDbText
  0
TEXT
  5
8EA
100
AcDbEntity
  8
TABELLA
  6
CONTINUOUS
 62
     8
100
AcDbText
 10
91.004633
 20
38.024494
 30
0.0
 40
2.0
  1
- Parti fuse con spessori <10 mm = +/- 1 mm
100
AcDbText
  0
TEXT
  5
8EB
100
AcDbEntity
  8
TABELLA
  6
CONTINUOUS
 62
     8
100
AcDbText
 10
91.004633
 20
34.224494
 30
0.0
 40
2.0
  1
- Parti fuse con spessori >10 mm = +/- 10%
100
AcDbText
  0
TEXT
  5
8EC
100
AcDbEntity
  8
TABELLA
  6
CONTINUOUS
 62
     8
100
AcDbText
 10
91.004633
 20
30.424494
 30
0.0
 40
2.0
  1
- Superfici lavorate da mm 1 a mm 50 = +/- 0.2
100
AcDbText
  0
TEXT
  5
8ED
100
AcDbEntity
  8
TABELLA
  6
CONTINUOUS
 62
     8
100
AcDbText
 10
91.004633
 20
26.624494
 30
0.0
 40
2.0
  1
   da mm 51 a mm 150 = +/- 0.3
100
AcDbText
  0
TEXT
  5
8EE
100
AcDbEntity
  8
TABELLA
  6
CONTINUOUS
 62
     8
100
AcDbText
 10
91.004633
 20
22.824494
 30
0.0
 40
2.0
  1
   da mm 151 a mm 500 = +/- 0.4
100
AcDbText
  0
TEXT
  5
8EF
100
AcDbEntity
  8
TABELLA
  6
CONTINUOUS
 62
     8
100
AcDbText
 10
91.004633
 20
15.224494
 30
0.0
 40
2.0
  1
- Angoli su superfici lavorate = +/- 30'
100
AcDbText
  0
LINE
  5
8F0
100
AcDbEntity
  8
TABELLA
  6
CONTINUOUS
 62
     8
100
AcDbLine
 10
209.514894
 20
24.880161
 30
0.0
 11
159.514894
 21
24.880161
 31
0.0
  0
LINE
  5
8F1
100
AcDbEntity
  8
TABELLA
  6
CONTINUOUS
 62
     8
100
AcDbLine
 10
279.514894
 20
44.880161
 30
0.0
 11
89.429888
 21
44.888445
 31
0.0
  0
LINE
  5
8F2
100
AcDbEntity
  8
TABELLA
  6
CONTINUOUS
 62
     8
100
AcDbLine
 10
209.514894
 20
34.880161
 30
0.0
 11
159.514894
 21
34.880161
 31
0.0
  0
TEXT
  5
8F3
100
AcDbEntity
  8
TABELLA
  6
CONTINUOUS
 62
     8
100
AcDbText
 10
163.503645
 20
6.172386
 30
0.0
 40
2.0
  1
Vigolzone ( Piacenza ) - ITALIA
100
AcDbText
  0
LINE
  5
8F4
100
AcDbEntity
  8
TABELLA
  6
CONTINUOUS
 62
     8
100
AcDbLine
 10
165.087885
 20
9.949658
 30
0.0
 11
198.087885
 21
9.949658
 31
0.0
1001
ACAD
1000
ASC_BOUNDS
1002
{
1070
    19
1002
}
  0
LINE
  5
8F5
100
AcDbEntity
  8
TABELLA
  6
CONTINUOUS
 62
     8
100
AcDbLine
 10
200.140006
 20
23.105355
 30
0.0
 11
167.140006
 21
23.105355
 31
0.0
1001
ACAD
1000
ASC_BOUNDS
1002
{
1070
    19
1002
}
  0
LINE
  5
8F6
100
AcDbEntity
  8
TABELLA
  6
CONTINUOUS
 62
     8
100
AcDbLine
 10
165.788093
 20
10.949658
 30
0.0
 11
197.387677
 21
10.949658
 31
0.0
1001
ACAD
1000
ASC_BOUNDS
1002
{
1070
    19
1002
}
  0
LINE
  5
8F7
100
AcDbEntity
  8
TABELLA
  6
CONTINUOUS
 62
     8
100
AcDbLine
 10
199.439798
 20
22.105355
 30
0.0
 11
167.840213
 21
22.105355
 31
0.0
1001
ACAD
1000
ASC_BOUNDS
1002
{
1070
    19
1002
}
  0
TEXT
  5
8F8
100
AcDbEntity
  8
TABELLA
  6
CONTINUOUS
 62
     8
100
AcDbText
 10
167.624057
 20
13.616677
 30
0.0
 40
6.0
  1
ROLLERI
100
AcDbText
  0
LINE
  5
8F9
100
AcDbEntity
  8
TABELLA
  6
CONTINUOUS
 62
     8
100
AcDbLine
 10
89.514894
 20
4.880161
 30
0.0
 11
89.514894
 21
44.888441
 31
0.0
  0
LINE
  5
8FA
100
AcDbEntity
  8
TABELLA
  6
CONTINUOUS
 62
     8
100
AcDbLine
 10
275.514057
 20
164.880335
 30
0.0
 11
279.514894
 21
164.880335
 31
0.0
  0
LINE
  5
8FB
100
AcDbEntity
  8
TABELLA
  6
CONTINUOUS
 62
     8
100
AcDbLine
 10
275.514057
 20
154.880335
 30
0.0
 11
279.514894
 21
154.880335
 31
0.0
  0
LINE
  5
8FC
100
AcDbEntity
  8
TABELLA
  6
CONTINUOUS
 62
     8
100
AcDbLine
 10
275.514057
 20
144.880335
 30
0.0
 11
279.514894
 21
144.880335
 31
0.0
  0
TEXT
  5
8FD
100
AcDbEntity
  8
TABELLA
  6
CONTINUOUS
 62
     8
100
AcDbText
 10
278.942724
 20
145.521595
 30
0.0
 40
2.0
  1
Firma
 50
90.0
100
AcDbText
  0
TEXT
  5
8FE
100
AcDbEntity
  8
TABELLA
  6
CONTINUOUS
 62
     8
100
AcDbText
 10
278.942724
 20
155.288693
 30
0.0
 40
2.0
  1
Control.
 50
90.0
100
AcDbText
  0
LINE
  5
8FF
100
AcDbEntity
  8
TABELLA
  6
CONTINUOUS
 62
     8
100
AcDbLine
 10
275.514057
 20
129.880335
 30
0.0
 11
279.514894
 21
129.880335
 31
0.0
  0
LINE
  5
900
100
AcDbEntity
  8
TABELLA
  6
CONTINUOUS
 62
     8
100
AcDbLine
 10
275.514057
 20
54.880335
 30
0.0
 11
279.514894
 21
54.880335
 31
0.0
  0
TEXT
  5
901
100
AcDbEntity
  8
TABELLA
  6
CONTINUOUS
 62
     8
100
AcDbText
 10
278.942724
 20
55.771579
 30
0.0
 40
2.0
  1
Nota di revisione
 50
90.0
100
AcDbText
  0
TEXT
  5
902
100
AcDbEntity
  8
TABELLA
  6
CONTINUOUS
 62
     8
100
AcDbText
 10
278.942724
 20
130.477611
 30
0.0
 40
2.0
  1
Data
 50
90.0
100
AcDbText
  0
TEXT
  5
903
100
AcDbEntity
  8
TABELLA
  6
CONTINUOUS
 62
     8
100
AcDbText
 10
278.734647
 20
45.796671
 30
0.0
 40
2.0
  1
N° rev.
 50
90.0
100
AcDbText
  0
LINE
  5
904
100
AcDbEntity
  8
TABELLA
  6
CONTINUOUS
 62
     8
100
AcDbLine
 10
275.514057
 20
164.880335
 30
0.0
 11
275.514057
 21
44.880335
 31
0.0
  0
LINE
  5
905
100
AcDbEntity
  8
TABELLA
 62
     8
100
AcDbLine
 10
142.514894
 20
4.880161
 30
0.0
 11
144.824295
 21
0.880161
 31
0.0
  0
LINE
  5
906
100
AcDbEntity
  8
TABELLA
 62
     8
100
AcDbLine
 10
142.514894
 20
4.880161
 30
0.0
 11
140.205493
 21
0.880161
 31
0.0
  0
LINE
  5
907
100
AcDbEntity
  8
TABELLA
 62
     8
100
AcDbLine
 10
140.205493
 20
0.880161
 30
0.0
 11
144.824295
 21
0.880161
 31
0.0
  0
LINE
  5
908
100
AcDbEntity
  8
TABELLA
 62
     8
100
AcDbLine
 10
142.514894
 20
401.880161
 30
0.0
 11
144.824295
 21
405.880161
 31
0.0
  0
LINE
  5
909
100
AcDbEntity
  8
TABELLA
 62
     8
100
AcDbLine
 10
142.514894
 20
401.880161
 30
0.0
 11
140.205493
 21
405.880161
 31
0.0
  0
LINE
  5
90A
100
AcDbEntity
  8
TABELLA
 62
     8
100
AcDbLine
 10
140.205493
 20
405.880161
 30
0.0
 11
144.824295
 21
405.880161
 31
0.0
  0
TOLERANCE
  5
90B
100
AcDbEntity
  8
QUOTE
  6
CONTINUOUS
100
AcDbFcf
  3
ISO-25
 10
44.90537
 20
15.698898
 30
0.0
  1
{\Fgdt;b}%%v0.02%%v%%v%%v%%v
1001
ACAD
1000
DSTYLE
1002
{
1070
   140
1040
2.6
1070
    47
1040
0.02
1070
    73
1070
     0
1070
   272
1070
     2
1070
   147
1040
0.53
1070
    42
1040
0.5261
1070
    44
1040
1.0522
1070
    43
1040
3.1566
1070
   271
1070
     2
1070
   141
1040
2.1044
1070
    41
1040
2.6
1002
}
  0
TEXT
  5
90C
100
AcDbEntity
  8
QUOTE
100
AcDbText
 10
41.700816
 20
19.63483
 30
0.0
 40
2.5
  1
TOLLERANZE AL METRO
 41
1.1
100
AcDbText
  0
TOLERANCE
  5
90D
100
AcDbEntity
  8
QUOTE
  6
CONTINUOUS
100
AcDbFcf
  3
ISO-25
 10
60.463328
 20
15.698898
 30
0.0
  1
{\Fgdt;u}%%v0.02%%v%%v%%v%%v
1001
ACAD
1000
DSTYLE
1002
{
1070
   140
1040
2.6
1070
    47
1040
0.02
1070
    73
1070
     0
1070
   272
1070
     2
1070
   147
1040
0.53
1070
    42
1040
0.5261
1070
    44
1040
1.0522
1070
    43
1040
3.1566
1070
   271
1070
     2
1070
   141
1040
2.1044
1070
    41
1040
2.6
1002
}
  0
POLYLINE
  5
90E
100
AcDbEntity
  8
QUOTE
100
AcDb2dPolyline
 66
     1
 10
0.0
 20
0.0
 30
0.0
 70
     1
  0
VERTEX
  5
90F
100
AcDbEntity
  8
QUOTE
100
AcDbVertex
100
AcDb2dVertex
 10
41.107231
 20
24.09879
 30
0.0
  0
VERTEX
  5
910
100
AcDbEntity
  8
QUOTE
100
AcDbVertex
100
AcDb2dVertex
 10
41.107231
 20
11.384182
 30
0.0
  0
VERTEX
  5
911
100
AcDbEntity
  8
QUOTE
100
AcDbVertex
100
AcDb2dVertex
 10
82.22627
 20
11.384182
 30
0.0
  0
VERTEX
  5
912
100
AcDbEntity
  8
QUOTE
100
AcDbVertex
100
AcDb2dVertex
 10
82.22627
 20
24.09879
 30
0.0
  0
SEQEND
  5
913
100
AcDbEntity
  8
QUOTE
  0
ENDBLK
  5
915
100
AcDbEntity
  8
TABELLA
100
AcDbBlockEnd
  0
BLOCK
  5
994
100
AcDbEntity
  8
TABELLA
100
AcDbBlockBegin
  2
A$CD226
 70
     0
 10
0.0
 20
0.0
 30
0.0
  3
A$CD226
  1

  0
POLYLINE
  5
917
100
AcDbEntity
  8
TABELLA
 62
     8
100
AcDb2dPolyline
 66
     1
 10
0.0
 20
0.0
 30
0.0
 70
     1
  0
VERTEX
  5
918
100
AcDbEntity
  8
TABELLA
 62
     8
100
AcDbVertex
100
AcDb2dVertex
 10
279.859233
 20
401.902207
 30
0.0
  0
VERTEX
  5
919
100
AcDbEntity
  8
TABELLA
 62
     8
100
AcDbVertex
100
AcDb2dVertex
 10
279.859233
 20
4.902207
 30
0.0
  0
VERTEX
  5
91A
100
AcDbEntity
  8
TABELLA
 62
     8
100
AcDbVertex
100
AcDb2dVertex
 10
5.859233
 20
4.902207
 30
0.0
  0
VERTEX
  5
91B
100
AcDbEntity
  8
TABELLA
 62
     8
100
AcDbVertex
100
AcDb2dVertex
 10
5.859233
 20
401.902207
 30
0.0
  0
SEQEND
  5
91C
100
AcDbEntity
  8
TABELLA
 62
     8
  0
LINE
  5
91D
100
AcDbEntity
  8
TABELLA
 62
     8
100
AcDbLine
 10
142.859233
 20
0.902207
 30
0.0
 11
142.859233
 21
4.902207
 31
0.0
  0
LINE
  5
91E
100
AcDbEntity
  8
TABELLA
 62
     8
100
AcDbLine
 10
283.859233
 20
203.402207
 30
0.0
 11
279.859233
 21
203.402207
 31
0.0
  0
LINE
  5
91F
100
AcDbEntity
  8
TABELLA
 62
     8
100
AcDbLine
 10
107.609233
 20
0.902207
 30
0.0
 11
107.609233
 21
4.902207
 31
0.0
  0
LINE
  5
920
100
AcDbEntity
  8
TABELLA
 62
     8
100
AcDbLine
 10
72.359233
 20
0.902207
 30
0.0
 11
72.359233
 21
4.902207
 31
0.0
  0
LINE
  5
921
100
AcDbEntity
  8
TABELLA
 62
     8
100
AcDbLine
 10
37.109233
 20
0.902207
 30
0.0
 11
37.109233
 21
4.902207
 31
0.0
  0
LINE
  5
922
100
AcDbEntity
  8
TABELLA
 62
     8
100
AcDbLine
 10
178.109233
 20
0.902207
 30
0.0
 11
178.109233
 21
4.902207
 31
0.0
  0
LINE
  5
923
100
AcDbEntity
  8
TABELLA
 62
     8
100
AcDbLine
 10
213.359233
 20
0.902207
 30
0.0
 11
213.359233
 21
4.902207
 31
0.0
  0
LINE
  5
924
100
AcDbEntity
  8
TABELLA
 62
     8
100
AcDbLine
 10
248.609233
 20
0.902207
 30
0.0
 11
248.609233
 21
4.902207
 31
0.0
  0
LINE
  5
925
100
AcDbEntity
  8
TABELLA
 62
     8
100
AcDbLine
 10
283.859233
 20
238.402207
 30
0.0
 11
279.859233
 21
238.402207
 31
0.0
  0
LINE
  5
926
100
AcDbEntity
  8
TABELLA
 62
     8
100
AcDbLine
 10
283.859233
 20
273.402207
 30
0.0
 11
279.859233
 21
273.402207
 31
0.0
  0
LINE
  5
927
100
AcDbEntity
  8
TABELLA
 62
     8
100
AcDbLine
 10
283.859233
 20
308.402207
 30
0.0
 11
279.859233
 21
308.402207
 31
0.0
  0
LINE
  5
928
100
AcDbEntity
  8
TABELLA
 62
     8
100
AcDbLine
 10
283.859233
 20
343.402207
 30
0.0
 11
279.859233
 21
343.402207
 31
0.0
  0
LINE
  5
929
100
AcDbEntity
  8
TABELLA
 62
     8
100
AcDbLine
 10
283.859233
 20
378.402207
 30
0.0
 11
279.859233
 21
378.402207
 31
0.0
  0
LINE
  5
92A
100
AcDbEntity
  8
TABELLA
 62
     8
100
AcDbLine
 10
283.859233
 20
168.402207
 30
0.0
 11
279.859233
 21
168.402207
 31
0.0
  0
LINE
  5
92B
100
AcDbEntity
  8
TABELLA
 62
     8
100
AcDbLine
 10
283.859233
 20
133.402207
 30
0.0
 11
279.859233
 21
133.402207
 31
0.0
  0
LINE
  5
92C
100
AcDbEntity
  8
TABELLA
 62
     8
100
AcDbLine
 10
283.859233
 20
98.402207
 30
0.0
 11
279.859233
 21
98.402207
 31
0.0
  0
LINE
  5
92D
100
AcDbEntity
  8
TABELLA
 62
     8
100
AcDbLine
 10
283.859233
 20
63.402207
 30
0.0
 11
279.859233
 21
63.402207
 31
0.0
  0
LINE
  5
92E
100
AcDbEntity
  8
TABELLA
 62
     8
100
AcDbLine
 10
283.859233
 20
28.402207
 30
0.0
 11
279.859233
 21
28.402207
 31
0.0
  0
LINE
  5
92F
100
AcDbEntity
  8
TABELLA
 62
     8
100
AcDbLine
 10
1.859233
 20
28.402207
 30
0.0
 11
5.859233
 21
28.402207
 31
0.0
  0
LINE
  5
930
100
AcDbEntity
  8
TABELLA
 62
     8
100
AcDbLine
 10
1.859233
 20
63.402207
 30
0.0
 11
5.859233
 21
63.402207
 31
0.0
  0
LINE
  5
931
100
AcDbEntity
  8
TABELLA
 62
     8
100
AcDbLine
 10
1.859233
 20
98.402207
 30
0.0
 11
5.859233
 21
98.402207
 31
0.0
  0
LINE
  5
932
100
AcDbEntity
  8
TABELLA
 62
     8
100
AcDbLine
 10
1.859233
 20
133.402207
 30
0.0
 11
5.859233
 21
133.402207
 31
0.0
  0
LINE
  5
933
100
AcDbEntity
  8
TABELLA
 62
     8
100
AcDbLine
 10
1.859233
 20
168.402207
 30
0.0
 11
5.859233
 21
168.402207
 31
0.0
  0
LINE
  5
934
100
AcDbEntity
  8
TABELLA
 62
     8
100
AcDbLine
 10
1.859233
 20
378.402207
 30
0.0
 11
5.859233
 21
378.402207
 31
0.0
  0
LINE
  5
935
100
AcDbEntity
  8
TABELLA
 62
     8
100
AcDbLine
 10
1.859233
 20
343.402207
 30
0.0
 11
5.859233
 21
343.402207
 31
0.0
  0
LINE
  5
936
100
AcDbEntity
  8
TABELLA
 62
     8
100
AcDbLine
 10
1.859233
 20
308.402207
 30
0.0
 11
5.859233
 21
308.402207
 31
0.0
  0
LINE
  5
937
100
AcDbEntity
  8
TABELLA
 62
     8
100
AcDbLine
 10
1.859233
 20
273.402207
 30
0.0
 11
5.859233
 21
273.402207
 31
0.0
  0
LINE
  5
938
100
AcDbEntity
  8
TABELLA
 62
     8
100
AcDbLine
 10
1.859233
 20
238.402207
 30
0.0
 11
5.859233
 21
238.402207
 31
0.0
  0
LINE
  5
939
100
AcDbEntity
  8
TABELLA
 62
     8
100
AcDbLine
 10
1.859233
 20
203.402207
 30
0.0
 11
5.859233
 21
203.402207
 31
0.0
  0
LINE
  5
93A
100
AcDbEntity
  8
TABELLA
 62
     8
100
AcDbLine
 10
248.609233
 20
405.902207
 30
0.0
 11
248.609233
 21
401.902207
 31
0.0
  0
LINE
  5
93B
100
AcDbEntity
  8
TABELLA
 62
     8
100
AcDbLine
 10
213.359233
 20
405.902207
 30
0.0
 11
213.359233
 21
401.902207
 31
0.0
  0
LINE
  5
93C
100
AcDbEntity
  8
TABELLA
 62
     8
100
AcDbLine
 10
178.109233
 20
405.902207
 30
0.0
 11
178.109233
 21
401.902207
 31
0.0
  0
LINE
  5
93D
100
AcDbEntity
  8
TABELLA
 62
     8
100
AcDbLine
 10
37.109233
 20
405.902207
 30
0.0
 11
37.109233
 21
401.902207
 31
0.0
  0
LINE
  5
93E
100
AcDbEntity
  8
TABELLA
 62
     8
100
AcDbLine
 10
72.359233
 20
405.902207
 30
0.0
 11
72.359233
 21
401.902207
 31
0.0
  0
LINE
  5
93F
100
AcDbEntity
  8
TABELLA
 62
     8
100
AcDbLine
 10
107.609233
 20
405.902207
 30
0.0
 11
107.609233
 21
401.902207
 31
0.0
  0
LINE
  5
940
100
AcDbEntity
  8
TABELLA
 62
     8
100
AcDbLine
 10
142.859233
 20
405.902207
 30
0.0
 11
142.859233
 21
401.902207
 31
0.0
  0
LINE
  5
941
100
AcDbEntity
  8
TABELLA
  6
CONTINUOUS
 62
     8
100
AcDbLine
 10
279.859233
 20
4.902207
 30
0.0
 11
279.859233
 21
34.902207
 31
0.0
  0
LINE
  5
942
100
AcDbEntity
  8
TABELLA
  6
CONTINUOUS
 62
     8
100
AcDbLine
 10
271.904834
 20
29.989322
 30
0.0
 11
276.113634
 21
29.989322
 31
0.0
  0
TEXT
  5
943
100
AcDbEntity
  8
TABELLA
  6
CONTINUOUS
 62
     8
100
AcDbText
 10
266.040794
 20
11.507515
 30
0.0
 40
2.0
  1
Formato
100
AcDbText
  0
LINE
  5
944
100
AcDbEntity
  8
TABELLA
  6
CONTINUOUS
 62
     8
100
AcDbLine
 10
266.733426
 20
32.531211
 30
0.0
 11
266.733426
 21
27.447433
 31
0.0
  0
CIRCLE
  5
945
100
AcDbEntity
  8
TABELLA
  6
CONTINUOUS
 62
     8
100
AcDbCircle
 10
274.009234
 20
29.989322
 30
0.0
 40
2.54
  0
LINE
  5
946
100
AcDbEntity
  8
TABELLA
  6
CONTINUOUS
 62
     8
100
AcDbLine
 10
274.009234
 20
27.884922
 30
0.0
 11
274.009234
 21
32.093722
 31
0.0
  0
CIRCLE
  5
947
100
AcDbEntity
  8
TABELLA
  6
CONTINUOUS
 62
     8
100
AcDbCircle
 10
274.009234
 20
29.989322
 30
0.0
 40
1.5
  0
LINE
  5
948
100
AcDbEntity
  8
TABELLA
  6
CONTINUOUS
 62
     8
100
AcDbLine
 10
259.859233
 20
34.902207
 30
0.0
 11
259.859233
 21
24.902207
 31
0.0
  0
LINE
  5
949
100
AcDbEntity
  8
TABELLA
  6
CONTINUOUS
 62
     8
100
AcDbLine
 10
260.82458
 20
31.489322
 30
0.0
 11
260.82458
 21
28.489322
 31
0.0
  0
LINE
  5
94A
100
AcDbEntity
  8
TABELLA
  6
CONTINUOUS
 62
     8
100
AcDbLine
 10
260.82458
 20
28.489322
 30
0.0
 11
266.733426
 21
27.447433
 31
0.0
  0
LINE
  5
94B
100
AcDbEntity
  8
TABELLA
  6
CONTINUOUS
 62
     8
100
AcDbLine
 10
260.82458
 20
31.489322
 30
0.0
 11
266.733426
 21
32.531211
 31
0.0
  0
LINE
  5
94C
100
AcDbEntity
  8
TABELLA
  6
CONTINUOUS
 62
     8
100
AcDbLine
 10
264.859233
 20
14.902207
 30
0.0
 11
264.859233
 21
4.902207
 31
0.0
  0
LINE
  5
94D
100
AcDbEntity
  8
TABELLA
  6
CONTINUOUS
 62
     8
100
AcDbLine
 10
260.82458
 20
29.989322
 30
0.0
 11
278.751082
 21
29.989322
 31
0.0
  0
LINE
  5
94E
100
AcDbEntity
  8
TABELLA
  6
CONTINUOUS
 62
     8
100
AcDbLine
 10
244.859233
 20
34.902207
 30
0.0
 11
244.859233
 21
24.902207
 31
0.0
  0
LINE
  5
94F
100
AcDbEntity
  8
TABELLA
  6
CONTINUOUS
 62
     8
100
AcDbLine
 10
229.859233
 20
34.902207
 30
0.0
 11
229.859233
 21
44.902207
 31
0.0
  0
LINE
  5
950
100
AcDbEntity
  8
TABELLA
  6
CONTINUOUS
 62
     8
100
AcDbLine
 10
244.859233
 20
14.902207
 30
0.0
 11
244.859233
 21
4.902207
 31
0.0
  0
LINE
  5
951
100
AcDbEntity
  8
TABELLA
  6
CONTINUOUS
 62
     8
100
AcDbLine
 10
204.859233
 20
24.902207
 30
0.0
 11
204.859233
 21
14.902207
 31
0.0
  0
LINE
  5
952
100
AcDbEntity
  8
TABELLA
  6
CONTINUOUS
 62
     8
100
AcDbLine
 10
201.852425
 20
19.368631
 30
0.0
 11
200.484344
 21
23.127401
 31
0.0
1001
ACAD
1000
ASC_BOUNDS
1002
{
1070
    19
1002
}
  0
TEXT
  5
953
100
AcDbEntity
  8
TABELLA
  6
CONTINUOUS
 62
     8
100
AcDbText
 10
205.668959
 20
11.738518
 30
0.0
 40
2.0
  1
Disegno
100
AcDbText
  0
LINE
  5
954
100
AcDbEntity
  8
TABELLA
  6
CONTINUOUS
 62
     8
100
AcDbLine
 10
209.859233
 20
34.902207
 30
0.0
 11
209.859233
 21
24.902207
 31
0.0
  0
LINE
  5
955
100
AcDbEntity
  8
TABELLA
  6
CONTINUOUS
 62
     8
100
AcDbLine
 10
199.859233
 20
34.902207
 30
0.0
 11
199.859233
 21
44.902207
 31
0.0
  0
TEXT
  5
956
100
AcDbEntity
  8
TABELLA
  6
CONTINUOUS
 62
     8
100
AcDbText
 10
186.007634
 20
31.604823
 30
0.0
 40
2.0
  1
Controllato da
100
AcDbText
  0
LINE
  5
957
100
AcDbEntity
  8
TABELLA
  6
CONTINUOUS
 62
     8
100
AcDbLine
 10
198.432223
 20
9.971704
 30
0.0
 11
201.852425
 21
19.368631
 31
0.0
1001
ACAD
1000
ASC_BOUNDS
1002
{
1070
    19
1002
}
  0
LINE
  5
958
100
AcDbEntity
  8
TABELLA
  6
CONTINUOUS
 62
     8
100
AcDbLine
 10
197.732016
 20
10.971704
 30
0.0
 11
200.788247
 21
19.368631
 31
0.0
1001
ACAD
1000
ASC_BOUNDS
1002
{
1070
    19
1002
}
  0
LINE
  5
959
100
AcDbEntity
  8
TABELLA
  6
CONTINUOUS
 62
     8
100
AcDbLine
 10
200.788247
 20
19.368631
 30
0.0
 11
199.784137
 21
22.127401
 31
0.0
1001
ACAD
1000
ASC_BOUNDS
1002
{
1070
    19
1002
}
  0
LINE
  5
95A
100
AcDbEntity
  8
TABELLA
  6
CONTINUOUS
 62
     8
100
AcDbLine
 10
204.859233
 20
14.902207
 30
0.0
 11
204.859233
 21
4.902207
 31
0.0
  0
TEXT
  5
95B
100
AcDbEntity
  8
TABELLA
  6
CONTINUOUS
 62
     8
100
AcDbText
 10
205.90027
 20
21.902674
 30
0.0
 40
2.0
  1
Particolare
100
AcDbText
  0
TEXT
  5
95C
100
AcDbEntity
  8
TABELLA
  6
CONTINUOUS
 62
     8
100
AcDbText
 10
210.989083
 20
31.604823
 30
0.0
 40
2.0
  1
Approvato da - data
100
AcDbText
  0
TEXT
  5
95D
100
AcDbEntity
  8
TABELLA
  6
CONTINUOUS
 62
     8
100
AcDbText
 10
201.042765
 20
41.999983
 30
0.0
 40
2.0
  1
Dimensioni di prelievo
100
AcDbText
  0
LINE
  5
95E
100
AcDbEntity
  8
TABELLA
  6
CONTINUOUS
 62
     8
100
AcDbLine
 10
204.859233
 20
14.972459
 30
0.0
 11
279.859233
 21
14.902207
 31
0.0
  0
LINE
  5
95F
100
AcDbEntity
  8
TABELLA
  6
CONTINUOUS
 62
     8
100
AcDbLine
 10
209.859233
 20
24.902207
 30
0.0
 11
279.859233
 21
24.902207
 31
0.0
  0
LINE
  5
960
100
AcDbEntity
  8
TABELLA
  6
CONTINUOUS
 62
     8
100
AcDbLine
 10
209.859233
 20
34.902207
 30
0.0
 11
279.859233
 21
34.902207
 31
0.0
  0
TEXT
  5
961
100
AcDbEntity
  8
TABELLA
  6
CONTINUOUS
 62
     8
100
AcDbText
 10
246.14816
 20
11.738518
 30
0.0
 40
2.0
  1
Data
100
AcDbText
  0
TEXT
  5
962
100
AcDbEntity
  8
TABELLA
  6
CONTINUOUS
 62
     8
100
AcDbText
 10
245.916849
 20
31.604823
 30
0.0
 40
2.0
  1
Scala
100
AcDbText
  0
TEXT
  5
963
100
AcDbEntity
  8
TABELLA
  6
CONTINUOUS
 62
     8
100
AcDbText
 10
231.344337
 20
41.999983
 30
0.0
 40
2.0
  1
Trattamento Termico
100
AcDbText
  0
LINE
  5
964
100
AcDbEntity
  8
TABELLA
  6
CONTINUOUS
 62
     8
100
AcDbLine
 10
184.859233
 20
34.902207
 30
0.0
 11
184.859233
 21
24.902207
 31
0.0
  0
LINE
  5
965
100
AcDbEntity
  8
TABELLA
  6
CONTINUOUS
 62
     8
100
AcDbLine
 10
164.064143
 20
13.730475
 30
0.0
 11
165.432223
 21
9.971704
 31
0.0
1001
ACAD
1000
ASC_BOUNDS
1002
{
1070
    19
1002
}
  0
LINE
  5
966
100
AcDbEntity
  8
TABELLA
  6
CONTINUOUS
 62
     8
100
AcDbLine
 10
165.128321
 20
13.730475
 30
0.0
 11
166.132431
 21
10.971704
 31
0.0
1001
ACAD
1000
ASC_BOUNDS
1002
{
1070
    19
1002
}
  0
LINE
  5
967
100
AcDbEntity
  8
TABELLA
  6
CONTINUOUS
 62
     8
100
AcDbLine
 10
167.484344
 20
23.127401
 30
0.0
 11
164.064143
 21
13.730475
 31
0.0
1001
ACAD
1000
ASC_BOUNDS
1002
{
1070
    19
1002
}
  0
LINE
  5
968
100
AcDbEntity
  8
TABELLA
  6
CONTINUOUS
 62
     8
100
AcDbLine
 10
168.184552
 20
22.127401
 30
0.0
 11
165.128321
 21
13.730475
 31
0.0
1001
ACAD
1000
ASC_BOUNDS
1002
{
1070
    19
1002
}
  0
TEXT
  5
969
100
AcDbEntity
  8
TABELLA
  6
CONTINUOUS
 62
     8
100
AcDbText
 10
161.026186
 20
31.835827
 30
0.0
 40
2.0
  1
Disegnato da
100
AcDbText
  0
TEXT
  5
96A
100
AcDbEntity
  8
TABELLA
  6
CONTINUOUS
 62
     8
100
AcDbText
 10
161.257495
 20
41.999983
 30
0.0
 40
2.0
  1
Materiale
100
AcDbText
  0
TEXT
  5
96B
100
AcDbEntity
  8
TABELLA
  6
CONTINUOUS
 62
     8
100
AcDbText
 10
155.365725
 20
6.969168
 30
0.0
 40
1.5
  1
proprietà di questo disegno, con divieto
 50
90.0
100
AcDbText
  0
TEXT
  5
96C
100
AcDbEntity
  8
TABELLA
  6
CONTINUOUS
 62
     8
100
AcDbText
 10
158.215725
 20
6.969168
 30
0.0
 40
1.5
  1
di riprodurlo e di comunicarlo a terzi.
 50
90.0
100
AcDbText
  0
LINE
  5
96D
100
AcDbEntity
  8
TABELLA
  6
CONTINUOUS
 62
     8
100
AcDbLine
 10
159.869611
 20
44.902207
 30
0.0
 11
159.869611
 21
4.902207
 31
0.0
  0
TEXT
  5
96E
100
AcDbEntity
  8
TABELLA
  6
CONTINUOUS
 62
     8
100
AcDbText
 10
152.515725
 20
6.969168
 30
0.0
 40
1.5
  1
A termine di legge la Rolleri si riserva la
 50
90.0
100
AcDbText
  0
LINE
  5
96F
100
AcDbEntity
  8
TABELLA
  6
CONTINUOUS
 62
     8
100
AcDbLine
 10
149.869612
 20
44.910031
 30
0.0
 11
149.859233
 21
4.904802
 31
0.0
  0
TEXT
  5
970
100
AcDbEntity
  8
TABELLA
  6
CONTINUOUS
 62
     8
100
AcDbText
 10
91.348971
 20
41.84654
 30
0.0
 40
2.0
  1
TOLLERANZE GENERALI :
100
AcDbText
  0
TEXT
  5
971
100
AcDbEntity
  8
TABELLA
  6
CONTINUOUS
 62
     8
100
AcDbText
 10
91.348971
 20
19.04654
 30
0.0
 40
2.0
  1
   oltre 500 mm = +/- 0.5
100
AcDbText
  0
TEXT
  5
972
100
AcDbEntity
  8
TABELLA
  6
CONTINUOUS
 62
     8
100
AcDbText
 10
91.348971
 20
11.44654
 30
0.0
 40
2.0
  1
- Interassi fori = +/- 0.25
100
AcDbText
  0
TEXT
  5
973
100
AcDbEntity
  8
TABELLA
  6
CONTINUOUS
 62
     8
100
AcDbText
 10
91.348971
 20
38.04654
 30
0.0
 40
2.0
  1
- Parti fuse con spessori <10 mm = +/- 1 mm
100
AcDbText
  0
TEXT
  5
974
100
AcDbEntity
  8
TABELLA
  6
CONTINUOUS
 62
     8
100
AcDbText
 10
91.348971
 20
34.24654
 30
0.0
 40
2.0
  1
- Parti fuse con spessori >10 mm = +/- 10%
100
AcDbText
  0
TEXT
  5
975
100
AcDbEntity
  8
TABELLA
  6
CONTINUOUS
 62
     8
100
AcDbText
 10
91.348971
 20
30.44654
 30
0.0
 40
2.0
  1
- Superfici lavorate da mm 1 a mm 50 = +/- 0.2
100
AcDbText
  0
TEXT
  5
976
100
AcDbEntity
  8
TABELLA
  6
CONTINUOUS
 62
     8
100
AcDbText
 10
91.348971
 20
26.64654
 30
0.0
 40
2.0
  1
   da mm 51 a mm 150 = +/- 0.3
100
AcDbText
  0
TEXT
  5
977
100
AcDbEntity
  8
TABELLA
  6
CONTINUOUS
 62
     8
100
AcDbText
 10
91.348971
 20
22.84654
 30
0.0
 40
2.0
  1
   da mm 151 a mm 500 = +/- 0.4
100
AcDbText
  0
TEXT
  5
978
100
AcDbEntity
  8
TABELLA
  6
CONTINUOUS
 62
     8
100
AcDbText
 10
91.348971
 20
15.24654
 30
0.0
 40
2.0
  1
- Angoli su superfici lavorate = +/- 30'
100
AcDbText
  0
LINE
  5
979
100
AcDbEntity
  8
TABELLA
  6
CONTINUOUS
 62
     8
100
AcDbLine
 10
209.859233
 20
24.902207
 30
0.0
 11
159.859233
 21
24.902207
 31
0.0
  0
LINE
  5
97A
100
AcDbEntity
  8
TABELLA
  6
CONTINUOUS
 62
     8
100
AcDbLine
 10
279.859233
 20
44.902207
 30
0.0
 11
89.774226
 21
44.910491
 31
0.0
  0
LINE
  5
97B
100
AcDbEntity
  8
TABELLA
  6
CONTINUOUS
 62
     8
100
AcDbLine
 10
209.859233
 20
34.902207
 30
0.0
 11
159.859233
 21
34.902207
 31
0.0
  0
TEXT
  5
97C
100
AcDbEntity
  8
TABELLA
  6
CONTINUOUS
 62
     8
100
AcDbText
 10
163.847984
 20
6.194433
 30
0.0
 40
2.0
  1
Vigolzone ( Piacenza ) - ITALIA
100
AcDbText
  0
LINE
  5
97D
100
AcDbEntity
  8
TABELLA
  6
CONTINUOUS
 62
     8
100
AcDbLine
 10
165.432223
 20
9.971704
 30
0.0
 11
198.432223
 21
9.971704
 31
0.0
1001
ACAD
1000
ASC_BOUNDS
1002
{
1070
    19
1002
}
  0
LINE
  5
97E
100
AcDbEntity
  8
TABELLA
  6
CONTINUOUS
 62
     8
100
AcDbLine
 10
200.484344
 20
23.127401
 30
0.0
 11
167.484344
 21
23.127401
 31
0.0
1001
ACAD
1000
ASC_BOUNDS
1002
{
1070
    19
1002
}
  0
LINE
  5
97F
100
AcDbEntity
  8
TABELLA
  6
CONTINUOUS
 62
     8
100
AcDbLine
 10
166.132431
 20
10.971704
 30
0.0
 11
197.732016
 21
10.971704
 31
0.0
1001
ACAD
1000
ASC_BOUNDS
1002
{
1070
    19
1002
}
  0
LINE
  5
980
100
AcDbEntity
  8
TABELLA
  6
CONTINUOUS
 62
     8
100
AcDbLine
 10
199.784137
 20
22.127401
 30
0.0
 11
168.184552
 21
22.127401
 31
0.0
1001
ACAD
1000
ASC_BOUNDS
1002
{
1070
    19
1002
}
  0
TEXT
  5
981
100
AcDbEntity
  8
TABELLA
  6
CONTINUOUS
 62
     8
100
AcDbText
 10
167.968395
 20
13.638723
 30
0.0
 40
6.0
  1
ROLLERI
100
AcDbText
  0
LINE
  5
982
100
AcDbEntity
  8
TABELLA
  6
CONTINUOUS
 62
     8
100
AcDbLine
 10
89.859233
 20
4.902207
 30
0.0
 11
89.859233
 21
44.910488
 31
0.0
  0
LINE
  5
983
100
AcDbEntity
  8
TABELLA
  6
CONTINUOUS
 62
     8
100
AcDbLine
 10
275.858396
 20
164.902381
 30
0.0
 11
279.859233
 21
164.902381
 31
0.0
  0
LINE
  5
984
100
AcDbEntity
  8
TABELLA
  6
CONTINUOUS
 62
     8
100
AcDbLine
 10
275.858396
 20
154.902381
 30
0.0
 11
279.859233
 21
154.902381
 31
0.0
  0
LINE
  5
985
100
AcDbEntity
  8
TABELLA
  6
CONTINUOUS
 62
     8
100
AcDbLine
 10
275.858396
 20
144.902381
 30
0.0
 11
279.859233
 21
144.902381
 31
0.0
  0
TEXT
  5
986
100
AcDbEntity
  8
TABELLA
  6
CONTINUOUS
 62
     8
100
AcDbText
 10
279.287063
 20
145.543642
 30
0.0
 40
2.0
  1
Firma
 50
90.0
100
AcDbText
  0
TEXT
  5
987
100
AcDbEntity
  8
TABELLA
  6
CONTINUOUS
 62
     8
100
AcDbText
 10
279.287063
 20
155.31074
 30
0.0
 40
2.0
  1
Control.
 50
90.0
100
AcDbText
  0
LINE
  5
988
100
AcDbEntity
  8
TABELLA
  6
CONTINUOUS
 62
     8
100
AcDbLine
 10
275.858396
 20
129.902381
 30
0.0
 11
279.859233
 21
129.902381
 31
0.0
  0
LINE
  5
989
100
AcDbEntity
  8
TABELLA
  6
CONTINUOUS
 62
     8
100
AcDbLine
 10
275.858396
 20
54.902381
 30
0.0
 11
279.859233
 21
54.902381
 31
0.0
  0
TEXT
  5
98A
100
AcDbEntity
  8
TABELLA
  6
CONTINUOUS
 62
     8
100
AcDbText
 10
279.287063
 20
55.793626
 30
0.0
 40
2.0
  1
Nota di revisione
 50
90.0
100
AcDbText
  0
TEXT
  5
98B
100
AcDbEntity
  8
TABELLA
  6
CONTINUOUS
 62
     8
100
AcDbText
 10
279.287063
 20
130.499657
 30
0.0
 40
2.0
  1
Data
 50
90.0
100
AcDbText
  0
TEXT
  5
98C
100
AcDbEntity
  8
TABELLA
  6
CONTINUOUS
 62
     8
100
AcDbText
 10
279.078985
 20
45.818718
 30
0.0
 40
2.0
  1
N° rev.
 50
90.0
100
AcDbText
  0
LINE
  5
98D
100
AcDbEntity
  8
TABELLA
  6
CONTINUOUS
 62
     8
100
AcDbLine
 10
275.858396
 20
164.902381
 30
0.0
 11
275.858396
 21
44.902381
 31
0.0
  0
LINE
  5
98E
100
AcDbEntity
  8
TABELLA
 62
     8
100
AcDbLine
 10
142.859233
 20
4.902207
 30
0.0
 11
145.168634
 21
0.902207
 31
0.0
  0
LINE
  5
98F
100
AcDbEntity
  8
TABELLA
 62
     8
100
AcDbLine
 10
142.859233
 20
4.902207
 30
0.0
 11
140.549831
 21
0.902207
 31
0.0
  0
LINE
  5
990
100
AcDbEntity
  8
TABELLA
 62
     8
100
AcDbLine
 10
140.549831
 20
0.902207
 30
0.0
 11
145.168634
 21
0.902207
 31
0.0
  0
LINE
  5
991
100
AcDbEntity
  8
TABELLA
 62
     8
100
AcDbLine
 10
142.859233
 20
401.902207
 30
0.0
 11
145.168634
 21
405.902207
 31
0.0
  0
LINE
  5
992
100
AcDbEntity
  8
TABELLA
 62
     8
100
AcDbLine
 10
142.859233
 20
401.902207
 30
0.0
 11
140.549831
 21
405.902207
 31
0.0
  0
LINE
  5
993
100
AcDbEntity
  8
TABELLA
 62
     8
100
AcDbLine
 10
140.549831
 20
405.902207
 30
0.0
 11
145.168634
 21
405.902207
 31
0.0
  0
ENDBLK
  5
995
100
AcDbEntity
  8
TABELLA
100
AcDbBlockEnd
  0
BLOCK
  5
9A1
100
AcDbEntity
  8
TABELLA
100
AcDbBlockBegin
  2
A$CD363
 70
     0
 10
0.0
 20
0.0
 30
0.0
  3
A$CD363
  1

  0
TOLERANCE
  5
998
100
AcDbEntity
  8
QUOTE
  6
CONTINUOUS
100
AcDbFcf
  3
ISO-25
 10
4.163855
 20
4.418039
 30
0.0
  1
{\Fgdt;b}%%v0.02%%v%%v%%v%%v
1001
ACAD
1000
DSTYLE
1002
{
1070
   140
1040
2.6
1070
    47
1040
0.02
1070
    73
1070
     0
1070
   272
1070
     2
1070
   147
1040
0.53
1070
    42
1040
0.5261
1070
    44
1040
1.0522
1070
    43
1040
3.1566
1070
   271
1070
     2
1070
   141
1040
2.1044
1070
    41
1040
2.6
1002
}
  0
TEXT
  5
999
100
AcDbEntity
  8
QUOTE
100
AcDbText
 10
0.9593
 20
8.353971
 30
0.0
 40
2.5
  1
TOLLERANZE AL METRO
 41
1.1
100
AcDbText
  0
TOLERANCE
  5
99A
100
AcDbEntity
  8
QUOTE
  6
CONTINUOUS
100
AcDbFcf
  3
ISO-25
 10
19.721812
 20
4.418039
 30
0.0
  1
{\Fgdt;u}%%v0.02%%v%%v%%v%%v
1001
ACAD
1000
DSTYLE
1002
{
1070
   140
1040
2.6
1070
    47
1040
0.02
1070
    73
1070
     0
1070
   272
1070
     2
1070
   147
1040
0.53
1070
    42
1040
0.5261
1070
    44
1040
1.0522
1070
    43
1040
3.1566
1070
   271
1070
     2
1070
   141
1040
2.1044
1070
    41
1040
2.6
1002
}
  0
POLYLINE
  5
99B
100
AcDbEntity
  8
QUOTE
100
AcDb2dPolyline
 66
     1
 10
0.0
 20
0.0
 30
0.0
 70
     1
  0
VERTEX
  5
99C
100
AcDbEntity
  8
QUOTE
100
AcDbVertex
100
AcDb2dVertex
 10
0.365715
 20
12.817932
 30
0.0
  0
VERTEX
  5
99D
100
AcDbEntity
  8
QUOTE
100
AcDbVertex
100
AcDb2dVertex
 10
0.365715
 20
0.103323
 30
0.0
  0
VERTEX
  5
99E
100
AcDbEntity
  8
QUOTE
100
AcDbVertex
100
AcDb2dVertex
 10
41.484755
 20
0.103323
 30
0.0
  0
VERTEX
  5
99F
100
AcDbEntity
  8
QUOTE
100
AcDbVertex
100
AcDb2dVertex
 10
41.484755
 20
12.817932
 30
0.0
  0
SEQEND
  5
9A0
100
AcDbEntity
  8
QUOTE
  0
ENDBLK
  5
9A2
100
AcDbEntity
  8
TABELLA
100
AcDbBlockEnd
  0
BLOCK
  5
20B0
100
AcDbEntity
  8
QUOTE
100
AcDbBlockBegin
  2
A$CA330
 70
     0
 10
0.0
 20
0.0
 30
0.0
  3
A$CA330
  1

  0
LINE
  5
208F
100
AcDbEntity
  8
DISEGNO
100
AcDbLine
 10
44.588672
 20
11.873569
 30
0.0
 11
44.588672
 21
12.899964
 31
0.0
  0
LINE
  5
2090
100
AcDbEntity
  8
DISEGNO
100
AcDbLine
 10
44.588672
 20
12.899964
 30
0.0
 11
0.281151
 21
60.413964
 31
0.0
  0
LINE
  5
2091
100
AcDbEntity
  8
DISEGNO
100
AcDbLine
 10
62.281151
 20
7.913871
 30
0.0
 11
33.281151
 21
58.143344
 31
0.0
1001
ACAD
1000
ASC_BOUNDS
1002
{
1070
    19
1005
0
1002
}
  0
LINE
  5
2092
100
AcDbEntity
  8
DISEGNO
100
AcDbLine
 10
16.281151
 20
220.873569
 30
0.0
 11
0.281151
 21
204.873569
 31
0.0
  0
LINE
  5
2093
100
AcDbEntity
  8
DISEGNO
100
AcDbLine
 10
33.281151
 20
178.851355
 30
0.0
 11
33.281151
 21
58.143344
 31
0.0
  0
LINE
  5
2094
100
AcDbEntity
  8
DISEGNO
100
AcDbLine
 10
85.281151
 20
208.873569
 30
0.0
 11
33.281151
 21
178.851355
 31
0.0
  0
LINE
  5
2095
100
AcDbEntity
  8
DISEGNO
100
AcDbLine
 10
0.281151
 20
204.873569
 30
0.0
 11
0.281151
 21
60.413964
 31
0.0
  0
LINE
  5
2096
100
AcDbEntity
  8
DISEGNO
100
AcDbLine
 10
54.549797
 20
1.191571
 30
0.0
 11
44.588672
 21
11.873569
 31
0.0
1001
ACAD
1000
ASC_BOUNDS
1002
{
1070
    19
1005
0
1002
}
  0
LINE
  5
2097
100
AcDbEntity
  8
DISEGNO
100
AcDbLine
 10
56.012504
 20
1.191571
 30
0.0
 11
62.281151
 21
7.913871
 31
0.0
1001
ACAD
1000
ASC_BOUNDS
1002
{
1070
    19
1005
0
1002
}
  0
ARC
  5
2098
100
AcDbEntity
  8
DISEGNO
100
AcDbCircle
 10
55.281151
 20
1.873569
 30
0.0
 40
1.0
100
AcDbArc
 50
223.0
 51
317.0
1001
ACAD
1000
ASC_BOUNDS
1002
{
1070
    19
1005
0
1005
0
1002
}
  0
LINE
  5
2099
100
AcDbEntity
  8
DISEGNO
100
AcDbLine
 10
84.781151
 20
220.873569
 30
0.0
 11
85.281151
 21
220.373569
 31
0.0
  0
LINE
  5
209A
100
AcDbEntity
  8
DISEGNO
100
AcDbLine
 10
65.281151
 20
237.373569
 30
0.0
 11
65.281151
 21
222.287783
 31
0.0
  0
LINE
  5
209B
100
AcDbEntity
  8
DISEGNO
100
AcDbLine
 10
65.281151
 20
245.873569
 30
0.0
 11
61.781151
 21
242.373569
 31
0.0
  0
LINE
  5
209C
100
AcDbEntity
  8
DISEGNO
100
AcDbLine
 10
61.781151
 20
242.373569
 30
0.0
 11
61.781151
 21
240.873569
 31
0.0
  0
LINE
  5
209D
100
AcDbEntity
  8
DISEGNO
100
AcDbLine
 10
65.281151
 20
237.373569
 30
0.0
 11
61.781151
 21
240.873569
 31
0.0
  0
LINE
  5
209E
100
AcDbEntity
  8
DISEGNO
100
AcDbLine
 10
45.281151
 20
237.373569
 30
0.0
 11
45.281151
 21
222.287783
 31
0.0
  0
LINE
  5
209F
100
AcDbEntity
  8
DISEGNO
100
AcDbLine
 10
45.281151
 20
237.373569
 30
0.0
 11
48.781151
 21
240.873569
 31
0.0
  0
LINE
  5
20A0
100
AcDbEntity
  8
DISEGNO
100
AcDbLine
 10
48.781151
 20
242.373569
 30
0.0
 11
48.781151
 21
240.873569
 31
0.0
  0
LINE
  5
20A1
100
AcDbEntity
  8
DISEGNO
100
AcDbLine
 10
45.281151
 20
245.873569
 30
0.0
 11
48.781151
 21
242.373569
 31
0.0
  0
LINE
  5
20A2
100
AcDbEntity
  8
DISEGNO
100
AcDbLine
 10
64.781151
 20
256.873569
 30
0.0
 11
65.281151
 21
256.373569
 31
0.0
  0
LINE
  5
20A3
100
AcDbEntity
  8
DISEGNO
100
AcDbLine
 10
45.781151
 20
256.873569
 30
0.0
 11
45.281151
 21
256.373569
 31
0.0
  0
LINE
  5
20A4
100
AcDbEntity
  8
DISEGNO
100
AcDbLine
 10
65.281151
 20
222.287783
 30
0.0
 11
64.220491
 21
221.227122
 31
0.0
  0
LINE
  5
20A5
100
AcDbEntity
  8
DISEGNO
100
AcDbLine
 10
66.695364
 20
220.873569
 30
0.0
 11
65.634704
 21
219.812909
 31
0.0
  0
LINE
  5
20A6
100
AcDbEntity
  8
DISEGNO
100
AcDbLine
 10
65.634704
 20
219.812909
 30
0.0
 11
64.220491
 21
221.227122
 31
0.0
  0
LINE
  5
20A7
100
AcDbEntity
  8
DISEGNO
100
AcDbLine
 10
44.927597
 20
219.812909
 30
0.0
 11
46.341811
 21
221.227122
 31
0.0
  0
LINE
  5
20A8
100
AcDbEntity
  8
DISEGNO
100
AcDbLine
 10
43.866937
 20
220.873569
 30
0.0
 11
44.927597
 21
219.812909
 31
0.0
  0
LINE
  5
20A9
100
AcDbEntity
  8
DISEGNO
100
AcDbLine
 10
45.281151
 20
222.287783
 30
0.0
 11
46.341811
 21
221.227122
 31
0.0
  0
LINE
  5
20AA
100
AcDbEntity
  8
DISEGNO
100
AcDbLine
 10
45.281151
 20
256.373569
 30
0.0
 11
45.281151
 21
245.873569
 31
0.0
  0
LINE
  5
20AB
100
AcDbEntity
  8
DISEGNO
100
AcDbLine
 10
43.866937
 20
220.873569
 30
0.0
 11
16.281151
 21
220.873569
 31
0.0
  0
LINE
  5
20AC
100
AcDbEntity
  8
DISEGNO
100
AcDbLine
 10
85.281151
 20
220.373569
 30
0.0
 11
85.281151
 21
208.873569
 31
0.0
  0
LINE
  5
20AD
100
AcDbEntity
  8
DISEGNO
100
AcDbLine
 10
66.695364
 20
220.873569
 30
0.0
 11
84.781151
 21
220.873569
 31
0.0
  0
LINE
  5
20AE
100
AcDbEntity
  8
DISEGNO
100
AcDbLine
 10
65.281151
 20
256.373569
 30
0.0
 11
65.281151
 21
245.873569
 31
0.0
  0
LINE
  5
20AF
100
AcDbEntity
  8
DISEGNO
100
AcDbLine
 10
45.781151
 20
256.873569
 30
0.0
 11
64.781151
 21
256.873569
 31
0.0
  0
ENDBLK
  5
20B1
100
AcDbEntity
  8
QUOTE
100
AcDbBlockEnd
  0
BLOCK
  5
2A83
100
AcDbEntity
  8
TESTO
100
AcDbBlockBegin
  2
A$C5161
 70
     0
 10
0.0
 20
0.0
 30
0.0
  3
A$C5161
  1

  0
ARC
  5
2A5C
100
AcDbEntity
  8
1
 62
     7
100
AcDbCircle
 10
31.185159
 20
70.526551
 30
0.0
 40
0.5
100
AcDbArc
 50
90.0
 51
180.0
  0
ARC
  5
2A5D
100
AcDbEntity
  8
1
 62
     7
100
AcDbCircle
 10
31.185159
 20
68.233657
 30
0.0
 40
0.5
100
AcDbArc
 50
180.0
 51
225.0
  0
ARC
  5
2A5E
100
AcDbEntity
  8
1
 62
     7
100
AcDbCircle
 10
30.685159
 20
2.026551
 30
0.0
 40
1.0
100
AcDbArc
 50
270.0
 51
0.0
  0
LINE
  5
2A5F
100
AcDbEntity
  8
1
 62
     7
100
AcDbLine
 10
21.685159
 20
276.826551
 30
0.0
 11
39.685159
 21
276.826551
 31
0.0
  0
LINE
  5
2A60
100
AcDbEntity
  8
1
 62
     7
100
AcDbLine
 10
18.685159
 20
71.026551
 30
0.0
 11
18.685159
 21
213.026551
 31
0.0
  0
LINE
  5
2A61
100
AcDbEntity
  8
1
 62
     7
100
AcDbLine
 10
18.185159
 20
50.09453
 30
0.0
 11
18.185159
 21
71.026551
 31
0.0
  0
LINE
  5
2A62
100
AcDbEntity
  8
1
 62
     7
100
AcDbLine
 10
18.185159
 20
50.09453
 30
0.0
 11
26.805919
 21
15.518552
 31
0.0
  0
LINE
  5
2A63
100
AcDbEntity
  8
1
 62
     7
100
AcDbLine
 10
29.714864
 20
1.784629
 30
0.0
 11
26.320771
 21
15.397591
 31
0.0
  0
ARC
  5
2A64
100
AcDbEntity
  8
1
 62
     7
100
AcDbCircle
 10
30.685159
 20
2.026551
 30
0.0
 40
1.0
100
AcDbArc
 50
194.0
 51
270.0
  0
LINE
  5
2A65
100
AcDbEntity
  8
1
 62
     7
100
AcDbLine
 10
26.320771
 20
15.397591
 30
0.0
 11
26.805919
 21
15.518552
 31
0.0
  0
LINE
  5
2A66
100
AcDbEntity
  8
1
 62
     7
100
AcDbLine
 10
18.185159
 20
71.026551
 30
0.0
 11
18.685159
 21
71.026551
 31
0.0
  0
LINE
  5
2A67
100
AcDbEntity
  8
1
 62
     7
100
AcDbLine
 10
30.685159
 20
70.526551
 30
0.0
 11
30.685159
 21
68.233657
 31
0.0
  0
LINE
  5
2A68
100
AcDbEntity
  8
1
 62
     7
100
AcDbLine
 10
0.685159
 20
231.026551
 30
0.0
 11
18.685159
 21
213.026551
 31
0.0
  0
LINE
  5
2A69
100
AcDbEntity
  8
1
 62
     7
100
AcDbLine
 10
0.685159
 20
241.026551
 30
0.0
 11
20.485159
 21
241.026551
 31
0.0
  0
LINE
  5
2A6A
100
AcDbEntity
  8
1
 62
     7
100
AcDbLine
 10
0.685159
 20
231.026551
 30
0.0
 11
0.685159
 21
241.026551
 31
0.0
  0
LINE
  5
2A6B
100
AcDbEntity
  8
1
 62
     7
100
AcDbLine
 10
20.685159
 20
266.026551
 30
0.0
 11
24.185159
 21
262.526551
 31
0.0
  0
LINE
  5
2A6C
100
AcDbEntity
  8
1
 62
     7
100
AcDbLine
 10
24.185159
 20
261.026551
 30
0.0
 11
20.685159
 21
257.526551
 31
0.0
  0
LINE
  5
2A6D
100
AcDbEntity
  8
1
 62
     7
100
AcDbLine
 10
20.685159
 20
275.826551
 30
0.0
 11
21.685159
 21
276.826551
 31
0.0
  0
LINE
  5
2A6E
100
AcDbEntity
  8
1
 62
     7
100
AcDbLine
 10
20.685159
 20
275.826551
 30
0.0
 11
20.685159
 21
266.026551
 31
0.0
  0
LINE
  5
2A6F
100
AcDbEntity
  8
1
 62
     7
100
AcDbLine
 10
20.685159
 20
257.526551
 30
0.0
 11
20.685159
 21
241.226551
 31
0.0
  0
ARC
  5
2A70
100
AcDbEntity
  8
1
 62
     7
100
AcDbCircle
 10
20.485159
 20
241.226551
 30
0.0
 40
0.2
100
AcDbArc
 50
270.0
 51
0.0
  0
LINE
  5
2A71
100
AcDbEntity
  8
1
 62
     7
100
AcDbLine
 10
24.185159
 20
261.026551
 30
0.0
 11
24.185159
 21
262.526551
 31
0.0
  0
LINE
  5
2A72
100
AcDbEntity
  8
1
 62
     7
100
AcDbLine
 10
42.685159
 20
71.526551
 30
0.0
 11
42.685159
 21
213.026551
 31
0.0
  0
LINE
  5
2A73
100
AcDbEntity
  8
1
 62
     7
100
AcDbLine
 10
31.685159
 20
2.026551
 30
0.0
 11
31.685159
 21
66.819444
 31
0.0
  0
LINE
  5
2A74
100
AcDbEntity
  8
1
 62
     7
100
AcDbLine
 10
42.185159
 20
71.026551
 30
0.0
 11
32.685159
 21
71.026551
 31
0.0
  0
LINE
  5
2A75
100
AcDbEntity
  8
1
 62
     7
100
AcDbLine
 10
31.185159
 20
71.026551
 30
0.0
 11
32.685159
 21
71.026551
 31
0.0
  0
LINE
  5
2A76
100
AcDbEntity
  8
1
 62
     7
100
AcDbLine
 10
30.831606
 20
67.880104
 30
0.0
 11
31.538713
 21
67.172997
 31
0.0
  0
ARC
  5
2A77
100
AcDbEntity
  8
1
 62
     7
100
AcDbCircle
 10
31.185159
 20
66.819444
 30
0.0
 40
0.5
100
AcDbArc
 50
0.0
 51
45.0
  0
ARC
  5
2A78
100
AcDbEntity
  8
1
 62
     7
100
AcDbCircle
 10
42.185159
 20
71.526551
 30
0.0
 40
0.5
100
AcDbArc
 50
270.0
 51
0.0
  0
LINE
  5
2A79
100
AcDbEntity
  8
1
 62
     7
100
AcDbLine
 10
60.685159
 20
231.026551
 30
0.0
 11
42.685159
 21
213.026551
 31
0.0
  0
LINE
  5
2A7A
100
AcDbEntity
  8
1
 62
     7
100
AcDbLine
 10
40.885159
 20
241.026551
 30
0.0
 11
60.685159
 21
241.026551
 31
0.0
  0
LINE
  5
2A7B
100
AcDbEntity
  8
1
 62
     7
100
AcDbLine
 10
37.185159
 20
262.526551
 30
0.0
 11
40.685159
 21
266.026551
 31
0.0
  0
LINE
  5
2A7C
100
AcDbEntity
  8
1
 62
     7
100
AcDbLine
 10
40.685159
 20
257.526551
 30
0.0
 11
37.185159
 21
261.026551
 31
0.0
  0
LINE
  5
2A7D
100
AcDbEntity
  8
1
 62
     7
100
AcDbLine
 10
40.685159
 20
275.826551
 30
0.0
 11
39.685159
 21
276.826551
 31
0.0
  0
LINE
  5
2A7E
100
AcDbEntity
  8
1
 62
     7
100
AcDbLine
 10
37.185159
 20
261.026551
 30
0.0
 11
37.185159
 21
262.526551
 31
0.0
  0
LINE
  5
2A7F
100
AcDbEntity
  8
1
 62
     7
100
AcDbLine
 10
40.685159
 20
275.826551
 30
0.0
 11
40.685159
 21
266.026551
 31
0.0
  0
LINE
  5
2A80
100
AcDbEntity
  8
1
 62
     7
100
AcDbLine
 10
40.685159
 20
257.526551
 30
0.0
 11
40.685159
 21
241.226551
 31
0.0
  0
ARC
  5
2A81
100
AcDbEntity
  8
1
 62
     7
100
AcDbCircle
 10
40.885159
 20
241.226551
 30
0.0
 40
0.2
100
AcDbArc
 50
180.0
 51
270.0
  0
LINE
  5
2A82
100
AcDbEntity
  8
1
 62
     7
100
AcDbLine
 10
60.685159
 20
241.026551
 30
0.0
 11
60.685159
 21
231.026551
 31
0.0
  0
ENDBLK
  5
2A84
100
AcDbEntity
  8
TESTO
100
AcDbBlockEnd
  0
BLOCK
  5
2C34
100
AcDbEntity
  8
QUOTE
100
AcDbBlockBegin
  2
A$C2343
 70
     0
 10
0.0
 20
0.0
 30
0.0
  3
A$C2343
  1

  0
LINE
  5
2C2C
100
AcDbEntity
  8
1
 62
     7
100
AcDbLine
 10
1.245663
 20
0.424897
 30
0.0
 11
14.245663
 21
0.424897
 31
0.0
  0
LINE
  5
2C2D
100
AcDbEntity
  8
1
 62
     7
100
AcDbLine
 10
15.245663
 20
100.424897
 30
0.0
 11
7.745663
 21
100.424897
 31
0.0
  0
LINE
  5
2C2E
100
AcDbEntity
  8
1
 62
     7
100
AcDbLine
 10
0.245663
 20
100.424897
 30
0.0
 11
0.245663
 21
1.424897
 31
0.0
  0
LINE
  5
2C2F
100
AcDbEntity
  8
1
 62
     7
100
AcDbLine
 10
0.245663
 20
1.424897
 30
0.0
 11
1.245663
 21
0.424897
 31
0.0
  0
LINE
  5
2C30
100
AcDbEntity
  8
1
 62
     7
100
AcDbLine
 10
7.745663
 20
100.424897
 30
0.0
 11
0.245663
 21
100.424897
 31
0.0
  0
POINT
  5
2C31
100
AcDbEntity
  8
1
  6
CENTER
 62
     7
100
AcDbPoint
 10
7.745663
 20
100.424897
 30
0.0
  0
LINE
  5
2C32
100
AcDbEntity
  8
1
 62
     7
100
AcDbLine
 10
15.245663
 20
1.424897
 30
0.0
 11
15.245663
 21
100.424897
 31
0.0
  0
LINE
  5
2C33
100
AcDbEntity
  8
1
 62
     7
100
AcDbLine
 10
14.245663
 20
0.424897
 30
0.0
 11
15.245663
 21
1.424897
 31
0.0
  0
ENDBLK
  5
2C35
100
AcDbEntity
  8
QUOTE
100
AcDbBlockEnd
  0
BLOCK
  5
2C64
100
AcDbEntity
  8
QUOTE
100
AcDbBlockBegin
  2
A$C72A2
 70
     0
 10
0.0
 20
0.0
 30
0.0
  3
A$C72A2
  1

  0
LINE
  5
2C5E
100
AcDbEntity
  8
1
 62
     7
100
AcDbLine
 10
29.03938
 20
0.340516
 30
0.0
 11
0.13938
 21
0.340516
 31
0.0
  0
LINE
  5
2C5F
100
AcDbEntity
  8
1
 62
     7
100
AcDbLine
 10
15.13938
 20
100.340516
 30
0.0
 11
0.13938
 21
100.340516
 31
0.0
  0
LINE
  5
2C60
100
AcDbEntity
  8
1
 62
     7
100
AcDbLine
 10
0.13938
 20
0.340516
 30
0.0
 11
0.13938
 21
100.340516
 31
0.0
  0
LINE
  5
2C61
100
AcDbEntity
  8
1
 62
     7
100
AcDbLine
 10
15.13938
 20
100.340516
 30
0.0
 11
15.13938
 21
28.340516
 31
0.0
  0
LINE
  5
2C62
100
AcDbEntity
  8
1
 62
     7
100
AcDbLine
 10
29.03938
 20
28.340516
 30
0.0
 11
15.13938
 21
28.340516
 31
0.0
  0
LINE
  5
2C63
100
AcDbEntity
  8
1
 62
     7
100
AcDbLine
 10
29.03938
 20
28.340516
 30
0.0
 11
29.03938
 21
0.340516
 31
0.0
  0
ENDBLK
  5
2C65
100
AcDbEntity
  8
QUOTE
100
AcDbBlockEnd
  0
BLOCK
  5
2C6E
100
AcDbEntity
  8
0
100
AcDbBlockBegin
  2
*D12
 70
    65
 10
0.0
 20
0.0
 30
0.0
  3
*D12
  1

  0
LINE
  5
2C6F
100
AcDbEntity
  8
0
  6
BYBLOCK
 62
     0
100
AcDbLine
 10
-2588.083212
 20
-1286.035271
 30
0.0
 11
-2603.428287
 21
-1286.035271
 31
0.0
  0
LINE
  5
2C70
100
AcDbEntity
  8
0
  6
BYBLOCK
 62
     0
100
AcDbLine
 10
-2588.083212
 20
-1386.035271
 30
0.0
 11
-2603.428287
 21
-1386.035271
 31
0.0
  0
LINE
  5
2C71
100
AcDbEntity
  8
0
  6
BYBLOCK
 62
     0
100
AcDbLine
 10
-2602.178287
 20
-1288.535271
 30
0.0
 11
-2602.178287
 21
-1383.535271
 31
0.0
  0
SOLID
  5
2C72
100
AcDbEntity
  8
0
  6
BYBLOCK
 62
     0
100
AcDbTrace
 10
-2602.594954
 20
-1288.535271
 30
0.0
 11
-2601.76162
 21
-1288.535271
 31
0.0
 12
-2602.178287
 22
-1286.035271
 32
0.0
 13
-2602.178287
 23
-1286.035271
 33
0.0
  0
SOLID
  5
2C73
100
AcDbEntity
  8
0
  6
BYBLOCK
 62
     0
100
AcDbTrace
 10
-2602.594954
 20
-1383.535271
 30
0.0
 11
-2601.76162
 21
-1383.535271
 31
0.0
 12
-2602.178287
 22
-1386.035271
 32
0.0
 13
-2602.178287
 23
-1386.035271
 33
0.0
  0
MTEXT
  5
2C74
100
AcDbEntity
  8
0
  6
BYBLOCK
 62
     0
100
AcDbMText
 10
-2604.553287
 20
-1336.035271
 30
0.0
 40
3.5
 41
0.0
 71
     5
 72
     1
  1
\A1;100
 11
0.0
 21
1.0
 31
0.0
  0
POINT
  5
2C75
100
AcDbEntity
  8
DEFPOINTS
  6
BYBLOCK
 62
     0
100
AcDbPoint
 10
-2587.458212
 20
-1286.035271
 30
0.0
  0
POINT
  5
2C76
100
AcDbEntity
  8
DEFPOINTS
  6
BYBLOCK
 62
     0
100
AcDbPoint
 10
-2587.458212
 20
-1386.035271
 30
0.0
  0
POINT
  5
2C77
100
AcDbEntity
  8
DEFPOINTS
  6
BYBLOCK
 62
     0
100
AcDbPoint
 10
-2602.178287
 20
-1386.035271
 30
0.0
  0
ENDBLK
  5
2C78
100
AcDbEntity
  8
0
100
AcDbBlockEnd
  0
BLOCK
  5
2C7B
100
AcDbEntity
  8
0
100
AcDbBlockBegin
  2
*D13
 70
    65
 10
0.0
 20
0.0
 30
0.0
  3
*D13
  1

  0
LINE
  5
2C7C
100
AcDbEntity
  8
0
  6
BYBLOCK
 62
     0
100
AcDbLine
 10
-2587.458212
 20
-1285.410271
 30
0.0
 11
-2587.458212
 21
-1273.680827
 31
0.0
  0
LINE
  5
2C7D
100
AcDbEntity
  8
0
  6
BYBLOCK
 62
     0
100
AcDbLine
 10
-2572.458212
 20
-1285.410271
 30
0.0
 11
-2572.458212
 21
-1273.680827
 31
0.0
  0
LINE
  5
2C7E
100
AcDbEntity
  8
0
  6
BYBLOCK
 62
     0
100
AcDbLine
 10
-2584.958212
 20
-1274.930827
 30
0.0
 11
-2574.958212
 21
-1274.930827
 31
0.0
  0
SOLID
  5
2C7F
100
AcDbEntity
  8
0
  6
BYBLOCK
 62
     0
100
AcDbTrace
 10
-2584.958212
 20
-1274.51416
 30
0.0
 11
-2584.958212
 21
-1275.347494
 31
0.0
 12
-2587.458212
 22
-1274.930827
 32
0.0
 13
-2587.458212
 23
-1274.930827
 33
0.0
  0
SOLID
  5
2C80
100
AcDbEntity
  8
0
  6
BYBLOCK
 62
     0
100
AcDbTrace
 10
-2574.958212
 20
-1274.51416
 30
0.0
 11
-2574.958212
 21
-1275.347494
 31
0.0
 12
-2572.458212
 22
-1274.930827
 32
0.0
 13
-2572.458212
 23
-1274.930827
 33
0.0
  0
MTEXT
  5
2C81
100
AcDbEntity
  8
0
  6
BYBLOCK
 62
     0
100
AcDbMText
 10
-2579.958212
 20
-1272.555827
 30
0.0
 40
3.5
 41
0.0
 71
     5
 72
     1
  1
\A1;15
  0
POINT
  5
2C82
100
AcDbEntity
  8
DEFPOINTS
  6
BYBLOCK
 62
     0
100
AcDbPoint
 10
-2587.458212
 20
-1286.035271
 30
0.0
  0
POINT
  5
2C83
100
AcDbEntity
  8
DEFPOINTS
  6
BYBLOCK
 62
     0
100
AcDbPoint
 10
-2572.458212
 20
-1286.035271
 30
0.0
  0
POINT
  5
2C84
100
AcDbEntity
  8
DEFPOINTS
  6
BYBLOCK
 62
     0
100
AcDbPoint
 10
-2572.458212
 20
-1274.930827
 30
0.0
  0
ENDBLK
  5
2C85
100
AcDbEntity
  8
0
100
AcDbBlockEnd
  0
BLOCK
  5
2C94
100
AcDbEntity
  8
0
100
AcDbBlockBegin
  2
*D14
 70
    65
 10
0.0
 20
0.0
 30
0.0
  3
*D14
  1

  0
LINE
  5
2C95
100
AcDbEntity
  8
0
  6
BYBLOCK
 62
     0
100
AcDbLine
 10
-2587.458212
 20
-1386.660271
 30
0.0
 11
-2587.458212
 21
-1399.656777
 31
0.0
  0
LINE
  5
2C96
100
AcDbEntity
  8
0
  6
BYBLOCK
 62
     0
100
AcDbLine
 10
-2558.558212
 20
-1386.660271
 30
0.0
 11
-2558.558212
 21
-1399.656777
 31
0.0
  0
LINE
  5
2C97
100
AcDbEntity
  8
0
  6
BYBLOCK
 62
     0
100
AcDbLine
 10
-2584.958212
 20
-1398.406777
 30
0.0
 11
-2561.058212
 21
-1398.406777
 31
0.0
  0
SOLID
  5
2C98
100
AcDbEntity
  8
0
  6
BYBLOCK
 62
     0
100
AcDbTrace
 10
-2584.958212
 20
-1397.990111
 30
0.0
 11
-2584.958212
 21
-1398.823444
 31
0.0
 12
-2587.458212
 22
-1398.406777
 32
0.0
 13
-2587.458212
 23
-1398.406777
 33
0.0
  0
SOLID
  5
2C99
100
AcDbEntity
  8
0
  6
BYBLOCK
 62
     0
100
AcDbTrace
 10
-2561.058212
 20
-1397.990111
 30
0.0
 11
-2561.058212
 21
-1398.823444
 31
0.0
 12
-2558.558212
 22
-1398.406777
 32
0.0
 13
-2558.558212
 23
-1398.406777
 33
0.0
  0
MTEXT
  5
2C9A
100
AcDbEntity
  8
0
  6
BYBLOCK
 62
     0
100
AcDbMText
 10
-2573.008212
 20
-1396.031777
 30
0.0
 40
3.5
 41
0.0
 71
     5
 72
     1
  1
\A1;{29}
  0
POINT
  5
2C9B
100
AcDbEntity
  8
DEFPOINTS
  6
BYBLOCK
 62
     0
100
AcDbPoint
 10
-2587.458212
 20
-1386.035271
 30
0.0
  0
POINT
  5
2C9C
100
AcDbEntity
  8
DEFPOINTS
  6
BYBLOCK
 62
     0
100
AcDbPoint
 10
-2558.558212
 20
-1386.035271
 30
0.0
  0
POINT
  5
2C9D
100
AcDbEntity
  8
DEFPOINTS
  6
BYBLOCK
 62
     0
100
AcDbPoint
 10
-2558.558212
 20
-1398.406777
 30
0.0
  0
ENDBLK
  5
2C9E
100
AcDbEntity
  8
0
100
AcDbBlockEnd
  0
ENDSEC
  0
SECTION
  2
ENTITIES
  0
LINE
  5
2C67
100
AcDbEntity
  8
DISEGNO
100
AcDbLine
 10
-2558.458212
 20
-1386.035271
 30
0.0
 11
-2587.458212
 21
-1386.035271
 31
0.0
  0
LINE
  5
2C68
100
AcDbEntity
  8
DISEGNO
100
AcDbLine
 10
-2572.458212
 20
-1286.035271
 30
0.0
 11
-2587.458212
 21
-1286.035271
 31
0.0
  0
LINE
  5
2C69
100
AcDbEntity
  8
DISEGNO
100
AcDbLine
 10
-2587.458212
 20
-1386.035271
 30
0.0
 11
-2587.458212
 21
-1286.035271
 31
0.0
  0
LINE
  5
2C6A
100
AcDbEntity
  8
DISEGNO
100
AcDbLine
 10
-2572.458212
 20
-1286.035271
 30
0.0
 11
-2572.458212
 21
-1358.035271
 31
0.0
  0
LINE
  5
2C6B
100
AcDbEntity
  8
DISEGNO
100
AcDbLine
 10
-2558.458212
 20
-1358.035271
 30
0.0
 11
-2572.458212
 21
-1358.035271
 31
0.0
  0
LINE
  5
2C6C
100
AcDbEntity
  8
DISEGNO
100
AcDbLine
 10
-2558.458212
 20
-1358.035271
 30
0.0
 11
-2558.458212
 21
-1386.035271
 31
0.0
  0
ENDSEC
  0
SECTION
  2
OBJECTS
  0
DICTIONARY
  5
C
100
AcDbDictionary
  3
ACAD_GROUP
350
D
  3
ACAD_MLINESTYLE
350
E
  0
DICTIONARY
  5
D
102
{ACAD_REACTORS
330
C
102
}
100
AcDbDictionary
  0
DICTIONARY
  5
E
102
{ACAD_REACTORS
330
C
102
}
100
AcDbDictionary
  3
STANDARD
350
1C
  0
MLINESTYLE
  5
1C
102
{ACAD_REACTORS
330
E
102
}
100
AcDbMlineStyle
  2
STANDARD
 70
     0
  3

 62
     0
 51
90.0
 52
90.0
 71
     2
 49
0.5
 62
   256
  6
BYLAYER
 49
-0.5
 62
   256
  6
BYLAYER
  0
ENDSEC
  0
EOF
