  0
SECTION
  2
HEADER
  9
$ACADVER
  1
AC1006
  9
$DWGCODEPAGE
  3
ansi_1252
  9
$INSBASE
 10
0.0
 20
0.0
 30
0.0
  9
$EXTMIN
 10
1.000000E+20
 20
1.000000E+20
  9
$EXTMAX
 10
-1.000000E+20
 20
-1.000000E+20
  9
$LIMMIN
 10
0.0
 20
0.0
  9
$LIMMAX
 10
420.0
 20
297.0
  9
$ORTHOMODE
 70
     0
  9
$REGENMODE
 70
     1
  9
$FILLMODE
 70
     1
  9
$QTEXTMODE
 70
     0
  9
$MIRRTEXT
 70
     1
  9
$DRAGMODE
 70
     2
  9
$LTSCALE
 40
1.0
  9
$OSMODE
 70
    37
  9
$ATTMODE
 70
     1
  9
$TEXTSIZE
 40
2.5
  9
$TRACEWID
 40
1.0
  9
$TEXTSTYLE
  7
STANDARD
  9
$CLAYER
  8
0
  9
$CELTYPE
  6
BYLAYER
  9
$CECOLOR
 62
   256
  9
$DIMSCALE
 40
1.0
  9
$DIMASZ
 40
2.5
  9
$DIMEXO
 40
0.625
  9
$DIMDLI
 40
3.75
  9
$DIMRND
 40
0.0
  9
$DIMDLE
 40
0.0
  9
$DIMEXE
 40
1.25
  9
$DIMTP
 40
0.0
  9
$DIMTM
 40
0.0
  9
$DIMTXT
 40
2.5
  9
$DIMCEN
 40
2.5
  9
$DIMTSZ
 40
0.0
  9
$DIMTOL
 70
     0
  9
$DIMLIM
 70
     0
  9
$DIMTIH
 70
     0
  9
$DIMTOH
 70
     0
  9
$DIMSE1
 70
     0
  9
$DIMSE2
 70
     0
  9
$DIMTAD
 70
     1
  9
$DIMZIN
 70
     8
  9
$DIMBLK
  1

  9
$DIMASO
 70
     1
  9
$DIMSHO
 70
     1
  9
$DIMPOST
  1

  9
$DIMAPOST
  1

  9
$DIMALT
 70
     0
  9
$DIMALTD
 70
     3
  9
$DIMALTF
 40
0.03937
  9
$DIMLFAC
 40
1.0
  9
$DIMTOFL
 70
     1
  9
$DIMTVP
 40
0.0
  9
$DIMTIX
 70
     0
  9
$DIMSOXD
 70
     0
  9
$DIMSAH
 70
     0
  9
$DIMBLK1
  1

  9
$DIMBLK2
  1

  9
$LUNITS
 70
     2
  9
$LUPREC
 70
     4
  9
$SKETCHINC
 40
1.0
  9
$FILLETRAD
 40
10.0
  9
$AUNITS
 70
     0
  9
$AUPREC
 70
     0
  9
$MENU
  1
.
  9
$ELEVATION
 40
0.0
  9
$THICKNESS
 40
0.0
  9
$LIMCHECK
 70
     0
  9
$CHAMFERA
 40
10.0
  9
$CHAMFERB
 40
10.0
  9
$SKPOLY
 70
     0
  9
$TDCREATE
 40
2456778.512629074
  9
$TDUPDATE
 40
2456778.512629086
  9
$TDINDWG
 40
0.0000000116
  9
$TDUSRTIMER
 40
0.0000000116
  9
$USRTIMER
 70
     1
  9
$ANGBASE
 50
0.0
  9
$ANGDIR
 70
     0
  9
$PDMODE
 70
     0
  9
$PDSIZE
 40
0.0
  9
$PLINEWID
 40
0.0
  9
$COORDS
 70
     1
  9
$SPLFRAME
 70
     0
  9
$SPLINETYPE
 70
     6
  9
$SPLINESEGS
 70
     8
  9
$ATTDIA
 70
     0
  9
$ATTREQ
 70
     1
  9
$HANDLING
 70
     1
  9
$HANDSEED
  5
73
  9
$SURFTAB1
 70
     6
  9
$SURFTAB2
 70
     6
  9
$SURFTYPE
 70
     6
  9
$SURFU
 70
     6
  9
$SURFV
 70
     6
  9
$UCSNAME
  2

  9
$UCSORG
 10
0.0
 20
0.0
 30
0.0
  9
$UCSXDIR
 10
1.0
 20
0.0
 30
0.0
  9
$UCSYDIR
 10
0.0
 20
1.0
 30
0.0
  9
$USERI1
 70
     0
  9
$USERI2
 70
     0
  9
$USERI3
 70
     0
  9
$USERI4
 70
     0
  9
$USERI5
 70
     0
  9
$USERR1
 40
0.0
  9
$USERR2
 40
0.0
  9
$USERR3
 40
0.0
  9
$USERR4
 40
0.0
  9
$USERR5
 40
0.0
  9
$WORLDVIEW
 70
     1
  0
ENDSEC
  0
SECTION
  2
TABLES
  0
TABLE
  2
VPORT
 70
     1
  0
VPORT
  2
*ACTIVE
 70
     0
 10
0.0
 20
0.0
 11
1.0
 21
1.0
 12
344.186916
 22
148.5
 13
0.0
 23
0.0
 14
10.0
 24
10.0
 15
10.0
 25
10.0
 16
0.0
 26
0.0
 36
1.0
 17
0.0
 27
0.0
 37
0.0
 40
297.0
 41
1.972973
 42
50.0
 43
0.0
 44
0.0
 50
0.0
 51
0.0
 71
     0
 72
   100
 73
     1
 74
     3
 75
     0
 76
     0
 77
     0
 78
     0
  0
ENDTAB
  0
TABLE
  2
LTYPE
 70
     1
  0
LTYPE
  2
CONTINUOUS
 70
     0
  3
Solid line
 72
    65
 73
     0
 40
0.0
  0
ENDTAB
  0
TABLE
  2
LAYER
 70
    10
  0
LAYER
  2
0
 70
     0
 62
     7
  6
CONTINUOUS
  0
LAYER
  2
1
 70
     0
 62
     7
  6
CONTINUOUS
  0
LAYER
  2
2
 70
     0
 62
     7
  6
CONTINUOUS
  0
LAYER
  2
3
 70
     0
 62
     7
  6
CONTINUOUS
  0
LAYER
  2
4
 70
     0
 62
     7
  6
CONTINUOUS
  0
LAYER
  2
5
 70
     0
 62
     7
  6
CONTINUOUS
  0
LAYER
  2
6
 70
     0
 62
     7
  6
CONTINUOUS
  0
LAYER
  2
7
 70
     0
 62
     7
  6
CONTINUOUS
  0
LAYER
  2
8
 70
     0
 62
     7
  6
CONTINUOUS
  0
LAYER
  2
9
 70
     0
 62
     7
  6
CONTINUOUS
  0
ENDTAB
  0
TABLE
  2
STYLE
 70
     5
  0
STYLE
  2
STANDARD
 70
     0
 40
0.0
 41
1.0
 50
0.0
 71
     0
 42
2.5
  3
txt
  4

  0
STYLE
  2
DEFAULT
 70
     0
 40
0.0
 41
1.0
 50
0.0
 71
     0
 42
0.2
  3

  4

  0
STYLE
  2
ISO
 70
     0
 40
0.0
 41
1.0
 50
0.0
 71
     0
 42
0.2
  3

  4

  0
STYLE
  2
MARCELLO
 70
     0
 40
0.0
 41
1.0
 50
0.0
 71
     0
 42
0.2
  3

  4

  0
STYLE
  2
ROLLERI
 70
     0
 40
0.0
 41
1.0
 50
0.0
 71
     0
 42
0.2
  3

  4

  0
ENDTAB
  0
TABLE
  2
VIEW
 70
     0
  0
ENDTAB
  0
TABLE
  2
UCS
 70
     0
  0
ENDTAB
  0
ENDSEC
  0
SECTION
  2
BLOCKS
  0
BLOCK
  8
0
  2
_CLOSED
 70
     0
 10
0.0
 20
0.0
 30
0.0
  0
LINE
  5
51
  8
0
  6
BYBLOCK
 62
     0
 10
-1.0
 20
0.166667
 30
0.0
 11
0.0
 21
0.0
 31
0.0
  0
LINE
  5
52
  8
0
  6
BYBLOCK
 62
     0
 10
0.0
 20
0.0
 30
0.0
 11
-1.0
 21
-0.166667
 31
0.0
  0
LINE
  5
53
  8
0
  6
BYBLOCK
 62
     0
 10
-1.0
 20
0.166667
 30
0.0
 11
-1.0
 21
-0.166667
 31
0.0
  0
LINE
  5
54
  8
0
  6
BYBLOCK
 62
     0
 10
0.0
 20
0.0
 30
0.0
 11
-1.0
 21
0.0
 31
0.0
  0
ENDBLK
  8
0
  0
ENDSEC
  0
SECTION
  2
ENTITIES
  0
LINE
  5
57
  8
1
  6
CONTINUOUS
 62
     7
 10
-1338.718688
 20
-1372.652689
 30
0.0
 11
-1338.718688
 21
-1380.915032
 31
0.0
  0
LINE
  5
58
  8
1
  6
CONTINUOUS
 62
     7
 10
-1312.968688
 20
-1376.702689
 30
0.0
 11
-1325.468688
 21
-1376.702689
 31
0.0
  0
LINE
  5
59
  8
1
  6
CONTINUOUS
 62
     7
 10
-1312.468688
 20
-1386.743438
 30
0.0
 11
-1312.468688
 21
-1377.202689
 31
0.0
  0
LINE
  5
5A
  8
1
  6
CONTINUOUS
 62
     7
 10
-1325.468688
 20
-1376.702689
 30
0.0
 11
-1325.468688
 21
-1347.702689
 31
0.0
  0
LINE
  5
5B
  8
1
  6
CONTINUOUS
 62
     7
 10
-1338.468688
 20
-1347.702689
 30
0.0
 11
-1338.468688
 21
-1363.402689
 31
0.0
  0
LINE
  5
5C
  8
1
  6
CONTINUOUS
 62
     7
 10
-1334.968688
 20
-1363.702689
 30
0.0
 11
-1334.968688
 21
-1372.102689
 31
0.0
  0
LINE
  5
5D
  8
1
  6
CONTINUOUS
 62
     7
 10
-1334.968688
 20
-1372.102689
 30
0.0
 11
-1338.168688
 21
-1372.102689
 31
0.0
  0
LINE
  5
5E
  8
1
  6
CONTINUOUS
 62
     7
 10
-1338.168688
 20
-1363.702689
 30
0.0
 11
-1334.968688
 21
-1363.702689
 31
0.0
  0
LINE
  5
5F
  8
1
  6
CONTINUOUS
 62
     7
 10
-1326.468688
 20
-1346.702689
 30
0.0
 11
-1337.468688
 21
-1346.702689
 31
0.0
  0
LINE
  5
60
  8
1
  6
CONTINUOUS
 62
     7
 10
-1338.468688
 20
-1347.702689
 30
0.0
 11
-1337.468688
 21
-1346.702689
 31
0.0
  0
LINE
  5
61
  8
1
  6
CONTINUOUS
 62
     7
 10
-1326.468688
 20
-1346.702689
 30
0.0
 11
-1325.468688
 21
-1347.702689
 31
0.0
  0
LINE
  5
62
  8
1
  6
CONTINUOUS
 62
     7
 10
-1338.718688
 20
-1380.915032
 30
0.0
 11
-1323.350246
 21
-1438.270839
 31
0.0
  0
ARC
  5
63
  8
1
  6
CONTINUOUS
 62
     7
 10
-1252.870065
 20
-1415.098357
 30
0.0
 40
65.99997949337195
 50
154.556546
 51
202.214699
  0
LINE
  5
64
  8
1
  6
CONTINUOUS
 62
     7
 10
-1323.350246
 20
-1440.20269
 30
0.0
 11
-1319.048243
 21
-1456.257981
 31
0.0
  0
LINE
  5
65
  8
1
  6
CONTINUOUS
 62
     7
 10
-1317.889132
 20
-1456.257981
 30
0.0
 11
-1313.971105
 21
-1441.635702
 31
0.0
  0
ARC
  5
66
  8
1
  6
CONTINUOUS
 62
     7
 10
-1318.468688
 20
-1456.10269
 30
0.0
 40
0.6000000019427514
 50
194.999999
 51
345.000001
  0
LINE
  5
67
  8
1
  6
CONTINUOUS
 62
     7
 10
-1312.968688
 20
-1376.702689
 30
0.0
 11
-1312.468688
 21
-1377.202689
 31
0.0
  0
LINE
  5
68
  8
1
  6
CONTINUOUS
 62
     7
 10
-1338.168688
 20
-1363.702689
 30
0.0
 11
-1338.468688
 21
-1363.402689
 31
0.0
  0
LINE
  5
69
  8
1
  6
CONTINUOUS
 62
     7
 10
-1338.168688
 20
-1372.102689
 30
0.0
 11
-1338.718688
 21
-1372.652689
 31
0.0
  0
LINE
  5
6A
  8
1
  6
CONTINUOUS
 62
     7
 10
-1323.350246
 20
-1440.20269
 30
0.0
 11
-1323.350246
 21
-1438.270839
 31
0.0
  0
LINE
  5
6B
  8
1
  6
CONTINUOUS
 62
     7
 10
-1313.971105
 20
-1440.051517
 30
0.0
 11
-1313.971105
 21
-1441.635702
 31
0.0
  0
ENDSEC
  0
EOF
