  0
SECTION
  2
HEADER
  9
$ACADVER
  1
AC1009
  9
$DWGCODEPAGE
  3
ansi_1252
  9
$INSBASE
 10
0.0
 20
0.0
 30
0.0
  9
$EXTMIN
 10
1.000E+20
 20
1.000E+20
 30
1.000E+20
  9
$EXTMAX
 10
-1.000E+20
 20
-1.000E+20
 30
-1.000E+20
  9
$LIMMIN
 10
0.0
 20
0.0
  9
$LIMMAX
 10
420.0
 20
297.0
  9
$ORTHOMODE
 70
     0
  9
$REGENMODE
 70
     1
  9
$FILLMODE
 70
     1
  9
$QTEXTMODE
 70
     0
  9
$MIRRTEXT
 70
     1
  9
$DRAGMODE
 70
     2
  9
$LTSCALE
 40
1.0
  9
$OSMODE
 70
    37
  9
$ATTMODE
 70
     1
  9
$TEXTSIZE
 40
2.5
  9
$TRACEWID
 40
1.0
  9
$TEXTSTYLE
  7
STANDARD
  9
$CLAYER
  8
0
  9
$CELTYPE
  6
BYLAYER
  9
$CECOLOR
 62
   256
  9
$DIMSCALE
 40
1.0
  9
$DIMASZ
 40
2.5
  9
$DIMEXO
 40
0.625
  9
$DIMDLI
 40
3.75
  9
$DIMRND
 40
0.0
  9
$DIMDLE
 40
0.0
  9
$DIMEXE
 40
1.25
  9
$DIMTP
 40
0.0
  9
$DIMTM
 40
0.0
  9
$DIMTXT
 40
2.5
  9
$DIMCEN
 40
2.5
  9
$DIMTSZ
 40
0.0
  9
$DIMTOL
 70
     0
  9
$DIMLIM
 70
     0
  9
$DIMTIH
 70
     0
  9
$DIMTOH
 70
     0
  9
$DIMSE1
 70
     0
  9
$DIMSE2
 70
     0
  9
$DIMTAD
 70
     1
  9
$DIMZIN
 70
     8
  9
$DIMBLK
  1

  9
$DIMASO
 70
     1
  9
$DIMSHO
 70
     1
  9
$DIMPOST
  1

  9
$DIMAPOST
  1

  9
$DIMALT
 70
     0
  9
$DIMALTD
 70
     3
  9
$DIMALTF
 40
0.039
  9
$DIMLFAC
 40
1.0
  9
$DIMTOFL
 70
     1
  9
$DIMTVP
 40
0.0
  9
$DIMTIX
 70
     0
  9
$DIMSOXD
 70
     0
  9
$DIMSAH
 70
     0
  9
$DIMBLK1
  1

  9
$DIMBLK2
  1

  9
$DIMSTYLE
  2
ISO-25
  9
$DIMCLRD
 70
     0
  9
$DIMCLRE
 70
     0
  9
$DIMCLRT
 70
     0
  9
$DIMTFAC
 40
1.0
  9
$DIMGAP
 40
0.625
  9
$LUNITS
 70
     2
  9
$LUPREC
 70
     4
  9
$SKETCHINC
 40
1.0
  9
$FILLETRAD
 40
10.0
  9
$AUNITS
 70
     0
  9
$AUPREC
 70
     0
  9
$MENU
  1
.
  9
$ELEVATION
 40
0.0
  9
$PELEVATION
 40
0.0
  9
$THICKNESS
 40
0.0
  9
$LIMCHECK
 70
     0
  9
$CHAMFERA
 40
0.0
  9
$CHAMFERB
 40
0.0
  9
$SKPOLY
 70
     0
  9
$TDCREATE
 40
2457619.683456042
  9
$TDUPDATE
 40
2457619.683456273
  9
$TDINDWG
 40
0.0000000116
  9
$TDUSRTIMER
 40
0.0000000116
  9
$USRTIMER
 70
     1
  9
$ANGBASE
 50
0.0
  9
$ANGDIR
 70
     0
  9
$PDMODE
 70
     0
  9
$PDSIZE
 40
0.0
  9
$PLINEWID
 40
0.0
  9
$COORDS
 70
     1
  9
$SPLFRAME
 70
     0
  9
$SPLINETYPE
 70
     6
  9
$SPLINESEGS
 70
     8
  9
$ATTDIA
 70
     0
  9
$ATTREQ
 70
     1
  9
$HANDLING
 70
     1
  9
$HANDSEED
  5
A5
  9
$SURFTAB1
 70
     6
  9
$SURFTAB2
 70
     6
  9
$SURFTYPE
 70
     6
  9
$SURFU
 70
     6
  9
$SURFV
 70
     6
  9
$UCSNAME
  2

  9
$UCSORG
 10
0.0
 20
0.0
 30
0.0
  9
$UCSXDIR
 10
1.0
 20
0.0
 30
0.0
  9
$UCSYDIR
 10
0.0
 20
1.0
 30
0.0
  9
$PUCSNAME
  2

  9
$PUCSORG
 10
0.0
 20
0.0
 30
0.0
  9
$PUCSXDIR
 10
1.0
 20
0.0
 30
0.0
  9
$PUCSYDIR
 10
0.0
 20
1.0
 30
0.0
  9
$USERI1
 70
     0
  9
$USERI2
 70
     0
  9
$USERI3
 70
     0
  9
$USERI4
 70
     0
  9
$USERI5
 70
     0
  9
$USERR1
 40
0.0
  9
$USERR2
 40
0.0
  9
$USERR3
 40
0.0
  9
$USERR4
 40
0.0
  9
$USERR5
 40
0.0
  9
$WORLDVIEW
 70
     1
  9
$SHADEDGE
 70
     3
  9
$SHADEDIF
 70
    70
  9
$TILEMODE
 70
     1
  9
$MAXACTVP
 70
    64
  9
$PLIMCHECK
 70
     0
  9
$PEXTMIN
 10
1.000E+20
 20
1.000E+20
 30
1.000E+20
  9
$PEXTMAX
 10
-1.000E+20
 20
-1.000E+20
 30
-1.000E+20
  9
$PLIMMIN
 10
0.0
 20
0.0
  9
$PLIMMAX
 10
420.0
 20
297.0
  9
$UNITMODE
 70
     0
  9
$VISRETAIN
 70
     1
  9
$PLINEGEN
 70
     0
  9
$PSLTSCALE
 70
     1
  0
ENDSEC
  0
SECTION
  2
TABLES
  0
TABLE
  2
VPORT
 70
     1
  0
VPORT
  2
*ACTIVE
 70
     0
 10
0.0
 20
0.0
 11
1.0
 21
1.0
 12
344.187
 22
148.5
 13
0.0
 23
0.0
 14
10.0
 24
10.0
 15
10.0
 25
10.0
 16
0.0
 26
0.0
 36
1.0
 17
0.0
 27
0.0
 37
0.0
 40
297.0
 41
1.973
 42
50.0
 43
0.0
 44
0.0
 50
0.0
 51
0.0
 71
     0
 72
   100
 73
     1
 74
     3
 75
     0
 76
     0
 77
     0
 78
     0
  0
ENDTAB
  0
TABLE
  2
LTYPE
 70
     1
  0
LTYPE
  2
CONTINUOUS
 70
     0
  3
Solid line
 72
    65
 73
     0
 40
0.0
  0
ENDTAB
  0
TABLE
  2
LAYER
 70
     2
  0
LAYER
  2
0
 70
     0
 62
     7
  6
CONTINUOUS
  0
LAYER
  2
1
 70
     0
 62
     7
  6
CONTINUOUS
  0
ENDTAB
  0
TABLE
  2
STYLE
 70
     3
  0
STYLE
  2
STANDARD
 70
     0
 40
0.0
 41
1.0
 50
0.0
 71
     0
 42
2.5
  3
txt
  4

  0
STYLE
  2
DEFAULT
 70
     0
 40
0.0
 41
1.0
 50
0.0
 71
     0
 42
2.5
  3

  4

  0
STYLE
  2
ROLLERI
 70
     0
 40
0.0
 41
1.0
 50
0.0
 71
     0
 42
2.5
  3

  4

  0
ENDTAB
  0
TABLE
  2
VIEW
 70
     0
  0
ENDTAB
  0
TABLE
  2
UCS
 70
     0
  0
ENDTAB
  0
TABLE
  2
APPID
 70
     1
  0
APPID
  2
ACAD
 70
     0
  0
ENDTAB
  0
TABLE
  2
DIMSTYLE
 70
     4
  0
DIMSTYLE
  2
ISO-25
 70
     0
  3

  4

  5

  6

  7

 40
1.0
 41
2.5
 42
0.625
 43
3.75
 44
1.25
 45
0.0
 46
0.0
 47
0.0
 48
0.0
140
2.5
141
2.5
142
0.0
143
0.039
144
1.0
145
0.0
146
1.0
147
0.625
 71
     0
 72
     0
 73
     0
 74
     0
 75
     0
 76
     0
 77
     1
 78
     8
170
     0
171
     3
172
     1
173
     0
174
     0
175
     0
176
     0
177
     0
178
     0
  0
DIMSTYLE
  2
DEFAULT
 70
     0
  3
<>
  4

  5
CLOSED
  6

  7

 40
1.0
 41
4.375
 42
1.05
 43
0.38
 44
2.1
 45
0.0
 46
0.0
 47
0.0
 48
0.0
140
3.5
141
0.09
142
0.0
143
25.4
144
1.0
145
0.0
146
0.4
147
1.75
 71
     0
 72
     0
 73
     0
 74
     0
 75
     0
 76
     0
 77
     1
 78
     8
170
     0
171
     2
172
     1
173
     0
174
     0
175
     0
176
     0
177
     0
178
     2
  0
DIMSTYLE
  2
DEFAULTDIMENSIONSTYLE
 70
     0
  3
<>
  4

  5

  6

  7

 40
1.0
 41
2.5
 42
0.875
 43
0.38
 44
1.75
 45
0.0
 46
0.0
 47
0.0
 48
0.0
140
3.5
141
0.09
142
0.0
143
25.4
144
1.0
145
0.0
146
1.0
147
1.75
 71
     0
 72
     0
 73
     0
 74
     0
 75
     0
 76
     0
 77
     1
 78
     8
170
     0
171
     2
172
     1
173
     0
174
     0
175
     0
176
     0
177
     0
178
     2
  0
DIMSTYLE
  2
ROLLERI
 70
     0
  3
<>
  4

  5

  6

  7

 40
1.0
 41
2.55
 42
1.05
 43
0.38
 44
0.7
 45
0.0
 46
0.0
 47
0.0
 48
0.0
140
3.5
141
0.09
142
0.0
143
25.4
144
1.0
145
0.0
146
0.65
147
1.05
 71
     0
 72
     0
 73
     0
 74
     0
 75
     0
 76
     0
 77
     1
 78
     8
170
     0
171
     2
172
     1
173
     0
174
     0
175
     0
176
     0
177
     0
178
     2
  0
ENDTAB
  0
ENDSEC
  0
SECTION
  2
BLOCKS
  0
BLOCK
  8
0
  2
$MODEL_SPACE
 70
     0
 10
0.0
 20
0.0
 30
0.0
  3
$MODEL_SPACE
  1

  0
ENDBLK
  5
21
  8
0
  0
BLOCK
 67
     1
  8
0
  2
$PAPER_SPACE
 70
     0
 10
0.0
 20
0.0
 30
0.0
  3
$PAPER_SPACE
  1

  0
ENDBLK
  5
1D
 67
     1
  8
0
  0
BLOCK
  8
0
  2
_CLOSED
 70
     0
 10
0.0
 20
0.0
 30
0.0
  3
_CLOSED
  1

  0
LINE
  5
75
  8
0
  6
BYBLOCK
 62
     0
 10
-1.0
 20
0.167
 30
0.0
 11
0.0
 21
0.0
 31
0.0
  0
LINE
  5
76
  8
0
  6
BYBLOCK
 62
     0
 10
0.0
 20
0.0
 30
0.0
 11
-1.0
 21
-0.167
 31
0.0
  0
LINE
  5
77
  8
0
  6
BYBLOCK
 62
     0
 10
-1.0
 20
0.167
 30
0.0
 11
-1.0
 21
-0.167
 31
0.0
  0
LINE
  5
78
  8
0
  6
BYBLOCK
 62
     0
 10
0.0
 20
0.0
 30
0.0
 11
-1.0
 21
0.0
 31
0.0
  0
ENDBLK
  5
74
  8
0
  0
BLOCK
  8
0
  2
GRUPPO
 70
     0
 10
-605.357
 20
185.693
 30
0.0
  3
GRUPPO
  1

  0
LINE
  5
7C
  8
1
  6
CONTINUOUS
 62
     0
 10
-612.357
 20
150.193
 30
0.0
 11
-620.357
 21
150.193
 31
0.0
  0
LINE
  5
7D
  8
1
  6
CONTINUOUS
 62
     0
 10
-620.357
 20
150.193
 30
0.0
 11
-621.357
 21
151.193
 31
0.0
  0
LINE
  5
7E
  8
1
  6
CONTINUOUS
 62
     0
 10
-621.357
 20
151.193
 30
0.0
 11
-621.357
 21
164.193
 31
0.0
  0
LINE
  5
7F
  8
1
  6
CONTINUOUS
 62
     0
 10
-621.357
 20
164.193
 30
0.0
 11
-620.357
 21
165.193
 31
0.0
  0
LINE
  5
80
  8
1
  6
CONTINUOUS
 62
     0
 10
-620.357
 20
165.193
 30
0.0
 11
-614.357
 21
165.193
 31
0.0
  0
LINE
  5
81
  8
1
  6
CONTINUOUS
 62
     0
 10
-614.357
 20
165.193
 30
0.0
 11
-614.357
 21
239.693
 31
0.0
  0
LINE
  5
82
  8
1
  6
CONTINUOUS
 62
     0
 10
-614.357
 20
239.693
 30
0.0
 11
-613.857
 21
240.193
 31
0.0
  0
LINE
  5
83
  8
1
  6
CONTINUOUS
 62
     0
 10
-613.857
 20
240.193
 30
0.0
 11
-610.125
 21
240.193
 31
0.0
  0
ARC
  5
84
  8
1
  6
CONTINUOUS
 62
     0
 10
-610.125
 20
239.193
 30
0.0
 40
1.00000000000003
 50
15.0
 51
90.0
  0
LINE
  5
85
  8
1
  6
CONTINUOUS
 62
     0
 10
-609.159
 20
239.452
 30
0.0
 11
-606.13
 21
228.149
 31
0.0
  0
ARC
  5
86
  8
1
  6
CONTINUOUS
 62
     0
 10
-605.357
 20
228.356
 30
0.0
 40
0.7999999999999514
 50
195.0
 51
345.0
  0
LINE
  5
87
  8
1
  6
CONTINUOUS
 62
     0
 10
-604.585
 20
228.149
 30
0.0
 11
-601.556
 21
239.452
 31
0.0
  0
ARC
  5
88
  8
1
  6
CONTINUOUS
 62
     0
 10
-600.59
 20
239.193
 30
0.0
 40
1.000000000000028
 50
90.0
 51
165.0
  0
LINE
  5
89
  8
1
  6
CONTINUOUS
 62
     0
 10
-600.59
 20
240.193
 30
0.0
 11
-596.857
 21
240.193
 31
0.0
  0
LINE
  5
8A
  8
1
  6
CONTINUOUS
 62
     0
 10
-596.857
 20
240.193
 30
0.0
 11
-596.357
 21
239.693
 31
0.0
  0
LINE
  5
8B
  8
1
  6
CONTINUOUS
 62
     0
 10
-596.357
 20
239.693
 30
0.0
 11
-596.357
 21
165.193
 31
0.0
  0
LINE
  5
8C
  8
1
  6
CONTINUOUS
 62
     0
 10
-596.357
 20
165.193
 30
0.0
 11
-590.357
 21
165.193
 31
0.0
  0
LINE
  5
8D
  8
1
  6
CONTINUOUS
 62
     0
 10
-590.357
 20
165.193
 30
0.0
 11
-589.357
 21
164.193
 31
0.0
  0
LINE
  5
8E
  8
1
  6
CONTINUOUS
 62
     0
 10
-589.357
 20
164.193
 30
0.0
 11
-589.357
 21
151.193
 31
0.0
  0
LINE
  5
8F
  8
1
  6
CONTINUOUS
 62
     0
 10
-589.357
 20
151.193
 30
0.0
 11
-590.357
 21
150.193
 31
0.0
  0
LINE
  5
90
  8
1
  6
CONTINUOUS
 62
     0
 10
-590.357
 20
150.193
 30
0.0
 11
-599.657
 21
150.193
 31
0.0
  0
LINE
  5
91
  8
1
  6
CONTINUOUS
 62
     0
 10
-599.657
 20
150.193
 30
0.0
 11
-599.657
 21
132.193
 31
0.0
  0
LINE
  5
92
  8
1
  6
CONTINUOUS
 62
     0
 10
-599.657
 20
132.193
 30
0.0
 11
-600.657
 21
131.193
 31
0.0
  0
LINE
  5
93
  8
1
  6
CONTINUOUS
 62
     0
 10
-600.657
 20
131.193
 30
0.0
 11
-605.357
 21
131.193
 31
0.0
  0
LINE
  5
94
  8
1
  6
CONTINUOUS
 62
     0
 10
-605.357
 20
131.193
 30
0.0
 11
-611.357
 21
131.193
 31
0.0
  0
LINE
  5
95
  8
1
  6
CONTINUOUS
 62
     0
 10
-611.357
 20
131.193
 30
0.0
 11
-612.357
 21
132.193
 31
0.0
  0
LINE
  5
96
  8
1
  6
CONTINUOUS
 62
     0
 10
-612.357
 20
132.193
 30
0.0
 11
-612.357
 21
150.193
 31
0.0
  0
ENDBLK
  5
98
  8
0
  0
ENDSEC
  0
SECTION
  2
ENTITIES
  0
INSERT
  5
99
  8
0
  2
GRUPPO
 10
-605.357
 20
185.693
 30
0.0
  0
ENDSEC
  0
EOF
