  0
SECTION
  2
HEADER
  9
$ACADVER
  1
AC1012
  9
$DWGCODEPAGE
  3
iso8859-1
  9
$INSBASE
 10
0.0
 20
0.0
 30
0.0
  9
$EXTMIN
 10
7.0
 20
5.0
 30
0.0
  9
$EXTMAX
 10
202.0
 20
288.0
 30
0.0
  9
$LIMMIN
 10
0.0
 20
0.0
  9
$LIMMAX
 10
210.0
 20
297.0
  9
$ORTHOMODE
 70
     1
  9
$REGENMODE
 70
     1
  9
$FILLMODE
 70
     1
  9
$QTEXTMODE
 70
     0
  9
$MIRRTEXT
 70
     1
  9
$DRAGMODE
 70
     2
  9
$LTSCALE
 40
1.0
  9
$OSMODE
 70
     0
  9
$ATTMODE
 70
     1
  9
$TEXTSIZE
 40
3.0
  9
$TRACEWID
 40
0.05
  9
$TEXTSTYLE
  7
STANDARD
  9
$CLAYER
  8
QUOTE
  9
$CELTYPE
  6
BYLAYER
  9
$CECOLOR
 62
   256
  9
$CELTSCALE
 40
1.0
  9
$DELOBJ
 70
     1
  9
$DISPSILH
 70
     0
  9
$DIMSCALE
 40
1.0
  9
$DIMASZ
 40
2.5
  9
$DIMEXO
 40
0.625
  9
$DIMDLI
 40
3.75
  9
$DIMRND
 40
0.0
  9
$DIMDLE
 40
0.0
  9
$DIMEXE
 40
1.25
  9
$DIMTP
 40
0.0
  9
$DIMTM
 40
0.0
  9
$DIMTXT
 40
3.0
  9
$DIMCEN
 40
2.5
  9
$DIMTSZ
 40
0.0
  9
$DIMTOL
 70
     0
  9
$DIMLIM
 70
     0
  9
$DIMTIH
 70
     0
  9
$DIMTOH
 70
     0
  9
$DIMSE1
 70
     0
  9
$DIMSE2
 70
     0
  9
$DIMTAD
 70
     1
  9
$DIMZIN
 70
     8
  9
$DIMBLK
  1

  9
$DIMASO
 70
     1
  9
$DIMSHO
 70
     1
  9
$DIMPOST
  1

  9
$DIMAPOST
  1

  9
$DIMALT
 70
     0
  9
$DIMALTD
 70
     2
  9
$DIMALTF
 40
0.03937
  9
$DIMLFAC
 40
1.0
  9
$DIMTOFL
 70
     0
  9
$DIMTVP
 40
0.0
  9
$DIMTIX
 70
     0
  9
$DIMSOXD
 70
     0
  9
$DIMSAH
 70
     0
  9
$DIMBLK1
  1

  9
$DIMBLK2
  1

  9
$DIMSTYLE
  2
STANDARD
  9
$DIMCLRD
 70
     0
  9
$DIMCLRE
 70
     0
  9
$DIMCLRT
 70
     0
  9
$DIMTFAC
 40
1.0
  9
$DIMGAP
 40
0.625
  9
$DIMJUST
 70
     0
  9
$DIMSD1
 70
     0
  9
$DIMSD2
 70
     0
  9
$DIMTOLJ
 70
     1
  9
$DIMTZIN
 70
     8
  9
$DIMALTZ
 70
     0
  9
$DIMALTTZ
 70
     0
  9
$DIMFIT
 70
     3
  9
$DIMUPT
 70
     0
  9
$DIMUNIT
 70
     2
  9
$DIMDEC
 70
     2
  9
$DIMTDEC
 70
     2
  9
$DIMALTU
 70
     2
  9
$DIMALTTD
 70
     2
  9
$DIMTXSTY
  7
STANDARD
  9
$DIMAUNIT
 70
     0
  9
$LUNITS
 70
     2
  9
$LUPREC
 70
     4
  9
$SKETCHINC
 40
0.1
  9
$FILLETRAD
 40
20.0
  9
$AUNITS
 70
     0
  9
$AUPREC
 70
     0
  9
$MENU
  1
acad
  9
$ELEVATION
 40
0.0
  9
$PELEVATION
 40
0.0
  9
$THICKNESS
 40
0.0
  9
$LIMCHECK
 70
     0
  9
$BLIPMODE
 70
     1
  9
$CHAMFERA
 40
1.0
  9
$CHAMFERB
 40
1.0
  9
$CHAMFERC
 40
20.0
  9
$CHAMFERD
 40
0.0
  9
$SKPOLY
 70
     0
  9
$TDCREATE
 40
2451641.469544907
  9
$TDUPDATE
 40
2452630.473443750
  9
$TDINDWG
 40
0.0563672454
  9
$TDUSRTIMER
 40
0.0563672454
  9
$USRTIMER
 70
     1
  9
$ANGBASE
 50
0.0
  9
$ANGDIR
 70
     0
  9
$PDMODE
 70
     0
  9
$PDSIZE
 40
0.0
  9
$PLINEWID
 40
0.0
  9
$COORDS
 70
     1
  9
$SPLFRAME
 70
     0
  9
$SPLINETYPE
 70
     6
  9
$SPLINESEGS
 70
     8
  9
$ATTDIA
 70
     0
  9
$ATTREQ
 70
     1
  9
$HANDLING
 70
     1
  9
$HANDSEED
  5
5C4
  9
$SURFTAB1
 70
     6
  9
$SURFTAB2
 70
     6
  9
$SURFTYPE
 70
     6
  9
$SURFU
 70
     6
  9
$SURFV
 70
     6
  9
$UCSNAME
  2

  9
$UCSORG
 10
0.0
 20
0.0
 30
0.0
  9
$UCSXDIR
 10
1.0
 20
0.0
 30
0.0
  9
$UCSYDIR
 10
0.0
 20
1.0
 30
0.0
  9
$PUCSNAME
  2

  9
$PUCSORG
 10
0.0
 20
0.0
 30
0.0
  9
$PUCSXDIR
 10
1.0
 20
0.0
 30
0.0
  9
$PUCSYDIR
 10
0.0
 20
1.0
 30
0.0
  9
$USERI1
 70
     0
  9
$USERI2
 70
     0
  9
$USERI3
 70
     0
  9
$USERI4
 70
     0
  9
$USERI5
 70
     0
  9
$USERR1
 40
0.0
  9
$USERR2
 40
0.0
  9
$USERR3
 40
0.0
  9
$USERR4
 40
0.0
  9
$USERR5
 40
0.0
  9
$WORLDVIEW
 70
     1
  9
$SHADEDGE
 70
     3
  9
$SHADEDIF
 70
    70
  9
$TILEMODE
 70
     1
  9
$MAXACTVP
 70
    16
  9
$PINSBASE
 10
0.0
 20
0.0
 30
0.0
  9
$PLIMCHECK
 70
     0
  9
$PEXTMIN
 10
1.000000E+20
 20
1.000000E+20
 30
1.000000E+20
  9
$PEXTMAX
 10
-1.000000E+20
 20
-1.000000E+20
 30
-1.000000E+20
  9
$PLIMMIN
 10
0.0
 20
0.0
  9
$PLIMMAX
 10
12.0
 20
9.0
  9
$UNITMODE
 70
     0
  9
$VISRETAIN
 70
     0
  9
$PLINEGEN
 70
     0
  9
$PSLTSCALE
 70
     1
  9
$TREEDEPTH
 70
  3020
  9
$PICKSTYLE
 70
     1
  9
$CMLSTYLE
  2
STANDARD
  9
$CMLJUST
 70
     0
  9
$CMLSCALE
 40
20.0
  9
$SAVEIMAGES
 70
     0
  0
ENDSEC
  0
SECTION
  2
CLASSES
  0
ENDSEC
  0
SECTION
  2
TABLES
  0
TABLE
  2
VPORT
  5
8
100
AcDbSymbolTable
 70
     3
  0
VPORT
  5
5C3
100
AcDbSymbolTableRecord
100
AcDbViewportTableRecord
  2
*ACTIVE
 70
     0
 10
0.0
 20
0.0
 11
1.0
 21
1.0
 12
128.384336
 22
143.340011
 13
0.0
 23
0.0
 14
10.0
 24
10.0
 15
10.0
 25
10.0
 16
0.0
 26
0.0
 36
1.0
 17
0.0
 27
0.0
 37
0.0
 40
260.726987
 41
1.873134
 42
50.0
 43
0.0
 44
0.0
 50
0.0
 51
0.0
 71
     0
 72
   100
 73
     1
 74
     0
 75
     0
 76
     0
 77
     0
 78
     0
  0
ENDTAB
  0
TABLE
  2
LTYPE
  5
5
100
AcDbSymbolTable
 70
     4
  0
LTYPE
  5
13
100
AcDbSymbolTableRecord
100
AcDbLinetypeTableRecord
  2
BYBLOCK
 70
     0
  3

 72
    65
 73
     0
 40
0.0
  0
LTYPE
  5
14
100
AcDbSymbolTableRecord
100
AcDbLinetypeTableRecord
  2
BYLAYER
 70
     0
  3

 72
    65
 73
     0
 40
0.0
  0
LTYPE
  5
15
100
AcDbSymbolTableRecord
100
AcDbLinetypeTableRecord
  2
CONTINUOUS
 70
    64
  3
Solid line
 72
    65
 73
     0
 40
0.0
  0
LTYPE
  5
94
100
AcDbSymbolTableRecord
100
AcDbLinetypeTableRecord
  2
ACAD_ISO04W100
 70
    64
  3
____ . ____ . ____ . ____ . ____ . ____ . ____ 
 72
    65
 73
     4
 40
30.5
 49
24.0
 74
     0
 49
-3.0
 74
     0
 49
0.5
 74
     0
 49
-3.0
 74
     0
  0
LTYPE
  5
225
100
AcDbSymbolTableRecord
100
AcDbLinetypeTableRecord
  2
TRATTEGGIATAX2
 70
    64
  3
____  ____  ____  ____  ____  ____  ____  ____ 
 72
    65
 73
     2
 40
1.5
 49
1.0
 74
     0
 49
-0.5
 74
     0
  0
LTYPE
  5
226
100
AcDbSymbolTableRecord
100
AcDbLinetypeTableRecord
  2
NASCOSTA
 70
    64
  3
__ __ __ __ __ __ __ __ __ __ __ __ __ __ __ __
 72
    65
 73
     2
 40
0.375
 49
0.25
 74
     0
 49
-0.125
 74
     0
  0
ENDTAB
  0
TABLE
  2
LAYER
  5
2
100
AcDbSymbolTable
 70
     9
  0
LAYER
  5
F
100
AcDbSymbolTableRecord
100
AcDbLayerTableRecord
  2
0
 70
     0
 62
     7
  6
CONTINUOUS
  0
LAYER
  5
95
100
AcDbSymbolTableRecord
100
AcDbLayerTableRecord
  2
DISEGNO
 70
    64
 62
     7
  6
CONTINUOUS
  0
LAYER
  5
96
100
AcDbSymbolTableRecord
100
AcDbLayerTableRecord
  2
ASSI
 70
    64
 62
     1
  6
ACAD_ISO04W100
  0
LAYER
  5
97
100
AcDbSymbolTableRecord
100
AcDbLayerTableRecord
  2
SEZIONE
 70
    64
 62
     3
  6
CONTINUOUS
  0
LAYER
  5
98
100
AcDbSymbolTableRecord
100
AcDbLayerTableRecord
  2
TEMPRA
 70
    64
 62
     2
  6
CONTINUOUS
  0
LAYER
  5
99
100
AcDbSymbolTableRecord
100
AcDbLayerTableRecord
  2
QUOTE
 70
    64
 62
     5
  6
CONTINUOUS
  0
LAYER
  5
9A
100
AcDbSymbolTableRecord
100
AcDbLayerTableRecord
  2
FOGLIO
 70
    64
 62
     8
  6
CONTINUOUS
  0
LAYER
  5
1A3
100
AcDbSymbolTableRecord
100
AcDbLayerTableRecord
  2
TRATTO
 70
    64
 62
     6
  6
NASCOSTA
  0
LAYER
  5
27D
100
AcDbSymbolTableRecord
100
AcDbLayerTableRecord
  2
DEFPOINTS
 70
    64
 62
     7
  6
CONTINUOUS
  0
ENDTAB
  0
TABLE
  2
STYLE
  5
3
100
AcDbSymbolTable
 70
     2
  0
STYLE
  5
10
100
AcDbSymbolTableRecord
100
AcDbTextStyleTableRecord
  2
STANDARD
 70
    64
 40
0.0
 41
1.1
 50
0.0
 71
     0
 42
3.0
  3
C:\Programmi\AutoCAD LT\isocp.shx
  4

  0
STYLE
  5
B0
100
AcDbSymbolTableRecord
100
AcDbTextStyleTableRecord
  2
STYLE3
 70
    64
 40
0.0
 41
1.5
 50
0.0
 71
     0
 42
4.0
  3
C:\Programmi\AutoCAD LT\isocp3.shx
  4

  0
ENDTAB
  0
TABLE
  2
VIEW
  5
6
100
AcDbSymbolTable
 70
     0
  0
ENDTAB
  0
TABLE
  2
UCS
  5
7
100
AcDbSymbolTable
 70
     0
  0
ENDTAB
  0
TABLE
  2
APPID
  5
9
100
AcDbSymbolTable
 70
     1
  0
APPID
  5
11
100
AcDbSymbolTableRecord
100
AcDbRegAppTableRecord
  2
ACAD
 70
     0
  0
ENDTAB
  0
TABLE
  2
DIMSTYLE
  5
A
100
AcDbSymbolTable
 70
     9
  0
DIMSTYLE
105
1D
100
AcDbSymbolTableRecord
100
AcDbDimStyleTableRecord
  2
STANDARD
 70
     0
  3

  4

  5

  6

  7

 40
1.0
 41
2.5
 42
0.625
 43
3.75
 44
1.25
 45
0.0
 46
0.0
 47
0.0
 48
0.0
140
3.0
141
2.5
142
0.0
143
0.03937
144
1.0
145
0.0
146
1.0
147
0.625
 71
     0
 72
     0
 73
     0
 74
     0
 75
     0
 76
     0
 77
     1
 78
     8
170
     0
171
     2
172
     0
173
     0
174
     0
175
     0
176
     0
177
     0
178
     0
270
     2
271
     2
272
     2
273
     2
274
     2
340
10
275
     0
280
     0
281
     0
282
     0
283
     1
284
     8
285
     0
286
     0
287
     3
288
     0
  0
DIMSTYLE
105
198
100
AcDbSymbolTableRecord
100
AcDbDimStyleTableRecord
  2
TOLL-06
 70
     0
  3

  4

  5

  6

  7

 40
1.0
 41
2.5
 42
0.625
 43
3.75
 44
1.25
 45
0.0
 46
0.0
 47
0.1
 48
0.1
140
3.0
141
2.5
142
0.0
143
0.03937
144
1.0
145
0.0
146
0.8
147
0.625
 71
     1
 72
     0
 73
     0
 74
     0
 75
     0
 76
     0
 77
     1
 78
     8
170
     0
171
     2
172
     0
173
     0
174
     0
175
     0
176
     0
177
     0
178
     0
270
     2
271
     2
272
     2
273
     2
274
     2
340
10
275
     0
280
     0
281
     0
282
     0
283
     2
284
     8
285
     0
286
     0
287
     3
288
     0
  0
DIMSTYLE
105
20B
100
AcDbSymbolTableRecord
100
AcDbDimStyleTableRecord
  2
TOLL-01
 70
     0
  3

  4

  5

  6

  7

 40
1.0
 41
2.5
 42
0.625
 43
3.75
 44
1.25
 45
0.0
 46
0.0
 47
0.02
 48
0.0
140
3.0
141
2.5
142
0.0
143
0.03937
144
1.0
145
0.0
146
0.8
147
0.625
 71
     1
 72
     0
 73
     0
 74
     0
 75
     0
 76
     0
 77
     1
 78
     8
170
     0
171
     2
172
     0
173
     0
174
     0
175
     0
176
     0
177
     0
178
     0
270
     2
271
     2
272
     2
273
     2
274
     2
340
10
275
     0
280
     0
281
     0
282
     0
283
     2
284
     8
285
     0
286
     0
287
     3
288
     0
  0
DIMSTYLE
105
232
100
AcDbSymbolTableRecord
100
AcDbDimStyleTableRecord
  2
TOLL-02
 70
     0
  3

  4

  5

  6

  7

 40
1.0
 41
2.5
 42
0.625
 43
3.75
 44
1.25
 45
0.0
 46
0.0
 47
0.0
 48
-0.02
140
3.0
141
2.5
142
0.0
143
0.03937
144
1.0
145
0.0
146
0.8
147
0.625
 71
     1
 72
     0
 73
     0
 74
     0
 75
     0
 76
     0
 77
     1
 78
     8
170
     0
171
     2
172
     0
173
     0
174
     0
175
     0
176
     0
177
     0
178
     0
270
     2
271
     2
272
     2
273
     2
274
     2
340
10
275
     0
280
     0
281
     0
282
     0
283
     2
284
     8
285
     0
286
     0
287
     3
288
     0
  0
DIMSTYLE
105
233
100
AcDbSymbolTableRecord
100
AcDbDimStyleTableRecord
  2
TOLL-03
 70
     0
  3

  4

  5

  6

  7

 40
1.0
 41
2.5
 42
0.625
 43
3.75
 44
1.25
 45
0.0
 46
0.0
 47
0.01
 48
0.01
140
3.0
141
2.5
142
0.0
143
0.03937
144
1.0
145
0.0
146
0.8
147
0.625
 71
     1
 72
     0
 73
     0
 74
     0
 75
     0
 76
     0
 77
     1
 78
     8
170
     0
171
     2
172
     0
173
     0
174
     0
175
     0
176
     0
177
     0
178
     0
270
     2
271
     2
272
     2
273
     2
274
     2
340
10
275
     0
280
     0
281
     0
282
     0
283
     2
284
     8
285
     0
286
     0
287
     3
288
     0
  0
DIMSTYLE
105
234
100
AcDbSymbolTableRecord
100
AcDbDimStyleTableRecord
  2
TOLL-04
 70
     0
  3

  4

  5

  6

  7

 40
1.0
 41
2.5
 42
0.625
 43
3.75
 44
1.25
 45
0.0
 46
0.0
 47
0.05
 48
0.05
140
3.0
141
2.5
142
0.0
143
0.03937
144
1.0
145
0.0
146
0.8
147
0.625
 71
     1
 72
     0
 73
     0
 74
     0
 75
     0
 76
     0
 77
     1
 78
     8
170
     0
171
     2
172
     0
173
     0
174
     0
175
     0
176
     0
177
     0
178
     0
270
     2
271
     2
272
     2
273
     2
274
     2
340
10
275
     0
280
     0
281
     0
282
     0
283
     2
284
     8
285
     0
286
     0
287
     3
288
     0
  0
DIMSTYLE
105
235
100
AcDbSymbolTableRecord
100
AcDbDimStyleTableRecord
  2
TOLL-05
 70
     0
  3

  4

  5

  6

  7

 40
1.0
 41
2.5
 42
0.625
 43
3.75
 44
1.25
 45
0.0
 46
0.0
 47
0.1
 48
0.0
140
3.0
141
2.5
142
0.0
143
0.03937
144
1.0
145
0.0
146
0.8
147
0.625
 71
     1
 72
     0
 73
     0
 74
     0
 75
     0
 76
     0
 77
     1
 78
     8
170
     0
171
     2
172
     0
173
     0
174
     0
175
     0
176
     0
177
     0
178
     0
270
     2
271
     2
272
     2
273
     2
274
     2
340
10
275
     0
280
     0
281
     0
282
     0
283
     2
284
     8
285
     0
286
     0
287
     3
288
     0
  0
DIMSTYLE
105
247
100
AcDbSymbolTableRecord
100
AcDbDimStyleTableRecord
  2
TOLL-07
 70
     0
  3

  4

  5

  6

  7

 40
1.0
 41
2.5
 42
0.625
 43
3.75
 44
1.25
 45
0.0
 46
0.0
 47
-0.1
 48
0.0
140
3.0
141
2.5
142
0.0
143
0.03937
144
1.0
145
0.0
146
1.0
147
0.625
 71
     1
 72
     0
 73
     0
 74
     0
 75
     0
 76
     0
 77
     1
 78
     8
170
     0
171
     2
172
     0
173
     0
174
     0
175
     0
176
     0
177
     0
178
     0
270
     2
271
     2
272
     2
273
     2
274
     2
340
10
275
     0
280
     0
281
     0
282
     0
283
     1
284
     8
285
     0
286
     0
287
     3
288
     0
  0
DIMSTYLE
105
251
100
AcDbSymbolTableRecord
100
AcDbDimStyleTableRecord
  2
TOLL-08
 70
     0
  3

  4

  5

  6

  7

 40
1.0
 41
2.5
 42
0.625
 43
3.75
 44
1.25
 45
0.0
 46
0.0
 47
0.05
 48
0.0
140
3.0
141
2.5
142
0.0
143
0.03937
144
1.0
145
0.0
146
1.0
147
0.625
 71
     1
 72
     0
 73
     0
 74
     0
 75
     0
 76
     0
 77
     1
 78
     8
170
     0
171
     2
172
     0
173
     0
174
     0
175
     0
176
     0
177
     0
178
     0
270
     2
271
     2
272
     2
273
     2
274
     2
340
10
275
     0
280
     0
281
     0
282
     0
283
     1
284
     8
285
     0
286
     0
287
     3
288
     0
  0
ENDTAB
  0
TABLE
  2
BLOCK_RECORD
  5
1
100
AcDbSymbolTable
 70
    22
  0
BLOCK_RECORD
  5
19
100
AcDbSymbolTableRecord
100
AcDbBlockTableRecord
  2
*MODEL_SPACE
  0
BLOCK_RECORD
  5
16
100
AcDbSymbolTableRecord
100
AcDbBlockTableRecord
  2
*PAPER_SPACE
  0
BLOCK_RECORD
  5
28B
100
AcDbSymbolTableRecord
100
AcDbBlockTableRecord
  2
*D0
  0
BLOCK_RECORD
  5
298
100
AcDbSymbolTableRecord
100
AcDbBlockTableRecord
  2
*D1
  0
BLOCK_RECORD
  5
2A6
100
AcDbSymbolTableRecord
100
AcDbBlockTableRecord
  2
*D2
  0
BLOCK_RECORD
  5
2B3
100
AcDbSymbolTableRecord
100
AcDbBlockTableRecord
  2
*D3
  0
BLOCK_RECORD
  5
2C0
100
AcDbSymbolTableRecord
100
AcDbBlockTableRecord
  2
*D4
  0
BLOCK_RECORD
  5
2CD
100
AcDbSymbolTableRecord
100
AcDbBlockTableRecord
  2
*D5
  0
BLOCK_RECORD
  5
2F5
100
AcDbSymbolTableRecord
100
AcDbBlockTableRecord
  2
*D6
  0
BLOCK_RECORD
  5
361
100
AcDbSymbolTableRecord
100
AcDbBlockTableRecord
  2
*D7
  0
BLOCK_RECORD
  5
37E
100
AcDbSymbolTableRecord
100
AcDbBlockTableRecord
  2
*D8
  0
BLOCK_RECORD
  5
389
100
AcDbSymbolTableRecord
100
AcDbBlockTableRecord
  2
*D9
  0
BLOCK_RECORD
  5
396
100
AcDbSymbolTableRecord
100
AcDbBlockTableRecord
  2
*D10
  0
BLOCK_RECORD
  5
47D
100
AcDbSymbolTableRecord
100
AcDbBlockTableRecord
  2
*D11
  0
BLOCK_RECORD
  5
486
100
AcDbSymbolTableRecord
100
AcDbBlockTableRecord
  2
*D12
  0
BLOCK_RECORD
  5
494
100
AcDbSymbolTableRecord
100
AcDbBlockTableRecord
  2
*D13
  0
BLOCK_RECORD
  5
4A1
100
AcDbSymbolTableRecord
100
AcDbBlockTableRecord
  2
*D14
  0
BLOCK_RECORD
  5
4D2
100
AcDbSymbolTableRecord
100
AcDbBlockTableRecord
  2
*D15
  0
BLOCK_RECORD
  5
4E0
100
AcDbSymbolTableRecord
100
AcDbBlockTableRecord
  2
*D16
  0
BLOCK_RECORD
  5
4F5
100
AcDbSymbolTableRecord
100
AcDbBlockTableRecord
  2
*X17
  0
BLOCK_RECORD
  5
52C
100
AcDbSymbolTableRecord
100
AcDbBlockTableRecord
  2
*D18
  0
BLOCK_RECORD
  5
547
100
AcDbSymbolTableRecord
100
AcDbBlockTableRecord
  2
*X19
  0
BLOCK_RECORD
  5
561
100
AcDbSymbolTableRecord
100
AcDbBlockTableRecord
  2
*D20
  0
BLOCK_RECORD
  5
586
100
AcDbSymbolTableRecord
100
AcDbBlockTableRecord
  2
RUGOSITA
  0
ENDTAB
  0
ENDSEC
  0
SECTION
  2
BLOCKS
  0
BLOCK
  5
1A
100
AcDbEntity
  8
0
100
AcDbBlockBegin
  2
*MODEL_SPACE
 70
     0
 10
0.0
 20
0.0
 30
0.0
  3
*MODEL_SPACE
  1

  0
ENDBLK
  5
1B
100
AcDbEntity
  8
0
100
AcDbBlockEnd
  0
BLOCK
  5
17
100
AcDbEntity
 67
     1
  8
0
100
AcDbBlockBegin
  2
*PAPER_SPACE
 70
     0
 10
0.0
 20
0.0
 30
0.0
  3
*PAPER_SPACE
  1

  0
ENDBLK
  5
18
100
AcDbEntity
 67
     1
  8
0
100
AcDbBlockEnd
  0
BLOCK
  5
3D0
100
AcDbEntity
  8
0
100
AcDbBlockBegin
  2
*D0
 70
    65
 10
0.0
 20
0.0
 30
0.0
  3
*D0
  1

  0
LINE
  5
3D1
100
AcDbEntity
  8
0
  6
BYBLOCK
 62
     0
100
AcDbLine
 10
87.47196
 20
212.093024
 30
0.0
 11
87.47196
 21
241.254052
 31
0.0
  0
LINE
  5
3D2
100
AcDbEntity
  8
0
  6
BYBLOCK
 62
     0
100
AcDbLine
 10
100.47196
 20
212.093024
 30
0.0
 11
100.47196
 21
241.254052
 31
0.0
  0
LINE
  5
3D3
100
AcDbEntity
  8
0
  6
BYBLOCK
 62
     0
100
AcDbLine
 10
97.97196
 20
240.004052
 30
0.0
 11
89.97196
 21
240.004052
 31
0.0
  0
LINE
  5
3D4
100
AcDbEntity
  8
0
  6
BYBLOCK
 62
     0
100
AcDbLine
 10
87.47196
 20
240.004052
 30
0.0
 11
73.45296
 21
240.004052
 31
0.0
  0
SOLID
  5
3D5
100
AcDbEntity
  8
0
  6
BYBLOCK
 62
     0
100
AcDbTrace
 10
97.97196
 20
240.420719
 30
0.0
 11
97.97196
 21
239.587385
 31
0.0
 12
100.47196
 22
240.004052
 32
0.0
 13
100.47196
 23
240.004052
 33
0.0
  0
SOLID
  5
3D6
100
AcDbEntity
  8
0
  6
BYBLOCK
 62
     0
100
AcDbTrace
 10
89.97196
 20
240.420719
 30
0.0
 11
89.97196
 21
239.587385
 31
0.0
 12
87.47196
 22
240.004052
 32
0.0
 13
87.47196
 23
240.004052
 33
0.0
  0
MTEXT
  5
3D7
100
AcDbEntity
  8
0
  6
BYBLOCK
 62
     0
100
AcDbMText
 10
80.14996
 20
243.369761
 30
0.0
 40
3.0
 41
0.0
 71
     5
 72
     1
  1
\A2;13{\H2.400000;\S+0.02^  0;}
  0
POINT
  5
3D8
100
AcDbEntity
  8
DEFPOINTS
  6
BYBLOCK
 62
     0
100
AcDbPoint
 10
87.47196
 20
211.468024
 30
0.0
  0
POINT
  5
3D9
100
AcDbEntity
  8
DEFPOINTS
  6
BYBLOCK
 62
     0
100
AcDbPoint
 10
100.47196
 20
211.468024
 30
0.0
  0
POINT
  5
3DA
100
AcDbEntity
  8
DEFPOINTS
  6
BYBLOCK
 62
     0
100
AcDbPoint
 10
100.47196
 20
240.004052
 30
0.0
  0
ENDBLK
  5
3DB
100
AcDbEntity
  8
0
100
AcDbBlockEnd
  0
BLOCK
  5
400
100
AcDbEntity
  8
0
100
AcDbBlockBegin
  2
*D1
 70
    65
 10
0.0
 20
0.0
 30
0.0
  3
*D1
  1

  0
LINE
  5
401
100
AcDbEntity
  8
0
  6
BYBLOCK
 62
     0
100
AcDbLine
 10
100.47196
 20
212.093024
 30
0.0
 11
100.47196
 21
241.254052
 31
0.0
  0
LINE
  5
402
100
AcDbEntity
  8
0
  6
BYBLOCK
 62
     0
100
AcDbLine
 10
107.47196
 20
234.269444
 30
0.0
 11
107.47196
 21
241.254052
 31
0.0
  0
LINE
  5
403
100
AcDbEntity
  8
0
  6
BYBLOCK
 62
     0
100
AcDbLine
 10
102.97196
 20
240.004052
 30
0.0
 11
104.97196
 21
240.004052
 31
0.0
  0
LINE
  5
404
100
AcDbEntity
  8
0
  6
BYBLOCK
 62
     0
100
AcDbLine
 10
107.47196
 20
240.004052
 30
0.0
 11
126.63989
 21
240.004052
 31
0.0
  0
SOLID
  5
405
100
AcDbEntity
  8
0
  6
BYBLOCK
 62
     0
100
AcDbTrace
 10
102.97196
 20
240.420719
 30
0.0
 11
102.97196
 21
239.587385
 31
0.0
 12
100.47196
 22
240.004052
 32
0.0
 13
100.47196
 23
240.004052
 33
0.0
  0
SOLID
  5
406
100
AcDbEntity
  8
0
  6
BYBLOCK
 62
     0
100
AcDbTrace
 10
104.97196
 20
240.420719
 30
0.0
 11
104.97196
 21
239.587385
 31
0.0
 12
107.47196
 22
240.004052
 32
0.0
 13
107.47196
 23
240.004052
 33
0.0
  0
MTEXT
  5
407
100
AcDbEntity
  8
0
  6
BYBLOCK
 62
     0
100
AcDbMText
 10
121.42789
 20
242.129052
 30
0.0
 40
3.0
 41
0.0
 71
     5
 72
     1
  1
\A2;7{\H2.400000;±0.01}
  0
POINT
  5
408
100
AcDbEntity
  8
DEFPOINTS
  6
BYBLOCK
 62
     0
100
AcDbPoint
 10
100.47196
 20
211.468024
 30
0.0
  0
POINT
  5
409
100
AcDbEntity
  8
DEFPOINTS
  6
BYBLOCK
 62
     0
100
AcDbPoint
 10
107.47196
 20
233.644444
 30
0.0
  0
POINT
  5
40A
100
AcDbEntity
  8
DEFPOINTS
  6
BYBLOCK
 62
     0
100
AcDbPoint
 10
107.47196
 20
240.004052
 30
0.0
  0
ENDBLK
  5
40B
100
AcDbEntity
  8
0
100
AcDbBlockEnd
  0
BLOCK
  5
3AE
100
AcDbEntity
  8
0
100
AcDbBlockBegin
  2
*D2
 70
    65
 10
0.0
 20
0.0
 30
0.0
  3
*D2
  1

  0
LINE
  5
3AF
100
AcDbEntity
  8
0
  6
BYBLOCK
 62
     0
100
AcDbLine
 10
58.47196
 20
171.093024
 30
0.0
 11
58.47196
 21
253.871134
 31
0.0
  0
LINE
  5
3B0
100
AcDbEntity
  8
0
  6
BYBLOCK
 62
     0
100
AcDbLine
 10
114.47196
 20
182.093024
 30
0.0
 11
114.47196
 21
253.871134
 31
0.0
  0
LINE
  5
3B1
100
AcDbEntity
  8
0
  6
BYBLOCK
 62
     0
100
AcDbLine
 10
60.97196
 20
252.621134
 30
0.0
 11
111.97196
 21
252.621134
 31
0.0
  0
SOLID
  5
3B2
100
AcDbEntity
  8
0
  6
BYBLOCK
 62
     0
100
AcDbTrace
 10
60.97196
 20
253.037801
 30
0.0
 11
60.97196
 21
252.204468
 31
0.0
 12
58.47196
 22
252.621134
 32
0.0
 13
58.47196
 23
252.621134
 33
0.0
  0
SOLID
  5
3B3
100
AcDbEntity
  8
0
  6
BYBLOCK
 62
     0
100
AcDbTrace
 10
111.97196
 20
253.037801
 30
0.0
 11
111.97196
 21
252.204468
 31
0.0
 12
114.47196
 22
252.621134
 32
0.0
 13
114.47196
 23
252.621134
 33
0.0
  0
MTEXT
  5
3B4
100
AcDbEntity
  8
0
  6
BYBLOCK
 62
     0
100
AcDbMText
 10
86.47196
 20
254.746134
 30
0.0
 40
3.0
 41
0.0
 71
     5
 72
     1
  1
\A2;56{\H2.400000;±0.05}
  0
POINT
  5
3B5
100
AcDbEntity
  8
DEFPOINTS
  6
BYBLOCK
 62
     0
100
AcDbPoint
 10
58.47196
 20
170.468024
 30
0.0
  0
POINT
  5
3B6
100
AcDbEntity
  8
DEFPOINTS
  6
BYBLOCK
 62
     0
100
AcDbPoint
 10
114.47196
 20
181.468024
 30
0.0
  0
POINT
  5
3B7
100
AcDbEntity
  8
DEFPOINTS
  6
BYBLOCK
 62
     0
100
AcDbPoint
 10
114.47196
 20
252.621134
 30
0.0
  0
ENDBLK
  5
3B8
100
AcDbEntity
  8
0
100
AcDbBlockEnd
  0
BLOCK
  5
3B9
100
AcDbEntity
  8
0
100
AcDbBlockBegin
  2
*D3
 70
    65
 10
0.0
 20
0.0
 30
0.0
  3
*D3
  1

  0
LINE
  5
3BA
100
AcDbEntity
  8
0
  6
BYBLOCK
 62
     0
100
AcDbLine
 10
87.47196
 20
212.093024
 30
0.0
 11
87.47196
 21
234.651153
 31
0.0
  0
LINE
  5
3BB
100
AcDbEntity
  8
0
  6
BYBLOCK
 62
     0
100
AcDbLine
 10
58.47196
 20
171.093024
 30
0.0
 11
58.47196
 21
234.651153
 31
0.0
  0
LINE
  5
3BC
100
AcDbEntity
  8
0
  6
BYBLOCK
 62
     0
100
AcDbLine
 10
84.97196
 20
233.401153
 30
0.0
 11
60.97196
 21
233.401153
 31
0.0
  0
SOLID
  5
3BD
100
AcDbEntity
  8
0
  6
BYBLOCK
 62
     0
100
AcDbTrace
 10
84.97196
 20
233.81782
 30
0.0
 11
84.97196
 21
232.984486
 31
0.0
 12
87.47196
 22
233.401153
 32
0.0
 13
87.47196
 23
233.401153
 33
0.0
  0
SOLID
  5
3BE
100
AcDbEntity
  8
0
  6
BYBLOCK
 62
     0
100
AcDbTrace
 10
60.97196
 20
233.81782
 30
0.0
 11
60.97196
 21
232.984486
 31
0.0
 12
58.47196
 22
233.401153
 32
0.0
 13
58.47196
 23
233.401153
 33
0.0
  0
MTEXT
  5
3BF
100
AcDbEntity
  8
0
  6
BYBLOCK
 62
     0
100
AcDbMText
 10
72.97196
 20
235.526153
 30
0.0
 40
3.0
 41
0.0
 71
     5
 72
     1
  1
\A2;29{\H2.400000;±0.05}
  0
POINT
  5
3C0
100
AcDbEntity
  8
DEFPOINTS
  6
BYBLOCK
 62
     0
100
AcDbPoint
 10
87.47196
 20
211.468024
 30
0.0
  0
POINT
  5
3C1
100
AcDbEntity
  8
DEFPOINTS
  6
BYBLOCK
 62
     0
100
AcDbPoint
 10
58.47196
 20
170.468024
 30
0.0
  0
POINT
  5
3C2
100
AcDbEntity
  8
DEFPOINTS
  6
BYBLOCK
 62
     0
100
AcDbPoint
 10
58.47196
 20
233.401153
 30
0.0
  0
ENDBLK
  5
3C3
100
AcDbEntity
  8
0
100
AcDbBlockEnd
  0
BLOCK
  5
57B
100
AcDbEntity
  8
0
100
AcDbBlockBegin
  2
*D4
 70
    65
 10
0.0
 20
0.0
 30
0.0
  3
*D4
  1

  0
LINE
  5
57C
100
AcDbEntity
  8
0
  6
BYBLOCK
 62
     0
100
AcDbLine
 10
87.84696
 20
212.468024
 30
0.0
 11
72.683327
 21
212.468024
 31
0.0
  0
LINE
  5
57D
100
AcDbEntity
  8
0
  6
BYBLOCK
 62
     0
100
AcDbLine
 10
87.84696
 20
195.468024
 30
0.0
 11
72.683327
 21
195.468024
 31
0.0
  0
LINE
  5
57E
100
AcDbEntity
  8
0
  6
BYBLOCK
 62
     0
100
AcDbLine
 10
73.933327
 20
209.968024
 30
0.0
 11
73.933327
 21
197.968024
 31
0.0
  0
SOLID
  5
57F
100
AcDbEntity
  8
0
  6
BYBLOCK
 62
     0
100
AcDbTrace
 10
73.51666
 20
209.968024
 30
0.0
 11
74.349993
 21
209.968024
 31
0.0
 12
73.933327
 22
212.468024
 32
0.0
 13
73.933327
 23
212.468024
 33
0.0
  0
SOLID
  5
580
100
AcDbEntity
  8
0
  6
BYBLOCK
 62
     0
100
AcDbTrace
 10
73.51666
 20
197.968024
 30
0.0
 11
74.349993
 21
197.968024
 31
0.0
 12
73.933327
 22
195.468024
 32
0.0
 13
73.933327
 23
195.468024
 33
0.0
  0
MTEXT
  5
581
100
AcDbEntity
  8
0
  6
BYBLOCK
 62
     0
100
AcDbMText
 10
71.808327
 20
203.968024
 30
0.0
 40
3.0
 41
0.0
 71
     5
 72
     1
  1
\A1;17
 11
0.0
 21
1.0
 31
0.0
  0
POINT
  5
582
100
AcDbEntity
  8
DEFPOINTS
  6
BYBLOCK
 62
     0
100
AcDbPoint
 10
88.47196
 20
212.468024
 30
0.0
  0
POINT
  5
583
100
AcDbEntity
  8
DEFPOINTS
  6
BYBLOCK
 62
     0
100
AcDbPoint
 10
88.47196
 20
195.468024
 30
0.0
  0
POINT
  5
584
100
AcDbEntity
  8
DEFPOINTS
  6
BYBLOCK
 62
     0
100
AcDbPoint
 10
73.933327
 20
195.468024
 30
0.0
  0
ENDBLK
  5
585
100
AcDbEntity
  8
0
100
AcDbBlockEnd
  0
BLOCK
  5
56F
100
AcDbEntity
  8
0
100
AcDbBlockBegin
  2
*D5
 70
    65
 10
0.0
 20
0.0
 30
0.0
  3
*D5
  1

  0
LINE
  5
570
100
AcDbEntity
  8
0
  6
BYBLOCK
 62
     0
100
AcDbLine
 10
87.84696
 20
195.468024
 30
0.0
 11
72.683327
 21
195.468024
 31
0.0
  0
LINE
  5
571
100
AcDbEntity
  8
0
  6
BYBLOCK
 62
     0
100
AcDbLine
 10
87.84696
 20
187.068024
 30
0.0
 11
72.683327
 21
187.068024
 31
0.0
  0
LINE
  5
572
100
AcDbEntity
  8
0
  6
BYBLOCK
 62
     0
100
AcDbLine
 10
73.933327
 20
197.968024
 30
0.0
 11
73.933327
 21
200.468024
 31
0.0
  0
LINE
  5
573
100
AcDbEntity
  8
0
  6
BYBLOCK
 62
     0
100
AcDbLine
 10
73.933327
 20
184.568024
 30
0.0
 11
73.933327
 21
182.068024
 31
0.0
  0
SOLID
  5
574
100
AcDbEntity
  8
0
  6
BYBLOCK
 62
     0
100
AcDbTrace
 10
73.51666
 20
197.968024
 30
0.0
 11
74.349993
 21
197.968024
 31
0.0
 12
73.933327
 22
195.468024
 32
0.0
 13
73.933327
 23
195.468024
 33
0.0
  0
SOLID
  5
575
100
AcDbEntity
  8
0
  6
BYBLOCK
 62
     0
100
AcDbTrace
 10
73.51666
 20
184.568024
 30
0.0
 11
74.349993
 21
184.568024
 31
0.0
 12
73.933327
 22
187.068024
 32
0.0
 13
73.933327
 23
187.068024
 33
0.0
  0
MTEXT
  5
576
100
AcDbEntity
  8
0
  6
BYBLOCK
 62
     0
100
AcDbMText
 10
71.808327
 20
191.268024
 30
0.0
 40
3.0
 41
0.0
 71
     5
 72
     1
  1
\A1;8.4
 11
0.0
 21
1.0
 31
0.0
  0
POINT
  5
577
100
AcDbEntity
  8
DEFPOINTS
  6
BYBLOCK
 62
     0
100
AcDbPoint
 10
88.47196
 20
195.468024
 30
0.0
  0
POINT
  5
578
100
AcDbEntity
  8
DEFPOINTS
  6
BYBLOCK
 62
     0
100
AcDbPoint
 10
88.47196
 20
187.068024
 30
0.0
  0
POINT
  5
579
100
AcDbEntity
  8
DEFPOINTS
  6
BYBLOCK
 62
     0
100
AcDbPoint
 10
73.933327
 20
187.068024
 30
0.0
  0
ENDBLK
  5
57A
100
AcDbEntity
  8
0
100
AcDbBlockEnd
  0
BLOCK
  5
3A3
100
AcDbEntity
  8
0
100
AcDbBlockBegin
  2
*D6
 70
    65
 10
0.0
 20
0.0
 30
0.0
  3
*D6
  1

  0
LINE
  5
3A4
100
AcDbEntity
  8
0
  6
BYBLOCK
 62
     0
100
AcDbLine
 10
100.09696
 20
212.468024
 30
0.0
 11
168.771288
 21
212.468024
 31
0.0
  0
LINE
  5
3A5
100
AcDbEntity
  8
0
  6
BYBLOCK
 62
     0
100
AcDbLine
 10
114.09696
 20
182.468024
 30
0.0
 11
168.771288
 21
182.468024
 31
0.0
  0
LINE
  5
3A6
100
AcDbEntity
  8
0
  6
BYBLOCK
 62
     0
100
AcDbLine
 10
167.521288
 20
209.968024
 30
0.0
 11
167.521288
 21
184.968024
 31
0.0
  0
SOLID
  5
3A7
100
AcDbEntity
  8
0
  6
BYBLOCK
 62
     0
100
AcDbTrace
 10
167.104621
 20
209.968024
 30
0.0
 11
167.937954
 21
209.968024
 31
0.0
 12
167.521288
 22
212.468024
 32
0.0
 13
167.521288
 23
212.468024
 33
0.0
  0
SOLID
  5
3A8
100
AcDbEntity
  8
0
  6
BYBLOCK
 62
     0
100
AcDbTrace
 10
167.104621
 20
184.968024
 30
0.0
 11
167.937954
 21
184.968024
 31
0.0
 12
167.521288
 22
182.468024
 32
0.0
 13
167.521288
 23
182.468024
 33
0.0
  0
MTEXT
  5
3A9
100
AcDbEntity
  8
0
  6
BYBLOCK
 62
     0
100
AcDbMText
 10
165.396288
 20
196.833847
 30
0.0
 40
3.0
 41
0.0
 71
     5
 72
     1
  1
\A1;30
 11
0.0
 21
1.0
 31
0.0
  0
POINT
  5
3AA
100
AcDbEntity
  8
DEFPOINTS
  6
BYBLOCK
 62
     0
100
AcDbPoint
 10
99.47196
 20
212.468024
 30
0.0
  0
POINT
  5
3AB
100
AcDbEntity
  8
DEFPOINTS
  6
BYBLOCK
 62
     0
100
AcDbPoint
 10
113.47196
 20
182.468024
 30
0.0
  0
POINT
  5
3AC
100
AcDbEntity
  8
DEFPOINTS
  6
BYBLOCK
 62
     0
100
AcDbPoint
 10
167.521288
 20
182.468024
 30
0.0
  0
ENDBLK
  5
3AD
100
AcDbEntity
  8
0
100
AcDbBlockEnd
  0
BLOCK
  5
362
100
AcDbEntity
  8
0
100
AcDbBlockBegin
  2
*D7
 70
    65
 10
0.0
 20
0.0
 30
0.0
  3
*D7
  1

  0
LINE
  5
363
100
AcDbEntity
  8
0
  6
BYBLOCK
 62
     0
100
AcDbLine
 10
58.47196
 20
127.271924
 30
0.0
 11
58.47196
 21
110.983884
 31
0.0
  0
ARC
  5
364
100
AcDbEntity
  8
0
  6
BYBLOCK
 62
     0
100
AcDbCircle
 10
58.47196
 20
127.896924
 30
0.0
 40
15.663041
100
AcDbArc
 50
279.154795
 51
305.845205
  0
SOLID
  5
365
100
AcDbEntity
  8
0
  6
BYBLOCK
 62
     0
100
AcDbTrace
 10
60.997238
 20
112.01806
 30
0.0
 11
60.930733
 21
112.848736
 31
0.0
 12
58.47196
 22
112.233884
 32
0.0
 13
58.47196
 23
112.233884
 33
0.0
  0
SOLID
  5
366
100
AcDbEntity
  8
0
  6
BYBLOCK
 62
     0
100
AcDbTrace
 10
67.37402
 20
115.517632
 30
0.0
 11
67.91437
 21
114.88323
 31
0.0
 12
69.547402
 22
116.821482
 32
0.0
 13
69.547402
 23
116.821482
 33
0.0
  0
MTEXT
  5
367
100
AcDbEntity
  8
0
  6
BYBLOCK
 62
     0
100
AcDbMText
 10
63.652743
 20
115.389406
 30
0.0
 40
3.0
 41
0.0
 71
     5
 72
     1
  1
\A1;45°
 11
0.92388
 21
0.382683
 31
0.0
  0
POINT
  5
368
100
AcDbEntity
  8
DEFPOINTS
  6
BYBLOCK
 62
     0
100
AcDbPoint
 10
62.525853
 20
112.767589
 30
0.0
  0
POINT
  5
369
100
AcDbEntity
  8
DEFPOINTS
  6
BYBLOCK
 62
     0
100
AcDbPoint
 10
58.47196
 20
170.468024
 30
0.0
  0
POINT
  5
36A
100
AcDbEntity
  8
DEFPOINTS
  6
BYBLOCK
 62
     0
100
AcDbPoint
 10
99.62232
 20
86.746564
 30
0.0
  0
POINT
  5
36B
100
AcDbEntity
  8
DEFPOINTS
  6
BYBLOCK
 62
     0
100
AcDbPoint
 10
58.47196
 20
127.896924
 30
0.0
  0
POINT
  5
36C
100
AcDbEntity
  8
DEFPOINTS
  6
BYBLOCK
 62
     0
100
AcDbPoint
 10
58.47196
 20
127.896924
 30
0.0
  0
ENDBLK
  5
36D
100
AcDbEntity
  8
0
100
AcDbBlockEnd
  0
BLOCK
  5
37F
100
AcDbEntity
  8
0
100
AcDbBlockBegin
  2
*D8
 70
    65
 10
0.0
 20
0.0
 30
0.0
  3
*D8
  1

  0
LINE
  5
380
100
AcDbEntity
  8
0
  6
BYBLOCK
 62
     0
100
AcDbLine
 10
107.963987
 20
75.354911
 30
0.0
 11
109.605569
 21
64.467978
 31
0.0
  0
SOLID
  5
381
100
AcDbEntity
  8
0
  6
BYBLOCK
 62
     0
100
AcDbTrace
 10
108.375996
 20
75.417035
 30
0.0
 11
107.551978
 21
75.292786
 31
0.0
 12
107.591239
 22
77.826966
 32
0.0
 13
107.591239
 23
77.826966
 33
0.0
  0
MTEXT
  5
382
100
AcDbEntity
  8
0
  6
BYBLOCK
 62
     0
100
AcDbMText
 10
111.072399
 20
68.992252
 30
0.0
 40
3.0
 41
0.0
 71
     5
 72
     1
  1
\A1;R0.8
 11
0.149099
 21
-0.988822
 31
0.0
  0
LINE
  5
383
100
AcDbEntity
  8
0
  6
BYBLOCK
 62
     0
100
AcDbLine
 10
104.97196
 20
78.618024
 30
0.0
 11
109.97196
 21
78.618024
 31
0.0
  0
LINE
  5
384
100
AcDbEntity
  8
0
  6
BYBLOCK
 62
     0
100
AcDbLine
 10
107.47196
 20
76.118024
 30
0.0
 11
107.47196
 21
81.118024
 31
0.0
  0
POINT
  5
385
100
AcDbEntity
  8
DEFPOINTS
  6
BYBLOCK
 62
     0
100
AcDbPoint
 10
107.591239
 20
77.826966
 30
0.0
  0
POINT
  5
386
100
AcDbEntity
  8
DEFPOINTS
  6
BYBLOCK
 62
     0
100
AcDbPoint
 10
107.47196
 20
78.618024
 30
0.0
  0
ENDBLK
  5
387
100
AcDbEntity
  8
0
100
AcDbBlockEnd
  0
BLOCK
  5
40C
100
AcDbEntity
  8
0
100
AcDbBlockBegin
  2
*D9
 70
    65
 10
0.0
 20
0.0
 30
0.0
  3
*D9
  1

  0
LINE
  5
40D
100
AcDbEntity
  8
0
  6
BYBLOCK
 62
     0
100
AcDbLine
 10
114.09696
 20
182.468024
 30
0.0
 11
168.981004
 21
182.468024
 31
0.0
  0
LINE
  5
40E
100
AcDbEntity
  8
0
  6
BYBLOCK
 62
     0
100
AcDbLine
 10
108.09696
 20
77.818024
 30
0.0
 11
168.981004
 21
77.818024
 31
0.0
  0
LINE
  5
40F
100
AcDbEntity
  8
0
  6
BYBLOCK
 62
     0
100
AcDbLine
 10
167.731004
 20
179.968024
 30
0.0
 11
167.731004
 21
80.318024
 31
0.0
  0
SOLID
  5
410
100
AcDbEntity
  8
0
  6
BYBLOCK
 62
     0
100
AcDbTrace
 10
167.314337
 20
179.968024
 30
0.0
 11
168.147671
 21
179.968024
 31
0.0
 12
167.731004
 22
182.468024
 32
0.0
 13
167.731004
 23
182.468024
 33
0.0
  0
SOLID
  5
411
100
AcDbEntity
  8
0
  6
BYBLOCK
 62
     0
100
AcDbTrace
 10
167.314337
 20
80.318024
 30
0.0
 11
168.147671
 21
80.318024
 31
0.0
 12
167.731004
 22
77.818024
 32
0.0
 13
167.731004
 23
77.818024
 33
0.0
  0
MTEXT
  5
412
100
AcDbEntity
  8
0
  6
BYBLOCK
 62
     0
100
AcDbMText
 10
164.365295
 20
130.143024
 30
0.0
 40
3.0
 41
0.0
 71
     5
 72
     1
  1
\A2;104.65{\H2.400000;\S+0.02^  0;}
 11
0.0
 21
1.0
 31
0.0
  0
POINT
  5
413
100
AcDbEntity
  8
DEFPOINTS
  6
BYBLOCK
 62
     0
100
AcDbPoint
 10
113.47196
 20
182.468024
 30
0.0
  0
POINT
  5
414
100
AcDbEntity
  8
DEFPOINTS
  6
BYBLOCK
 62
     0
100
AcDbPoint
 10
107.47196
 20
77.818024
 30
0.0
  0
POINT
  5
415
100
AcDbEntity
  8
DEFPOINTS
  6
BYBLOCK
 62
     0
100
AcDbPoint
 10
167.731004
 20
77.818024
 30
0.0
  0
ENDBLK
  5
416
100
AcDbEntity
  8
0
100
AcDbBlockEnd
  0
BLOCK
  5
397
100
AcDbEntity
  8
0
100
AcDbBlockBegin
  2
*D10
 70
    65
 10
0.0
 20
0.0
 30
0.0
  3
*D10
  1

  0
LINE
  5
398
100
AcDbEntity
  8
0
  6
BYBLOCK
 62
     0
100
AcDbLine
 10
108.09696
 20
77.818024
 30
0.0
 11
184.115632
 21
77.818024
 31
0.0
  0
LINE
  5
399
100
AcDbEntity
  8
0
  6
BYBLOCK
 62
     0
100
AcDbLine
 10
101.09696
 20
212.468024
 30
0.0
 11
184.115632
 21
212.468024
 31
0.0
  0
LINE
  5
39A
100
AcDbEntity
  8
0
  6
BYBLOCK
 62
     0
100
AcDbLine
 10
182.865632
 20
80.318024
 30
0.0
 11
182.865632
 21
209.968024
 31
0.0
  0
SOLID
  5
39B
100
AcDbEntity
  8
0
  6
BYBLOCK
 62
     0
100
AcDbTrace
 10
182.448966
 20
80.318024
 30
0.0
 11
183.282299
 21
80.318024
 31
0.0
 12
182.865632
 22
77.818024
 32
0.0
 13
182.865632
 23
77.818024
 33
0.0
  0
SOLID
  5
39C
100
AcDbEntity
  8
0
  6
BYBLOCK
 62
     0
100
AcDbTrace
 10
182.448966
 20
209.968024
 30
0.0
 11
183.282299
 21
209.968024
 31
0.0
 12
182.865632
 22
212.468024
 32
0.0
 13
182.865632
 23
212.468024
 33
0.0
  0
MTEXT
  5
39D
100
AcDbEntity
  8
0
  6
BYBLOCK
 62
     0
100
AcDbMText
 10
180.740632
 20
145.143024
 30
0.0
 40
3.0
 41
0.0
 71
     5
 72
     1
  1
\A1;134.65
 11
0.0
 21
1.0
 31
0.0
  0
POINT
  5
39E
100
AcDbEntity
  8
DEFPOINTS
  6
BYBLOCK
 62
     0
100
AcDbPoint
 10
107.47196
 20
77.818024
 30
0.0
  0
POINT
  5
39F
100
AcDbEntity
  8
DEFPOINTS
  6
BYBLOCK
 62
     0
100
AcDbPoint
 10
100.47196
 20
212.468024
 30
0.0
  0
POINT
  5
3A0
100
AcDbEntity
  8
DEFPOINTS
  6
BYBLOCK
 62
     0
100
AcDbPoint
 10
182.865632
 20
212.468024
 30
0.0
  0
ENDBLK
  5
3A1
100
AcDbEntity
  8
0
100
AcDbBlockEnd
  0
BLOCK
  5
47E
100
AcDbEntity
  8
0
100
AcDbBlockBegin
  2
*D11
 70
    65
 10
0.0
 20
0.0
 30
0.0
  3
*D11
  1

  0
LINE
  5
47F
100
AcDbEntity
  8
0
  6
BYBLOCK
 62
     0
100
AcDbLine
 10
107.122988
 20
138.334782
 30
0.0
 11
89.906818
 21
141.473806
 31
0.0
  0
SOLID
  5
480
100
AcDbEntity
  8
0
  6
BYBLOCK
 62
     0
100
AcDbTrace
 10
89.981557
 20
141.883715
 30
0.0
 11
89.832079
 21
141.063897
 31
0.0
 12
87.447365
 22
141.922238
 32
0.0
 13
87.447365
 23
141.922238
 33
0.0
  0
MTEXT
  5
481
100
AcDbEntity
  8
0
  6
BYBLOCK
 62
     0
100
AcDbMText
 10
97.666344
 20
142.219045
 30
0.0
 40
3.0
 41
0.0
 71
     5
 72
     1
  1
\A1;R20
 11
0.983781
 21
-0.179373
 31
0.0
  0
POINT
  5
482
100
AcDbEntity
  8
DEFPOINTS
  6
BYBLOCK
 62
     0
100
AcDbPoint
 10
87.447365
 20
141.922238
 30
0.0
  0
POINT
  5
483
100
AcDbEntity
  8
DEFPOINTS
  6
BYBLOCK
 62
     0
100
AcDbPoint
 10
107.122988
 20
138.334782
 30
0.0
  0
ENDBLK
  5
484
100
AcDbEntity
  8
0
100
AcDbBlockEnd
  0
BLOCK
  5
487
100
AcDbEntity
  8
0
100
AcDbBlockBegin
  2
*D12
 70
    65
 10
0.0
 20
0.0
 30
0.0
  3
*D12
  1

  0
LINE
  5
488
100
AcDbEntity
  8
0
  6
BYBLOCK
 62
     0
100
AcDbLine
 10
114.09696
 20
182.468024
 30
0.0
 11
135.761745
 21
182.468024
 31
0.0
  0
LINE
  5
489
100
AcDbEntity
  8
0
  6
BYBLOCK
 62
     0
100
AcDbLine
 10
115.09696
 20
173.968024
 30
0.0
 11
135.761745
 21
173.968024
 31
0.0
  0
LINE
  5
48A
100
AcDbEntity
  8
0
  6
BYBLOCK
 62
     0
100
AcDbLine
 10
134.511745
 20
184.968024
 30
0.0
 11
134.511745
 21
187.468024
 31
0.0
  0
LINE
  5
48B
100
AcDbEntity
  8
0
  6
BYBLOCK
 62
     0
100
AcDbLine
 10
134.511745
 20
171.468024
 30
0.0
 11
134.511745
 21
168.968024
 31
0.0
  0
SOLID
  5
48C
100
AcDbEntity
  8
0
  6
BYBLOCK
 62
     0
100
AcDbTrace
 10
134.095078
 20
184.968024
 30
0.0
 11
134.928411
 21
184.968024
 31
0.0
 12
134.511745
 22
182.468024
 32
0.0
 13
134.511745
 23
182.468024
 33
0.0
  0
SOLID
  5
48D
100
AcDbEntity
  8
0
  6
BYBLOCK
 62
     0
100
AcDbTrace
 10
134.095078
 20
171.468024
 30
0.0
 11
134.928411
 21
171.468024
 31
0.0
 12
134.511745
 22
173.968024
 32
0.0
 13
134.511745
 23
173.968024
 33
0.0
  0
MTEXT
  5
48E
100
AcDbEntity
  8
0
  6
BYBLOCK
 62
     0
100
AcDbMText
 10
132.386745
 20
178.218024
 30
0.0
 40
3.0
 41
0.0
 71
     5
 72
     1
  1
\A1;8.5
 11
0.0
 21
1.0
 31
0.0
  0
POINT
  5
48F
100
AcDbEntity
  8
DEFPOINTS
  6
BYBLOCK
 62
     0
100
AcDbPoint
 10
113.47196
 20
182.468024
 30
0.0
  0
POINT
  5
490
100
AcDbEntity
  8
DEFPOINTS
  6
BYBLOCK
 62
     0
100
AcDbPoint
 10
114.47196
 20
173.968024
 30
0.0
  0
POINT
  5
491
100
AcDbEntity
  8
DEFPOINTS
  6
BYBLOCK
 62
     0
100
AcDbPoint
 10
134.511745
 20
173.968024
 30
0.0
  0
ENDBLK
  5
492
100
AcDbEntity
  8
0
100
AcDbBlockEnd
  0
BLOCK
  5
495
100
AcDbEntity
  8
0
100
AcDbBlockBegin
  2
*D13
 70
    65
 10
0.0
 20
0.0
 30
0.0
  3
*D13
  1

  0
LINE
  5
496
100
AcDbEntity
  8
0
  6
BYBLOCK
 62
     0
100
AcDbLine
 10
115.09696
 20
173.968024
 30
0.0
 11
135.761745
 21
173.968024
 31
0.0
  0
LINE
  5
497
100
AcDbEntity
  8
0
  6
BYBLOCK
 62
     0
100
AcDbLine
 10
107.747988
 20
138.334782
 30
0.0
 11
135.761745
 21
138.334782
 31
0.0
  0
LINE
  5
498
100
AcDbEntity
  8
0
  6
BYBLOCK
 62
     0
100
AcDbLine
 10
134.511745
 20
171.468024
 30
0.0
 11
134.511745
 21
140.834782
 31
0.0
  0
SOLID
  5
499
100
AcDbEntity
  8
0
  6
BYBLOCK
 62
     0
100
AcDbTrace
 10
134.095078
 20
171.468024
 30
0.0
 11
134.928411
 21
171.468024
 31
0.0
 12
134.511745
 22
173.968024
 32
0.0
 13
134.511745
 23
173.968024
 33
0.0
  0
SOLID
  5
49A
100
AcDbEntity
  8
0
  6
BYBLOCK
 62
     0
100
AcDbTrace
 10
134.095078
 20
140.834782
 30
0.0
 11
134.928411
 21
140.834782
 31
0.0
 12
134.511745
 22
138.334782
 32
0.0
 13
134.511745
 23
138.334782
 33
0.0
  0
MTEXT
  5
49B
100
AcDbEntity
  8
0
  6
BYBLOCK
 62
     0
100
AcDbMText
 10
132.386745
 20
156.151403
 30
0.0
 40
3.0
 41
0.0
 71
     5
 72
     1
  1
\A1;35.63
 11
0.0
 21
1.0
 31
0.0
  0
POINT
  5
49C
100
AcDbEntity
  8
DEFPOINTS
  6
BYBLOCK
 62
     0
100
AcDbPoint
 10
114.47196
 20
173.968024
 30
0.0
  0
POINT
  5
49D
100
AcDbEntity
  8
DEFPOINTS
  6
BYBLOCK
 62
     0
100
AcDbPoint
 10
107.122988
 20
138.334782
 30
0.0
  0
POINT
  5
49E
100
AcDbEntity
  8
DEFPOINTS
  6
BYBLOCK
 62
     0
100
AcDbPoint
 10
134.511745
 20
138.334782
 30
0.0
  0
ENDBLK
  5
49F
100
AcDbEntity
  8
0
100
AcDbBlockEnd
  0
BLOCK
  5
4A2
100
AcDbEntity
  8
0
100
AcDbBlockBegin
  2
*D14
 70
    65
 10
0.0
 20
0.0
 30
0.0
  3
*D14
  1

  0
ARC
  5
4A3
100
AcDbEntity
  8
0
  6
BYBLOCK
 62
     0
100
AcDbCircle
 10
107.47196
 20
166.968024
 30
0.0
 40
8.443101
100
AcDbArc
 50
23.729854
 51
45.0
  0
ARC
  5
4A4
100
AcDbEntity
  8
0
  6
BYBLOCK
 62
     0
100
AcDbCircle
 10
107.47196
 20
166.968024
 30
0.0
 40
8.443101
100
AcDbArc
 50
62.027861
 51
72.972139
  0
SOLID
  5
4A5
100
AcDbEntity
  8
0
  6
BYBLOCK
 62
     0
100
AcDbTrace
 10
111.679891
 20
174.759767
 30
0.0
 11
111.184369
 21
174.089766
 31
0.0
 12
113.442134
 22
172.938198
 32
0.0
 13
113.442134
 23
172.938198
 33
0.0
  0
SOLID
  5
4A6
100
AcDbEntity
  8
0
  6
BYBLOCK
 62
     0
100
AcDbTrace
 10
109.882722
 20
174.628925
 30
0.0
 11
110.006097
 21
175.453075
 31
0.0
 12
107.47196
 22
175.411125
 32
0.0
 13
107.47196
 23
175.411125
 33
0.0
  0
MTEXT
  5
4A7
100
AcDbEntity
  8
0
  6
BYBLOCK
 62
     0
100
AcDbMText
 10
118.593277
 20
167.929837
 30
0.0
 40
3.0
 41
0.0
 71
     5
 72
     1
  1
\A1;45°
 11
0.402425
 21
-0.915453
 31
0.0
  0
POINT
  5
4A8
100
AcDbEntity
  8
DEFPOINTS
  6
BYBLOCK
 62
     0
100
AcDbPoint
 10
109.657195
 20
175.123433
 30
0.0
  0
POINT
  5
4A9
100
AcDbEntity
  8
DEFPOINTS
  6
BYBLOCK
 62
     0
100
AcDbPoint
 10
114.47196
 20
173.968024
 30
0.0
  0
POINT
  5
4AA
100
AcDbEntity
  8
DEFPOINTS
  6
BYBLOCK
 62
     0
100
AcDbPoint
 10
107.47196
 20
65.166898
 30
0.0
  0
POINT
  5
4AB
100
AcDbEntity
  8
DEFPOINTS
  6
BYBLOCK
 62
     0
100
AcDbPoint
 10
107.47196
 20
245.688739
 30
0.0
  0
POINT
  5
4AC
100
AcDbEntity
  8
DEFPOINTS
  6
BYBLOCK
 62
     0
100
AcDbPoint
 10
92.980853
 20
152.476917
 30
0.0
  0
ENDBLK
  5
4AD
100
AcDbEntity
  8
0
100
AcDbBlockEnd
  0
BLOCK
  5
4D3
100
AcDbEntity
  8
0
100
AcDbBlockBegin
  2
*D15
 70
    65
 10
0.0
 20
0.0
 30
0.0
  3
*D15
  1

  0
ARC
  5
4D4
100
AcDbEntity
  8
0
  6
BYBLOCK
 62
     0
100
AcDbCircle
 10
107.47196
 20
90.642757
 30
0.0
 40
29.078771
100
AcDbArc
 50
83.841069
 51
90.0
  0
ARC
  5
4D5
100
AcDbEntity
  8
0
  6
BYBLOCK
 62
     0
100
AcDbCircle
 10
107.47196
 20
90.642757
 30
0.0
 40
29.078771
100
AcDbArc
 50
94.92743
 51
110.285118
  0
SOLID
  5
4D6
100
AcDbEntity
  8
0
  6
BYBLOCK
 62
     0
100
AcDbTrace
 10
104.956359
 20
120.030343
 30
0.0
 11
104.992182
 21
119.19778
 31
0.0
 12
107.47196
 22
119.721528
 32
0.0
 13
107.47196
 23
119.721528
 33
0.0
  0
SOLID
  5
4D7
100
AcDbEntity
  8
0
  6
BYBLOCK
 62
     0
100
AcDbTrace
 10
97.551703
 20
117.533781
 30
0.0
 11
97.22946
 21
118.302288
 31
0.0
 12
95.085059
 22
116.951304
 32
0.0
 13
95.085059
 23
116.951304
 33
0.0
  0
MTEXT
  5
4D8
100
AcDbEntity
  8
0
  6
BYBLOCK
 62
     0
100
AcDbMText
 10
116.690627
 20
121.032896
 30
0.0
 40
3.0
 41
0.0
 71
     5
 72
     1
  1
\A1;25.21°
 11
0.994228
 21
-0.107287
 31
0.0
  0
POINT
  5
4D9
100
AcDbEntity
  8
DEFPOINTS
  6
BYBLOCK
 62
     0
100
AcDbPoint
 10
99.063206
 20
118.479204
 30
0.0
  0
POINT
  5
4DA
100
AcDbEntity
  8
DEFPOINTS
  6
BYBLOCK
 62
     0
100
AcDbPoint
 10
111.64245
 20
81.785048
 30
0.0
  0
POINT
  5
4DB
100
AcDbEntity
  8
DEFPOINTS
  6
BYBLOCK
 62
     0
100
AcDbPoint
 10
107.47196
 20
65.166898
 30
0.0
  0
POINT
  5
4DC
100
AcDbEntity
  8
DEFPOINTS
  6
BYBLOCK
 62
     0
100
AcDbPoint
 10
107.47196
 20
245.688739
 30
0.0
  0
POINT
  5
4DD
100
AcDbEntity
  8
DEFPOINTS
  6
BYBLOCK
 62
     0
100
AcDbPoint
 10
89.028313
 20
129.815233
 30
0.0
  0
ENDBLK
  5
4DE
100
AcDbEntity
  8
0
100
AcDbBlockEnd
  0
BLOCK
  5
4E1
100
AcDbEntity
  8
0
100
AcDbBlockBegin
  2
*D16
 70
    65
 10
0.0
 20
0.0
 30
0.0
  3
*D16
  1

  0
LINE
  5
4E2
100
AcDbEntity
  8
0
  6
BYBLOCK
 62
     0
100
AcDbLine
 10
112.076612
 20
81.335461
 30
0.0
 11
128.560092
 21
64.266318
 31
0.0
  0
LINE
  5
4E3
100
AcDbEntity
  8
0
  6
BYBLOCK
 62
     0
100
AcDbLine
 10
107.760573
 20
77.167511
 30
0.0
 11
124.244053
 21
60.098368
 31
0.0
  0
LINE
  5
4E4
100
AcDbEntity
  8
0
  6
BYBLOCK
 62
     0
100
AcDbLine
 10
129.490118
 20
66.902139
 30
0.0
 11
131.288468
 21
68.638785
 31
0.0
  0
LINE
  5
4E5
100
AcDbEntity
  8
0
  6
BYBLOCK
 62
     0
100
AcDbLine
 10
121.57738
 20
59.260897
 30
0.0
 11
119.779031
 21
57.524251
 31
0.0
  0
SOLID
  5
4E6
100
AcDbEntity
  8
0
  6
BYBLOCK
 62
     0
100
AcDbTrace
 10
129.200677
 20
67.201864
 30
0.0
 11
129.779559
 21
66.602414
 31
0.0
 12
127.691769
 22
65.165493
 32
0.0
 13
127.691769
 23
65.165493
 33
0.0
  0
SOLID
  5
4E7
100
AcDbEntity
  8
0
  6
BYBLOCK
 62
     0
100
AcDbTrace
 10
121.287939
 20
59.560622
 30
0.0
 11
121.866821
 21
58.961172
 31
0.0
 12
123.37573
 22
60.997543
 32
0.0
 13
123.37573
 23
60.997543
 33
0.0
  0
MTEXT
  5
4E8
100
AcDbEntity
  8
0
  6
BYBLOCK
 62
     0
100
AcDbMText
 10
124.0576
 20
64.610115
 30
0.0
 40
3.0
 41
0.0
 71
     5
 72
     1
  1
\A1;6
 11
0.71934
 21
0.694658
 31
0.0
  0
POINT
  5
4E9
100
AcDbEntity
  8
DEFPOINTS
  6
BYBLOCK
 62
     0
100
AcDbPoint
 10
111.64245
 20
81.785048
 30
0.0
  0
POINT
  5
4EA
100
AcDbEntity
  8
DEFPOINTS
  6
BYBLOCK
 62
     0
100
AcDbPoint
 10
107.326412
 20
77.617098
 30
0.0
  0
POINT
  5
4EB
100
AcDbEntity
  8
DEFPOINTS
  6
BYBLOCK
 62
     0
100
AcDbPoint
 10
123.37573
 20
60.997543
 30
0.0
  0
ENDBLK
  5
4EC
100
AcDbEntity
  8
0
100
AcDbBlockEnd
  0
BLOCK
  5
4F6
100
AcDbEntity
  8
0
100
AcDbBlockBegin
  2
*X17
 70
    65
 10
0.0
 20
0.0
 30
0.0
  3
*X17
  1

  0
LINE
  5
4F8
100
AcDbEntity
  8
0
 62
     0
100
AcDbLine
 10
104.422188
 20
80.62451
 30
0.0
 11
105.130754
 21
81.333076
 31
0.0
  0
LINE
  5
4F9
100
AcDbEntity
  8
0
 62
     0
100
AcDbLine
 10
104.311894
 20
80.738722
 30
0.0
 11
104.960456
 21
81.387283
 31
0.0
  0
LINE
  5
4FA
100
AcDbEntity
  8
0
 62
     0
100
AcDbLine
 10
104.201601
 20
80.852935
 30
0.0
 11
104.793282
 21
81.444616
 31
0.0
  0
LINE
  5
4FB
100
AcDbEntity
  8
0
 62
     0
100
AcDbLine
 10
104.091307
 20
80.967147
 30
0.0
 11
104.629134
 21
81.504974
 31
0.0
  0
LINE
  5
4FC
100
AcDbEntity
  8
0
 62
     0
100
AcDbLine
 10
103.981013
 20
81.08136
 30
0.0
 11
104.467921
 21
81.568268
 31
0.0
  0
LINE
  5
4FD
100
AcDbEntity
  8
0
 62
     0
100
AcDbLine
 10
103.870719
 20
81.195572
 30
0.0
 11
104.309561
 21
81.634414
 31
0.0
  0
LINE
  5
4FE
100
AcDbEntity
  8
0
 62
     0
100
AcDbLine
 10
103.760425
 20
81.309785
 30
0.0
 11
104.153979
 21
81.703339
 31
0.0
  0
LINE
  5
4FF
100
AcDbEntity
  8
0
 62
     0
100
AcDbLine
 10
103.650132
 20
81.423998
 30
0.0
 11
104.001109
 21
81.774975
 31
0.0
  0
LINE
  5
500
100
AcDbEntity
  8
0
 62
     0
100
AcDbLine
 10
103.539838
 20
81.53821
 30
0.0
 11
103.850888
 21
81.84926
 31
0.0
  0
LINE
  5
501
100
AcDbEntity
  8
0
 62
     0
100
AcDbLine
 10
103.429544
 20
81.652423
 30
0.0
 11
103.70326
 21
81.926139
 31
0.0
  0
LINE
  5
502
100
AcDbEntity
  8
0
 62
     0
100
AcDbLine
 10
103.31925
 20
81.766635
 30
0.0
 11
103.558176
 21
82.005561
 31
0.0
  0
LINE
  5
503
100
AcDbEntity
  8
0
 62
     0
100
AcDbLine
 10
103.208956
 20
81.880848
 30
0.0
 11
103.415589
 21
82.087481
 31
0.0
  0
LINE
  5
504
100
AcDbEntity
  8
0
 62
     0
100
AcDbLine
 10
103.098662
 20
81.995061
 30
0.0
 11
103.275458
 21
82.171856
 31
0.0
  0
LINE
  5
505
100
AcDbEntity
  8
0
 62
     0
100
AcDbLine
 10
102.988369
 20
82.109273
 30
0.0
 11
103.137747
 21
82.258651
 31
0.0
  0
LINE
  5
506
100
AcDbEntity
  8
0
 62
     0
100
AcDbLine
 10
102.878075
 20
82.223486
 30
0.0
 11
103.002421
 21
82.347831
 31
0.0
  0
LINE
  5
507
100
AcDbEntity
  8
0
 62
     0
100
AcDbLine
 10
102.767781
 20
82.337698
 30
0.0
 11
102.869451
 21
82.439368
 31
0.0
  0
LINE
  5
508
100
AcDbEntity
  8
0
 62
     0
100
AcDbLine
 10
102.657487
 20
82.451911
 30
0.0
 11
102.738811
 21
82.533234
 31
0.0
  0
LINE
  5
509
100
AcDbEntity
  8
0
 62
     0
100
AcDbLine
 10
102.547193
 20
82.566124
 30
0.0
 11
102.610477
 21
82.629408
 31
0.0
  0
LINE
  5
50A
100
AcDbEntity
  8
0
 62
     0
100
AcDbLine
 10
102.4369
 20
82.680336
 30
0.0
 11
102.484431
 21
82.727868
 31
0.0
  0
LINE
  5
50B
100
AcDbEntity
  8
0
 62
     0
100
AcDbLine
 10
102.326606
 20
82.794549
 30
0.0
 11
102.360656
 21
82.828599
 31
0.0
  0
LINE
  5
50C
100
AcDbEntity
  8
0
 62
     0
100
AcDbLine
 10
102.216312
 20
82.908761
 30
0.0
 11
102.239137
 21
82.931586
 31
0.0
  0
LINE
  5
50D
100
AcDbEntity
  8
0
 62
     0
100
AcDbLine
 10
102.106018
 20
83.022974
 30
0.0
 11
102.119863
 21
83.036819
 31
0.0
  0
LINE
  5
50E
100
AcDbEntity
  8
0
 62
     0
100
AcDbLine
 10
101.995724
 20
83.137186
 30
0.0
 11
102.002826
 21
83.144288
 31
0.0
  0
LINE
  5
50F
100
AcDbEntity
  8
0
 62
     0
100
AcDbLine
 10
101.88543
 20
83.251399
 30
0.0
 11
101.888021
 21
83.253989
 31
0.0
  0
LINE
  5
510
100
AcDbEntity
  8
0
 62
     0
100
AcDbLine
 10
101.775137
 20
83.365612
 30
0.0
 11
101.775444
 21
83.365919
 31
0.0
  0
LINE
  5
511
100
AcDbEntity
  8
0
 62
     0
100
AcDbLine
 10
104.532482
 20
80.510297
 30
0.0
 11
105.304289
 21
81.282104
 31
0.0
  0
LINE
  5
512
100
AcDbEntity
  8
0
 62
     0
100
AcDbLine
 10
104.642776
 20
80.396084
 30
0.0
 11
105.481181
 21
81.234489
 31
0.0
  0
LINE
  5
513
100
AcDbEntity
  8
0
 62
     0
100
AcDbLine
 10
104.75307
 20
80.281872
 30
0.0
 11
105.661566
 21
81.190368
 31
0.0
  0
LINE
  5
514
100
AcDbEntity
  8
0
 62
     0
100
AcDbLine
 10
104.863363
 20
80.167659
 30
0.0
 11
105.845596
 21
81.149892
 31
0.0
  0
LINE
  5
515
100
AcDbEntity
  8
0
 62
     0
100
AcDbLine
 10
104.973657
 20
80.053447
 30
0.0
 11
106.033439
 21
81.113228
 31
0.0
  0
LINE
  5
516
100
AcDbEntity
  8
0
 62
     0
100
AcDbLine
 10
105.083951
 20
79.939234
 30
0.0
 11
106.225283
 21
81.080566
 31
0.0
  0
LINE
  5
517
100
AcDbEntity
  8
0
 62
     0
100
AcDbLine
 10
105.194245
 20
79.825021
 30
0.0
 11
106.421342
 21
81.052119
 31
0.0
  0
LINE
  5
518
100
AcDbEntity
  8
0
 62
     0
100
AcDbLine
 10
105.304539
 20
79.710809
 30
0.0
 11
106.621857
 21
81.028127
 31
0.0
  0
LINE
  5
519
100
AcDbEntity
  8
0
 62
     0
100
AcDbLine
 10
105.414833
 20
79.596596
 30
0.0
 11
106.8271
 21
81.008864
 31
0.0
  0
LINE
  5
51A
100
AcDbEntity
  8
0
 62
     0
100
AcDbLine
 10
105.525126
 20
79.482384
 30
0.0
 11
107.037386
 21
80.994643
 31
0.0
  0
LINE
  5
51B
100
AcDbEntity
  8
0
 62
     0
100
AcDbLine
 10
105.63542
 20
79.368171
 30
0.0
 11
107.253075
 21
80.985826
 31
0.0
  0
LINE
  5
51C
100
AcDbEntity
  8
0
 62
     0
100
AcDbLine
 10
105.745714
 20
79.253958
 30
0.0
 11
107.47196
 21
80.980204
 31
0.0
  0
LINE
  5
51D
100
AcDbEntity
  8
0
 62
     0
100
AcDbLine
 10
105.856008
 20
79.139746
 30
0.0
 11
107.47196
 21
80.755698
 31
0.0
  0
LINE
  5
51E
100
AcDbEntity
  8
0
 62
     0
100
AcDbLine
 10
105.966302
 20
79.025533
 30
0.0
 11
107.47196
 21
80.531191
 31
0.0
  0
LINE
  5
51F
100
AcDbEntity
  8
0
 62
     0
100
AcDbLine
 10
106.076595
 20
78.911321
 30
0.0
 11
107.47196
 21
80.306685
 31
0.0
  0
LINE
  5
520
100
AcDbEntity
  8
0
 62
     0
100
AcDbLine
 10
106.186889
 20
78.797108
 30
0.0
 11
107.47196
 21
80.082178
 31
0.0
  0
LINE
  5
521
100
AcDbEntity
  8
0
 62
     0
100
AcDbLine
 10
106.297183
 20
78.682895
 30
0.0
 11
107.47196
 21
79.857672
 31
0.0
  0
LINE
  5
522
100
AcDbEntity
  8
0
 62
     0
100
AcDbLine
 10
106.407477
 20
78.568683
 30
0.0
 11
107.47196
 21
79.633166
 31
0.0
  0
LINE
  5
523
100
AcDbEntity
  8
0
 62
     0
100
AcDbLine
 10
106.517771
 20
78.45447
 30
0.0
 11
107.47196
 21
79.408659
 31
0.0
  0
LINE
  5
524
100
AcDbEntity
  8
0
 62
     0
100
AcDbLine
 10
106.628065
 20
78.340258
 30
0.0
 11
107.47196
 21
79.184153
 31
0.0
  0
LINE
  5
525
100
AcDbEntity
  8
0
 62
     0
100
AcDbLine
 10
106.738358
 20
78.226045
 30
0.0
 11
107.47196
 21
78.959646
 31
0.0
  0
LINE
  5
526
100
AcDbEntity
  8
0
 62
     0
100
AcDbLine
 10
106.848652
 20
78.111833
 30
0.0
 11
107.47196
 21
78.73514
 31
0.0
  0
LINE
  5
527
100
AcDbEntity
  8
0
 62
     0
100
AcDbLine
 10
106.962524
 20
78.001198
 30
0.0
 11
107.47196
 21
78.510634
 31
0.0
  0
LINE
  5
528
100
AcDbEntity
  8
0
 62
     0
100
AcDbLine
 10
107.097111
 20
77.911279
 30
0.0
 11
107.47196
 21
78.286127
 31
0.0
  0
LINE
  5
529
100
AcDbEntity
  8
0
 62
     0
100
AcDbLine
 10
107.257613
 20
77.847274
 30
0.0
 11
107.47196
 21
78.061621
 31
0.0
  0
LINE
  5
52A
100
AcDbEntity
  8
0
 62
     0
100
AcDbLine
 10
107.453092
 20
77.818247
 30
0.0
 11
107.47196
 21
77.837114
 31
0.0
  0
ENDBLK
  5
52B
100
AcDbEntity
  8
0
100
AcDbBlockEnd
  0
BLOCK
  5
52D
100
AcDbEntity
  8
0
100
AcDbBlockBegin
  2
*D18
 70
    65
 10
0.0
 20
0.0
 30
0.0
  3
*D18
  1

  0
LINE
  5
52E
100
AcDbEntity
  8
0
  6
BYBLOCK
 62
     0
100
AcDbLine
 10
107.037798
 20
77.016791
 30
0.0
 11
90.5155
 21
59.907451
 31
0.0
  0
LINE
  5
52F
100
AcDbEntity
  8
0
  6
BYBLOCK
 62
     0
100
AcDbLine
 10
107.906121
 20
77.016791
 30
0.0
 11
124.428419
 21
59.907451
 31
0.0
  0
ARC
  5
530
100
AcDbEntity
  8
0
  6
BYBLOCK
 62
     0
100
AcDbCircle
 10
107.47196
 20
77.466379
 30
0.0
 40
23.159782
100
AcDbArc
 50
232.187842
 51
307.812158
  0
SOLID
  5
531
100
AcDbEntity
  8
0
  6
BYBLOCK
 62
     0
100
AcDbTrace
 10
93.000441
 20
58.854663
 30
0.0
 11
93.546125
 21
59.484483
 31
0.0
 12
91.383823
 22
60.806626
 32
0.0
 13
91.383823
 23
60.806626
 33
0.0
  0
SOLID
  5
532
100
AcDbEntity
  8
0
  6
BYBLOCK
 62
     0
100
AcDbTrace
 10
121.397794
 20
59.484483
 30
0.0
 11
121.943478
 21
58.854663
 31
0.0
 12
123.560096
 22
60.806626
 32
0.0
 13
123.560096
 23
60.806626
 33
0.0
  0
MTEXT
  5
533
100
AcDbEntity
  8
0
  6
BYBLOCK
 62
     0
100
AcDbMText
 10
107.47196
 20
56.431597
 30
0.0
 40
3.0
 41
0.0
 71
     5
 72
     1
  1
\A1;88°
  0
POINT
  5
534
100
AcDbEntity
  8
DEFPOINTS
  6
BYBLOCK
 62
     0
100
AcDbPoint
 10
101.608015
 20
55.061253
 30
0.0
  0
POINT
  5
535
100
AcDbEntity
  8
DEFPOINTS
  6
BYBLOCK
 62
     0
100
AcDbPoint
 10
106.896488
 20
78.062297
 30
0.0
  0
POINT
  5
536
100
AcDbEntity
  8
DEFPOINTS
  6
BYBLOCK
 62
     0
100
AcDbPoint
 10
108.047431
 20
78.062297
 30
0.0
  0
POINT
  5
537
100
AcDbEntity
  8
DEFPOINTS
  6
BYBLOCK
 62
     0
100
AcDbPoint
 10
111.64245
 20
81.785048
 30
0.0
  0
POINT
  5
538
100
AcDbEntity
  8
DEFPOINTS
  6
BYBLOCK
 62
     0
100
AcDbPoint
 10
99.62232
 20
85.594919
 30
0.0
  0
ENDBLK
  5
539
100
AcDbEntity
  8
0
100
AcDbBlockEnd
  0
BLOCK
  5
548
100
AcDbEntity
  8
0
100
AcDbBlockBegin
  2
*X19
 70
    65
 10
0.0
 20
0.0
 30
0.0
  3
*X19
  1

  0
LINE
  5
54A
100
AcDbEntity
  8
0
 62
     0
100
AcDbLine
 10
107.47196
 20
78.061621
 30
0.0
 11
111.455476
 21
82.045137
 31
0.0
  0
LINE
  5
54B
100
AcDbEntity
  8
0
 62
     0
100
AcDbLine
 10
107.47196
 20
78.286127
 30
0.0
 11
110.977723
 21
81.791891
 31
0.0
  0
LINE
  5
54C
100
AcDbEntity
  8
0
 62
     0
100
AcDbLine
 10
107.47196
 20
78.510634
 30
0.0
 11
110.567201
 21
81.605875
 31
0.0
  0
LINE
  5
54D
100
AcDbEntity
  8
0
 62
     0
100
AcDbLine
 10
107.47196
 20
78.73514
 30
0.0
 11
110.198681
 21
81.461861
 31
0.0
  0
LINE
  5
54E
100
AcDbEntity
  8
0
 62
     0
100
AcDbLine
 10
107.47196
 20
78.959646
 30
0.0
 11
109.859825
 21
81.347512
 31
0.0
  0
LINE
  5
54F
100
AcDbEntity
  8
0
 62
     0
100
AcDbLine
 10
107.47196
 20
79.184153
 30
0.0
 11
109.543495
 21
81.255688
 31
0.0
  0
LINE
  5
550
100
AcDbEntity
  8
0
 62
     0
100
AcDbLine
 10
107.47196
 20
79.408659
 30
0.0
 11
109.24511
 21
81.18181
 31
0.0
  0
LINE
  5
551
100
AcDbEntity
  8
0
 62
     0
100
AcDbLine
 10
107.47196
 20
79.633166
 30
0.0
 11
108.961523
 21
81.122729
 31
0.0
  0
LINE
  5
552
100
AcDbEntity
  8
0
 62
     0
100
AcDbLine
 10
107.47196
 20
79.857672
 30
0.0
 11
108.69046
 21
81.076172
 31
0.0
  0
LINE
  5
553
100
AcDbEntity
  8
0
 62
     0
100
AcDbLine
 10
107.47196
 20
80.082178
 30
0.0
 11
108.43021
 21
81.040429
 31
0.0
  0
LINE
  5
554
100
AcDbEntity
  8
0
 62
     0
100
AcDbLine
 10
107.47196
 20
80.306685
 30
0.0
 11
108.179451
 21
81.014177
 31
0.0
  0
LINE
  5
555
100
AcDbEntity
  8
0
 62
     0
100
AcDbLine
 10
107.47196
 20
80.531191
 30
0.0
 11
107.937135
 21
80.996367
 31
0.0
  0
LINE
  5
556
100
AcDbEntity
  8
0
 62
     0
100
AcDbLine
 10
107.47196
 20
80.755698
 30
0.0
 11
107.702413
 21
80.986151
 31
0.0
  0
LINE
  5
557
100
AcDbEntity
  8
0
 62
     0
100
AcDbLine
 10
107.47196
 20
80.980204
 30
0.0
 11
107.474587
 21
80.982832
 31
0.0
  0
LINE
  5
558
100
AcDbEntity
  8
0
 62
     0
100
AcDbLine
 10
107.47196
 20
77.837114
 30
0.0
 11
111.571207
 21
81.936362
 31
0.0
  0
LINE
  5
559
100
AcDbEntity
  8
0
 62
     0
100
AcDbLine
 10
107.715275
 20
77.855923
 30
0.0
 11
111.587575
 21
81.728224
 31
0.0
  0
ENDBLK
  5
55A
100
AcDbEntity
  8
0
100
AcDbBlockEnd
  0
BLOCK
  5
562
100
AcDbEntity
  8
0
100
AcDbBlockBegin
  2
*D20
 70
    65
 10
0.0
 20
0.0
 30
0.0
  3
*D20
  1

  0
LINE
  5
563
100
AcDbEntity
  8
0
  6
BYBLOCK
 62
     0
100
AcDbLine
 10
90.97196
 20
196.093024
 30
0.0
 11
90.97196
 21
203.791052
 31
0.0
  0
LINE
  5
564
100
AcDbEntity
  8
0
  6
BYBLOCK
 62
     0
100
AcDbLine
 10
87.47196
 20
197.093024
 30
0.0
 11
87.47196
 21
203.791052
 31
0.0
  0
LINE
  5
565
100
AcDbEntity
  8
0
  6
BYBLOCK
 62
     0
100
AcDbLine
 10
93.47196
 20
202.541052
 30
0.0
 11
95.97196
 21
202.541052
 31
0.0
  0
LINE
  5
566
100
AcDbEntity
  8
0
  6
BYBLOCK
 62
     0
100
AcDbLine
 10
84.97196
 20
202.541052
 30
0.0
 11
76.465269
 21
202.541052
 31
0.0
  0
SOLID
  5
567
100
AcDbEntity
  8
0
  6
BYBLOCK
 62
     0
100
AcDbTrace
 10
93.47196
 20
202.957718
 30
0.0
 11
93.47196
 21
202.124385
 31
0.0
 12
90.97196
 22
202.541052
 32
0.0
 13
90.97196
 23
202.541052
 33
0.0
  0
SOLID
  5
568
100
AcDbEntity
  8
0
  6
BYBLOCK
 62
     0
100
AcDbTrace
 10
84.97196
 20
202.957718
 30
0.0
 11
84.97196
 21
202.124385
 31
0.0
 12
87.47196
 22
202.541052
 32
0.0
 13
87.47196
 23
202.541052
 33
0.0
  0
MTEXT
  5
569
100
AcDbEntity
  8
0
  6
BYBLOCK
 62
     0
100
AcDbMText
 10
79.468614
 20
204.666052
 30
0.0
 40
3.0
 41
0.0
 71
     5
 72
     1
  1
\A1;3.5
  0
POINT
  5
56A
100
AcDbEntity
  8
DEFPOINTS
  6
BYBLOCK
 62
     0
100
AcDbPoint
 10
90.97196
 20
195.468024
 30
0.0
  0
POINT
  5
56B
100
AcDbEntity
  8
DEFPOINTS
  6
BYBLOCK
 62
     0
100
AcDbPoint
 10
87.47196
 20
196.468024
 30
0.0
  0
POINT
  5
56C
100
AcDbEntity
  8
DEFPOINTS
  6
BYBLOCK
 62
     0
100
AcDbPoint
 10
87.47196
 20
202.541052
 30
0.0
  0
ENDBLK
  5
56D
100
AcDbEntity
  8
0
100
AcDbBlockEnd
  0
BLOCK
  5
58B
100
AcDbEntity
  8
QUOTE
100
AcDbBlockBegin
  2
RUGOSITA
 70
     2
 10
0.0
 20
0.0
 30
0.0
  3
RUGOSITA
  1

  0
ATTDEF
  5
587
100
AcDbEntity
  8
QUOTE
100
AcDbText
 10
-1.071886
 20
3.214106
 30
0.0
 40
1.5
  1
0.8
100
AcDbAttributeDefinition
  3
CHE RUGOSITA ?
  2
RUGOSITA
 70
     0
  0
LINE
  5
588
100
AcDbEntity
  8
QUOTE
100
AcDbLine
 10
0.0
 20
0.0
 30
0.0
 11
4.0
 21
6.928203
 31
0.0
  0
LINE
  5
589
100
AcDbEntity
  8
QUOTE
100
AcDbLine
 10
0.0
 20
0.0
 30
0.0
 11
-1.75
 21
3.031089
 31
0.0
  0
LINE
  5
58A
100
AcDbEntity
  8
QUOTE
100
AcDbLine
 10
-1.75
 20
3.031089
 30
0.0
 11
1.75
 21
3.031089
 31
0.0
  0
ENDBLK
  5
58C
100
AcDbEntity
  8
QUOTE
100
AcDbBlockEnd
  0
ENDSEC
  0
SECTION
  2
ENTITIES
  0
ARC
  5
25C
100
AcDbEntity
  8
DISEGNO
100
AcDbCircle
 10
107.47196
 20
78.618024
 30
0.0
 40
0.8
100
AcDbArc
 50
224.0
 51
316.0
1001
ACAD
1000
ASC_BOUNDS
1002
{
1070
    19
1002
}
  0
LINE
  5
25D
100
AcDbEntity
  8
DISEGNO
100
AcDbLine
 10
70.47196
 20
182.468024
 30
0.0
 11
87.47196
 21
182.468024
 31
0.0
  0
LINE
  5
25E
100
AcDbEntity
  8
DISEGNO
100
AcDbLine
 10
100.47196
 20
182.468024
 30
0.0
 11
100.47196
 21
211.468024
 31
0.0
  0
LINE
  5
25F
100
AcDbEntity
  8
DISEGNO
100
AcDbLine
 10
87.47196
 20
211.468024
 30
0.0
 11
87.47196
 21
196.468024
 31
0.0
  0
LINE
  5
261
100
AcDbEntity
  8
DISEGNO
100
AcDbLine
 10
90.97196
 20
195.468024
 30
0.0
 11
90.97196
 21
187.068024
 31
0.0
  0
LINE
  5
263
100
AcDbEntity
  8
DISEGNO
100
AcDbLine
 10
87.47196
 20
186.068024
 30
0.0
 11
87.47196
 21
182.468024
 31
0.0
  0
LINE
  5
264
100
AcDbEntity
  8
DISEGNO
100
AcDbLine
 10
100.47196
 20
182.468024
 30
0.0
 11
113.47196
 21
182.468024
 31
0.0
  0
LINE
  5
265
100
AcDbEntity
  8
DISEGNO
100
AcDbLine
 10
58.47196
 20
170.468024
 30
0.0
 11
58.47196
 21
127.896924
 31
0.0
  0
LINE
  5
266
100
AcDbEntity
  8
DISEGNO
100
AcDbLine
 10
108.047431
 20
78.062297
 30
0.0
 11
111.64245
 21
81.785048
 31
0.0
1001
ACAD
1000
ASC_BOUNDS
1002
{
1070
    19
1002
}
  0
LINE
  5
267
100
AcDbEntity
  8
DISEGNO
100
AcDbLine
 10
106.896488
 20
78.062297
 30
0.0
 11
99.62232
 21
85.594919
 31
0.0
1001
ACAD
1000
ASC_BOUNDS
1002
{
1070
    19
1002
}
  0
LINE
  5
26E
100
AcDbEntity
  8
DISEGNO
100
AcDbLine
 10
99.62232
 20
85.594919
 30
0.0
 11
99.62232
 21
86.746564
 31
0.0
  0
LINE
  5
271
100
AcDbEntity
  8
DISEGNO
100
AcDbLine
 10
70.47196
 20
182.468024
 30
0.0
 11
58.47196
 21
170.468024
 31
0.0
  0
LINE
  5
272
100
AcDbEntity
  8
DISEGNO
100
AcDbLine
 10
114.47196
 20
181.468024
 30
0.0
 11
114.47196
 21
173.968024
 31
0.0
  0
LINE
  5
273
100
AcDbEntity
  8
DISEGNO
100
AcDbLine
 10
114.47196
 20
173.968024
 30
0.0
 11
92.980853
 21
152.476917
 31
0.0
  0
ARC
  5
274
100
AcDbEntity
  8
DISEGNO
100
AcDbCircle
 10
107.122988
 20
138.334782
 30
0.0
 40
20.0
100
AcDbArc
 50
135.0
 51
210.0
  0
LINE
  5
283
100
AcDbEntity
  8
DISEGNO
100
AcDbLine
 10
88.47196
 20
212.468024
 30
0.0
 11
99.47196
 21
212.468024
 31
0.0
  0
LINE
  5
284
100
AcDbEntity
  8
DISEGNO
100
AcDbLine
 10
88.47196
 20
195.468024
 30
0.0
 11
90.97196
 21
195.468024
 31
0.0
  0
LINE
  5
285
100
AcDbEntity
  8
DISEGNO
100
AcDbLine
 10
90.97196
 20
187.068024
 30
0.0
 11
88.47196
 21
187.068024
 31
0.0
  0
LINE
  5
286
100
AcDbEntity
  8
DISEGNO
100
AcDbLine
 10
88.47196
 20
212.468024
 30
0.0
 11
87.47196
 21
211.468024
 31
0.0
  0
LINE
  5
287
100
AcDbEntity
  8
DISEGNO
100
AcDbLine
 10
99.47196
 20
212.468024
 30
0.0
 11
100.47196
 21
211.468024
 31
0.0
  0
LINE
  5
288
100
AcDbEntity
  8
DISEGNO
100
AcDbLine
 10
88.47196
 20
195.468024
 30
0.0
 11
87.47196
 21
196.468024
 31
0.0
  0
LINE
  5
289
100
AcDbEntity
  8
DISEGNO
100
AcDbLine
 10
88.47196
 20
187.068024
 30
0.0
 11
87.47196
 21
186.068024
 31
0.0
  0
LINE
  5
28A
100
AcDbEntity
  8
DISEGNO
100
AcDbLine
 10
113.47196
 20
182.468024
 30
0.0
 11
114.47196
 21
181.468024
 31
0.0
  0
LINE
  5
360
100
AcDbEntity
  8
DISEGNO
100
AcDbLine
 10
99.62232
 20
86.746564
 30
0.0
 11
58.47196
 21
127.896924
 31
0.0
  0
LINE
  5
4D1
100
AcDbEntity
  8
DISEGNO
100
AcDbLine
 10
111.64245
 20
81.785048
 30
0.0
 11
89.028313
 21
129.815233
 31
0.0
1001
ACAD
1000
ASC_BOUNDS
1002
{
1070
    19
1002
}
  0
ENDSEC
  0
SECTION
  2
OBJECTS
  0
DICTIONARY
  5
C
100
AcDbDictionary
  3
ACAD_GROUP
350
D
  3
ACAD_MLINESTYLE
350
E
  0
DICTIONARY
  5
D
102
{ACAD_REACTORS
330
C
102
}
100
AcDbDictionary
  0
DICTIONARY
  5
E
102
{ACAD_REACTORS
330
C
102
}
100
AcDbDictionary
  3
STANDARD
350
1C
  0
MLINESTYLE
  5
1C
102
{ACAD_REACTORS
330
E
102
}
100
AcDbMlineStyle
  2
STANDARD
 70
     0
  3

 62
     0
 51
90.0
 52
90.0
 71
     2
 49
0.5
 62
   256
  6
BYLAYER
 49
-0.5
 62
   256
  6
BYLAYER
  0
ENDSEC
  0
EOF
