  0
SECTION
  2
HEADER
  9
$ACADVER
  1
AC1012
  9
$DWGCODEPAGE
  3
iso8859-1
  9
$INSBASE
 10
0.0
 20
0.0
 30
0.0
  9
$EXTMIN
 10
-2150.639815
 20
-1659.286013
 30
0.0
  9
$EXTMAX
 10
-1489.486219
 20
-1370.938765
 30
0.0
  9
$LIMMIN
 10
0.0
 20
0.0
  9
$LIMMAX
 10
210.0
 20
297.0
  9
$ORTHOMODE
 70
     0
  9
$REGENMODE
 70
     1
  9
$FILLMODE
 70
     1
  9
$QTEXTMODE
 70
     0
  9
$MIRRTEXT
 70
     1
  9
$DRAGMODE
 70
     2
  9
$LTSCALE
 40
1.0
  9
$OSMODE
 70
     0
  9
$ATTMODE
 70
     1
  9
$TEXTSIZE
 40
3.0
  9
$TRACEWID
 40
0.05
  9
$TEXTSTYLE
  7
STYLE3
  9
$CLAYER
  8
TEMPRA
  9
$CELTYPE
  6
BYLAYER
  9
$CECOLOR
 62
   256
  9
$CELTSCALE
 40
1.0
  9
$DELOBJ
 70
     1
  9
$DISPSILH
 70
     0
  9
$DIMSCALE
 40
1.0
  9
$DIMASZ
 40
2.5
  9
$DIMEXO
 40
0.625
  9
$DIMDLI
 40
3.75
  9
$DIMRND
 40
0.0
  9
$DIMDLE
 40
0.0
  9
$DIMEXE
 40
1.25
  9
$DIMTP
 40
0.0
  9
$DIMTM
 40
0.0
  9
$DIMTXT
 40
3.5
  9
$DIMCEN
 40
0.0
  9
$DIMTSZ
 40
0.0
  9
$DIMTOL
 70
     0
  9
$DIMLIM
 70
     0
  9
$DIMTIH
 70
     0
  9
$DIMTOH
 70
     0
  9
$DIMSE1
 70
     0
  9
$DIMSE2
 70
     0
  9
$DIMTAD
 70
     1
  9
$DIMZIN
 70
     8
  9
$DIMBLK
  1

  9
$DIMASO
 70
     1
  9
$DIMSHO
 70
     1
  9
$DIMPOST
  1

  9
$DIMAPOST
  1

  9
$DIMALT
 70
     0
  9
$DIMALTD
 70
     2
  9
$DIMALTF
 40
0.03937
  9
$DIMLFAC
 40
1.0
  9
$DIMTOFL
 70
     0
  9
$DIMTVP
 40
0.0
  9
$DIMTIX
 70
     0
  9
$DIMSOXD
 70
     0
  9
$DIMSAH
 70
     0
  9
$DIMBLK1
  1

  9
$DIMBLK2
  1

  9
$DIMSTYLE
  2
STANDARD
  9
$DIMCLRD
 70
     0
  9
$DIMCLRE
 70
     0
  9
$DIMCLRT
 70
     0
  9
$DIMTFAC
 40
1.0
  9
$DIMGAP
 40
0.625
  9
$DIMJUST
 70
     0
  9
$DIMSD1
 70
     0
  9
$DIMSD2
 70
     0
  9
$DIMTOLJ
 70
     1
  9
$DIMTZIN
 70
     8
  9
$DIMALTZ
 70
     0
  9
$DIMALTTZ
 70
     0
  9
$DIMFIT
 70
     3
  9
$DIMUPT
 70
     0
  9
$DIMUNIT
 70
     2
  9
$DIMDEC
 70
     2
  9
$DIMTDEC
 70
     2
  9
$DIMALTU
 70
     2
  9
$DIMALTTD
 70
     2
  9
$DIMTXSTY
  7
STANDARD
  9
$DIMAUNIT
 70
     0
  9
$LUNITS
 70
     2
  9
$LUPREC
 70
     4
  9
$SKETCHINC
 40
0.1
  9
$FILLETRAD
 40
0.8
  9
$AUNITS
 70
     0
  9
$AUPREC
 70
     0
  9
$MENU
  1
acad
  9
$ELEVATION
 40
0.0
  9
$PELEVATION
 40
0.0
  9
$THICKNESS
 40
0.0
  9
$LIMCHECK
 70
     0
  9
$BLIPMODE
 70
     1
  9
$CHAMFERA
 40
0.0
  9
$CHAMFERB
 40
0.0
  9
$CHAMFERC
 40
20.0
  9
$CHAMFERD
 40
0.0
  9
$SKPOLY
 70
     0
  9
$TDCREATE
 40
2452481.284075347
  9
$TDUPDATE
 40
2453158.426626053
  9
$TDINDWG
 40
0.2204583912
  9
$TDUSRTIMER
 40
0.2204583912
  9
$USRTIMER
 70
     1
  9
$ANGBASE
 50
0.0
  9
$ANGDIR
 70
     0
  9
$PDMODE
 70
     0
  9
$PDSIZE
 40
0.0
  9
$PLINEWID
 40
0.0
  9
$COORDS
 70
     1
  9
$SPLFRAME
 70
     0
  9
$SPLINETYPE
 70
     6
  9
$SPLINESEGS
 70
     8
  9
$ATTDIA
 70
     0
  9
$ATTREQ
 70
     1
  9
$HANDLING
 70
     1
  9
$HANDSEED
  5
1E91
  9
$SURFTAB1
 70
     6
  9
$SURFTAB2
 70
     6
  9
$SURFTYPE
 70
     6
  9
$SURFU
 70
     6
  9
$SURFV
 70
     6
  9
$UCSNAME
  2

  9
$UCSORG
 10
0.0
 20
0.0
 30
0.0
  9
$UCSXDIR
 10
1.0
 20
0.0
 30
0.0
  9
$UCSYDIR
 10
0.0
 20
1.0
 30
0.0
  9
$PUCSNAME
  2

  9
$PUCSORG
 10
0.0
 20
0.0
 30
0.0
  9
$PUCSXDIR
 10
1.0
 20
0.0
 30
0.0
  9
$PUCSYDIR
 10
0.0
 20
1.0
 30
0.0
  9
$USERI1
 70
     0
  9
$USERI2
 70
     0
  9
$USERI3
 70
     0
  9
$USERI4
 70
     0
  9
$USERI5
 70
     0
  9
$USERR1
 40
0.0
  9
$USERR2
 40
0.0
  9
$USERR3
 40
0.0
  9
$USERR4
 40
0.0
  9
$USERR5
 40
0.0
  9
$WORLDVIEW
 70
     1
  9
$SHADEDGE
 70
     3
  9
$SHADEDIF
 70
    70
  9
$TILEMODE
 70
     1
  9
$MAXACTVP
 70
    16
  9
$PINSBASE
 10
0.0
 20
0.0
 30
0.0
  9
$PLIMCHECK
 70
     0
  9
$PEXTMIN
 10
1.000000E+20
 20
1.000000E+20
 30
1.000000E+20
  9
$PEXTMAX
 10
-1.000000E+20
 20
-1.000000E+20
 30
-1.000000E+20
  9
$PLIMMIN
 10
0.0
 20
0.0
  9
$PLIMMAX
 10
12.0
 20
9.0
  9
$UNITMODE
 70
     0
  9
$VISRETAIN
 70
     0
  9
$PLINEGEN
 70
     0
  9
$PSLTSCALE
 70
     1
  9
$TREEDEPTH
 70
  3020
  9
$PICKSTYLE
 70
     1
  9
$CMLSTYLE
  2
STANDARD
  9
$CMLJUST
 70
     0
  9
$CMLSCALE
 40
20.0
  9
$SAVEIMAGES
 70
     0
  0
ENDSEC
  0
SECTION
  2
CLASSES
  0
ENDSEC
  0
SECTION
  2
TABLES
  0
TABLE
  2
VPORT
  5
8
100
AcDbSymbolTable
 70
     2
  0
VPORT
  5
1E90
100
AcDbSymbolTableRecord
100
AcDbViewportTableRecord
  2
*ACTIVE
 70
     0
 10
0.0
 20
0.0
 11
1.0
 21
1.0
 12
-1854.146169
 22
-1469.188572
 13
0.0
 23
0.0
 14
10.0
 24
10.0
 15
10.0
 25
10.0
 16
0.0
 26
0.0
 36
1.0
 17
0.0
 27
0.0
 37
0.0
 40
125.794944
 41
1.563011
 42
50.0
 43
0.0
 44
0.0
 50
0.0
 51
0.0
 71
     0
 72
   100
 73
     1
 74
     0
 75
     0
 76
     0
 77
     0
 78
     0
  0
ENDTAB
  0
TABLE
  2
LTYPE
  5
5
100
AcDbSymbolTable
 70
     4
  0
LTYPE
  5
13
100
AcDbSymbolTableRecord
100
AcDbLinetypeTableRecord
  2
BYBLOCK
 70
     0
  3

 72
    65
 73
     0
 40
0.0
  0
LTYPE
  5
14
100
AcDbSymbolTableRecord
100
AcDbLinetypeTableRecord
  2
BYLAYER
 70
     0
  3

 72
    65
 73
     0
 40
0.0
  0
LTYPE
  5
15
100
AcDbSymbolTableRecord
100
AcDbLinetypeTableRecord
  2
CONTINUOUS
 70
    64
  3
Solid line
 72
    65
 73
     0
 40
0.0
  0
LTYPE
  5
94
100
AcDbSymbolTableRecord
100
AcDbLinetypeTableRecord
  2
ACAD_ISO04W100
 70
    64
  3
____ . ____ . ____ . ____ . ____ . ____ . ____ 
 72
    65
 73
     4
 40
30.5
 49
24.0
 74
     0
 49
-3.0
 74
     0
 49
0.5
 74
     0
 49
-3.0
 74
     0
  0
LTYPE
  5
225
100
AcDbSymbolTableRecord
100
AcDbLinetypeTableRecord
  2
TRATTEGGIATAX2
 70
    64
  3
____  ____  ____  ____  ____  ____  ____  ____ 
 72
    65
 73
     2
 40
1.5
 49
1.0
 74
     0
 49
-0.5
 74
     0
  0
LTYPE
  5
226
100
AcDbSymbolTableRecord
100
AcDbLinetypeTableRecord
  2
NASCOSTA
 70
    64
  3
__ __ __ __ __ __ __ __ __ __ __ __ __ __ __ __
 72
    65
 73
     2
 40
0.375
 49
0.25
 74
     0
 49
-0.125
 74
     0
  0
ENDTAB
  0
TABLE
  2
LAYER
  5
2
100
AcDbSymbolTable
 70
    11
  0
LAYER
  5
F
100
AcDbSymbolTableRecord
100
AcDbLayerTableRecord
  2
0
 70
     0
 62
     7
  6
CONTINUOUS
  0
LAYER
  5
95
100
AcDbSymbolTableRecord
100
AcDbLayerTableRecord
  2
DISEGNO
 70
    64
 62
     7
  6
CONTINUOUS
  0
LAYER
  5
96
100
AcDbSymbolTableRecord
100
AcDbLayerTableRecord
  2
ASSI
 70
    64
 62
     1
  6
ACAD_ISO04W100
  0
LAYER
  5
97
100
AcDbSymbolTableRecord
100
AcDbLayerTableRecord
  2
SEZIONE
 70
    64
 62
     3
  6
CONTINUOUS
  0
LAYER
  5
98
100
AcDbSymbolTableRecord
100
AcDbLayerTableRecord
  2
TEMPRA
 70
    64
 62
     2
  6
CONTINUOUS
  0
LAYER
  5
99
100
AcDbSymbolTableRecord
100
AcDbLayerTableRecord
  2
QUOTE
 70
    64
 62
     5
  6
CONTINUOUS
  0
LAYER
  5
1A3
100
AcDbSymbolTableRecord
100
AcDbLayerTableRecord
  2
TRATTO
 70
    64
 62
     6
  6
NASCOSTA
  0
LAYER
  5
28A
100
AcDbSymbolTableRecord
100
AcDbLayerTableRecord
  2
DEFPOINTS
 70
    64
 62
     7
  6
CONTINUOUS
  0
LAYER
  5
4A6
100
AcDbSymbolTableRecord
100
AcDbLayerTableRecord
  2
TABELLA
 70
    64
 62
     8
  6
CONTINUOUS
  0
LAYER
  5
55B
100
AcDbSymbolTableRecord
100
AcDbLayerTableRecord
  2
MARCATURA
 70
    64
 62
   136
  6
CONTINUOUS
  0
LAYER
  5
55C
100
AcDbSymbolTableRecord
100
AcDbLayerTableRecord
  2
TESTO
 70
    64
 62
   140
  6
CONTINUOUS
  0
ENDTAB
  0
TABLE
  2
STYLE
  5
3
100
AcDbSymbolTable
 70
     2
  0
STYLE
  5
10
100
AcDbSymbolTableRecord
100
AcDbTextStyleTableRecord
  2
STANDARD
 70
    64
 40
0.0
 41
1.1
 50
0.0
 71
     0
 42
3.0
  3
C:\ACLTWIN\isocp.shx
  4

  0
STYLE
  5
B0
100
AcDbSymbolTableRecord
100
AcDbTextStyleTableRecord
  2
STYLE3
 70
    64
 40
0.0
 41
1.1
 50
0.0
 71
     0
 42
3.0
  3
C:\ACLTWIN\isocp.shx
  4

  0
ENDTAB
  0
TABLE
  2
VIEW
  5
6
100
AcDbSymbolTable
 70
     0
  0
ENDTAB
  0
TABLE
  2
UCS
  5
7
100
AcDbSymbolTable
 70
     0
  0
ENDTAB
  0
TABLE
  2
APPID
  5
9
100
AcDbSymbolTable
 70
     1
  0
APPID
  5
11
100
AcDbSymbolTableRecord
100
AcDbRegAppTableRecord
  2
ACAD
 70
     0
  0
ENDTAB
  0
TABLE
  2
DIMSTYLE
  5
A
100
AcDbSymbolTable
 70
    24
  0
DIMSTYLE
105
1D
100
AcDbSymbolTableRecord
100
AcDbDimStyleTableRecord
  2
STANDARD
 70
     0
  3

  4

  5

  6

  7

 40
1.0
 41
2.5
 42
0.625
 43
3.75
 44
1.25
 45
0.0
 46
0.0
 47
0.0
 48
0.0
140
3.5
141
2.5
142
0.0
143
0.03937
144
1.0
145
0.0
146
1.0
147
0.625
 71
     0
 72
     0
 73
     0
 74
     0
 75
     0
 76
     0
 77
     1
 78
     8
170
     0
171
     2
172
     0
173
     0
174
     0
175
     0
176
     0
177
     0
178
     0
270
     2
271
     2
272
     2
273
     2
274
     2
340
10
275
     0
280
     0
281
     0
282
     0
283
     1
284
     8
285
     0
286
     0
287
     3
288
     0
  0
DIMSTYLE
105
234
100
AcDbSymbolTableRecord
100
AcDbDimStyleTableRecord
  2
TOLL-04
 70
     0
  3

  4

  5

  6

  7

 40
1.0
 41
2.5
 42
0.625
 43
3.75
 44
1.25
 45
0.0
 46
0.0
 47
0.02
 48
0.02
140
3.5
141
2.5
142
0.0
143
0.03937
144
1.0
145
0.0
146
0.8
147
0.625
 71
     1
 72
     0
 73
     0
 74
     0
 75
     0
 76
     0
 77
     1
 78
     8
170
     0
171
     2
172
     0
173
     0
174
     0
175
     0
176
     0
177
     0
178
     0
270
     2
271
     2
272
     2
273
     2
274
     2
340
10
275
     0
280
     0
281
     0
282
     0
283
     2
284
     8
285
     0
286
     0
287
     3
288
     0
  0
DIMSTYLE
105
4A7
100
AcDbSymbolTableRecord
100
AcDbDimStyleTableRecord
  2
ISO-25
 70
     0
  3

  4

  5

  6

  7

 40
1.0
 41
2.5
 42
0.625
 43
3.75
 44
1.25
 45
0.0
 46
0.0
 47
0.0
 48
0.0
140
2.5
141
2.5
142
0.0
143
0.0394
144
1.0
145
1.0
146
1.0
147
0.625
 71
     0
 72
     0
 73
     1
 74
     0
 75
     0
 76
     0
 77
     1
 78
     8
170
     0
171
     2
172
     1
173
     0
174
     0
175
     0
176
     0
177
     0
178
     0
270
     2
271
     4
272
     4
273
     2
274
     2
340
10
275
     0
280
     0
281
     0
282
     0
283
     1
284
     0
285
     0
286
     0
287
     3
288
     0
  0
DIMSTYLE
105
574
100
AcDbSymbolTableRecord
100
AcDbDimStyleTableRecord
  2
TOLL-01
 70
     0
  3

  4

  5

  6

  7

 40
1.0
 41
2.5
 42
0.625
 43
3.75
 44
1.25
 45
0.0
 46
0.0
 47
0.01
 48
0.01
140
3.5
141
2.5
142
0.0
143
0.03937
144
1.0
145
0.0
146
0.8
147
0.625
 71
     1
 72
     0
 73
     0
 74
     0
 75
     0
 76
     0
 77
     1
 78
     8
170
     0
171
     2
172
     0
173
     0
174
     0
175
     0
176
     0
177
     0
178
     0
270
     2
271
     2
272
     2
273
     2
274
     2
340
10
275
     0
280
     0
281
     0
282
     0
283
     2
284
     8
285
     0
286
     0
287
     3
288
     0
  0
DIMSTYLE
105
575
100
AcDbSymbolTableRecord
100
AcDbDimStyleTableRecord
  2
TOLL-02
 70
     0
  3

  4

  5

  6

  7

 40
1.0
 41
2.5
 42
0.625
 43
3.75
 44
1.25
 45
0.0
 46
0.0
 47
0.01
 48
0.0
140
3.5
141
2.5
142
0.0
143
0.03937
144
1.0
145
0.0
146
0.8
147
0.625
 71
     1
 72
     0
 73
     0
 74
     0
 75
     0
 76
     0
 77
     1
 78
     8
170
     0
171
     2
172
     0
173
     0
174
     0
175
     0
176
     0
177
     0
178
     0
270
     2
271
     2
272
     2
273
     2
274
     2
340
10
275
     0
280
     0
281
     0
282
     0
283
     2
284
     8
285
     0
286
     0
287
     3
288
     0
  0
DIMSTYLE
105
576
100
AcDbSymbolTableRecord
100
AcDbDimStyleTableRecord
  2
TOLL-03
 70
     0
  3

  4

  5

  6

  7

 40
1.0
 41
2.5
 42
0.625
 43
3.75
 44
1.25
 45
0.0
 46
0.0
 47
-0.01
 48
0.0
140
3.5
141
2.5
142
0.0
143
0.03937
144
1.0
145
0.0
146
0.8
147
0.625
 71
     1
 72
     0
 73
     0
 74
     0
 75
     0
 76
     0
 77
     1
 78
     8
170
     0
171
     2
172
     0
173
     0
174
     0
175
     0
176
     0
177
     0
178
     0
270
     2
271
     2
272
     2
273
     2
274
     2
340
10
275
     0
280
     0
281
     0
282
     0
283
     2
284
     8
285
     0
286
     0
287
     3
288
     0
  0
DIMSTYLE
105
577
100
AcDbSymbolTableRecord
100
AcDbDimStyleTableRecord
  2
TOLL-05
 70
     0
  3

  4

  5

  6

  7

 40
1.0
 41
2.5
 42
0.625
 43
3.75
 44
1.25
 45
0.0
 46
0.0
 47
0.02
 48
0.0
140
3.5
141
2.5
142
0.0
143
0.03937
144
1.0
145
0.0
146
0.8
147
0.625
 71
     1
 72
     0
 73
     0
 74
     0
 75
     0
 76
     0
 77
     1
 78
     8
170
     0
171
     2
172
     0
173
     0
174
     0
175
     0
176
     0
177
     0
178
     0
270
     2
271
     2
272
     2
273
     2
274
     2
340
10
275
     0
280
     0
281
     0
282
     0
283
     2
284
     8
285
     0
286
     0
287
     3
288
     0
  0
DIMSTYLE
105
578
100
AcDbSymbolTableRecord
100
AcDbDimStyleTableRecord
  2
TOLL-06
 70
     0
  3

  4

  5

  6

  7

 40
1.0
 41
2.5
 42
0.625
 43
3.75
 44
1.25
 45
0.0
 46
0.0
 47
-0.02
 48
0.0
140
3.5
141
2.5
142
0.0
143
0.03937
144
1.0
145
0.0
146
0.8
147
0.625
 71
     1
 72
     0
 73
     0
 74
     0
 75
     0
 76
     0
 77
     1
 78
     8
170
     0
171
     2
172
     0
173
     0
174
     0
175
     0
176
     0
177
     0
178
     0
270
     2
271
     2
272
     2
273
     2
274
     2
340
10
275
     0
280
     0
281
     0
282
     0
283
     2
284
     8
285
     0
286
     0
287
     3
288
     0
  0
DIMSTYLE
105
579
100
AcDbSymbolTableRecord
100
AcDbDimStyleTableRecord
  2
TOLL-07
 70
     0
  3

  4

  5

  6

  7

 40
1.0
 41
2.5
 42
0.625
 43
3.75
 44
1.25
 45
0.0
 46
0.0
 47
0.05
 48
0.05
140
3.5
141
2.5
142
0.0
143
0.03937
144
1.0
145
0.0
146
0.8
147
0.625
 71
     1
 72
     0
 73
     0
 74
     0
 75
     0
 76
     0
 77
     1
 78
     8
170
     0
171
     2
172
     0
173
     0
174
     0
175
     0
176
     0
177
     0
178
     0
270
     2
271
     2
272
     2
273
     2
274
     2
340
10
275
     0
280
     0
281
     0
282
     0
283
     2
284
     8
285
     0
286
     0
287
     3
288
     0
  0
DIMSTYLE
105
57A
100
AcDbSymbolTableRecord
100
AcDbDimStyleTableRecord
  2
TOLL-08
 70
     0
  3

  4

  5

  6

  7

 40
1.0
 41
2.5
 42
0.625
 43
3.75
 44
1.25
 45
0.0
 46
0.0
 47
0.05
 48
0.0
140
3.5
141
2.5
142
0.0
143
0.03937
144
1.0
145
0.0
146
0.8
147
0.625
 71
     1
 72
     0
 73
     0
 74
     0
 75
     0
 76
     0
 77
     1
 78
     8
170
     0
171
     2
172
     0
173
     0
174
     0
175
     0
176
     0
177
     0
178
     0
270
     2
271
     2
272
     2
273
     2
274
     2
340
10
275
     0
280
     0
281
     0
282
     0
283
     2
284
     8
285
     0
286
     0
287
     3
288
     0
  0
DIMSTYLE
105
57B
100
AcDbSymbolTableRecord
100
AcDbDimStyleTableRecord
  2
TOLL-09
 70
     0
  3

  4

  5

  6

  7

 40
1.0
 41
2.5
 42
0.625
 43
3.75
 44
1.25
 45
0.0
 46
0.0
 47
-0.05
 48
0.0
140
3.5
141
2.5
142
0.0
143
0.03937
144
1.0
145
0.0
146
0.8
147
0.625
 71
     1
 72
     0
 73
     0
 74
     0
 75
     0
 76
     0
 77
     1
 78
     8
170
     0
171
     2
172
     0
173
     0
174
     0
175
     0
176
     0
177
     0
178
     0
270
     2
271
     2
272
     2
273
     2
274
     2
340
10
275
     0
280
     0
281
     0
282
     0
283
     2
284
     8
285
     0
286
     0
287
     3
288
     0
  0
DIMSTYLE
105
57C
100
AcDbSymbolTableRecord
100
AcDbDimStyleTableRecord
  2
TOLL-10
 70
     0
  3

  4

  5

  6

  7

 40
1.0
 41
2.5
 42
0.625
 43
3.75
 44
1.25
 45
0.0
 46
0.0
 47
0.1
 48
0.1
140
3.5
141
2.5
142
0.0
143
0.03937
144
1.0
145
0.0
146
0.8
147
0.625
 71
     1
 72
     0
 73
     0
 74
     0
 75
     0
 76
     0
 77
     1
 78
     8
170
     0
171
     2
172
     0
173
     0
174
     0
175
     0
176
     0
177
     0
178
     0
270
     2
271
     2
272
     2
273
     2
274
     2
340
10
275
     0
280
     0
281
     0
282
     0
283
     2
284
     8
285
     0
286
     0
287
     3
288
     0
  0
DIMSTYLE
105
57D
100
AcDbSymbolTableRecord
100
AcDbDimStyleTableRecord
  2
TOLL-11
 70
     0
  3

  4

  5

  6

  7

 40
1.0
 41
2.5
 42
0.625
 43
3.75
 44
1.25
 45
0.0
 46
0.0
 47
0.1
 48
0.0
140
3.5
141
2.5
142
0.0
143
0.03937
144
1.0
145
0.0
146
0.8
147
0.625
 71
     1
 72
     0
 73
     0
 74
     0
 75
     0
 76
     0
 77
     1
 78
     8
170
     0
171
     2
172
     0
173
     0
174
     0
175
     0
176
     0
177
     0
178
     0
270
     2
271
     2
272
     2
273
     2
274
     2
340
10
275
     0
280
     0
281
     0
282
     0
283
     2
284
     8
285
     0
286
     0
287
     3
288
     0
  0
DIMSTYLE
105
57E
100
AcDbSymbolTableRecord
100
AcDbDimStyleTableRecord
  2
TOLL-12
 70
     0
  3

  4

  5

  6

  7

 40
1.0
 41
2.5
 42
0.625
 43
3.75
 44
1.25
 45
0.0
 46
0.0
 47
-0.1
 48
0.0
140
3.5
141
2.5
142
0.0
143
0.03937
144
1.0
145
0.0
146
0.8
147
0.625
 71
     1
 72
     0
 73
     0
 74
     0
 75
     0
 76
     0
 77
     1
 78
     8
170
     0
171
     2
172
     0
173
     0
174
     0
175
     0
176
     0
177
     0
178
     0
270
     2
271
     2
272
     2
273
     2
274
     2
340
10
275
     0
280
     0
281
     0
282
     0
283
     2
284
     8
285
     0
286
     0
287
     3
288
     0
  0
DIMSTYLE
105
57F
100
AcDbSymbolTableRecord
100
AcDbDimStyleTableRecord
  2
TOLL-13
 70
     0
  3

  4

  5

  6

  7

 40
1.0
 41
2.5
 42
0.625
 43
3.75
 44
1.25
 45
0.0
 46
0.0
 47
0.2
 48
0.2
140
3.5
141
2.5
142
0.0
143
0.03937
144
1.0
145
0.0
146
0.8
147
0.625
 71
     1
 72
     0
 73
     0
 74
     0
 75
     0
 76
     0
 77
     1
 78
     8
170
     0
171
     2
172
     0
173
     0
174
     0
175
     0
176
     0
177
     0
178
     0
270
     2
271
     2
272
     2
273
     2
274
     2
340
10
275
     0
280
     0
281
     0
282
     0
283
     2
284
     8
285
     0
286
     0
287
     3
288
     0
  0
DIMSTYLE
105
580
100
AcDbSymbolTableRecord
100
AcDbDimStyleTableRecord
  2
TOLL-14
 70
     0
  3

  4

  5

  6

  7

 40
1.0
 41
2.5
 42
0.625
 43
3.75
 44
1.25
 45
0.0
 46
0.0
 47
0.2
 48
0.0
140
3.5
141
2.5
142
0.0
143
0.03937
144
1.0
145
0.0
146
0.8
147
0.625
 71
     1
 72
     0
 73
     0
 74
     0
 75
     0
 76
     0
 77
     1
 78
     8
170
     0
171
     2
172
     0
173
     0
174
     0
175
     0
176
     0
177
     0
178
     0
270
     2
271
     2
272
     2
273
     2
274
     2
340
10
275
     0
280
     0
281
     0
282
     0
283
     2
284
     8
285
     0
286
     0
287
     3
288
     0
  0
DIMSTYLE
105
581
100
AcDbSymbolTableRecord
100
AcDbDimStyleTableRecord
  2
TOLL-15
 70
     0
  3

  4

  5

  6

  7

 40
1.0
 41
2.5
 42
0.625
 43
3.75
 44
1.25
 45
0.0
 46
0.0
 47
-0.2
 48
0.0
140
3.5
141
2.5
142
0.0
143
0.03937
144
1.0
145
0.0
146
0.8
147
0.625
 71
     1
 72
     0
 73
     0
 74
     0
 75
     0
 76
     0
 77
     1
 78
     8
170
     0
171
     2
172
     0
173
     0
174
     0
175
     0
176
     0
177
     0
178
     0
270
     2
271
     2
272
     2
273
     2
274
     2
340
10
275
     0
280
     0
281
     0
282
     0
283
     2
284
     8
285
     0
286
     0
287
     3
288
     0
  0
DIMSTYLE
105
582
100
AcDbSymbolTableRecord
100
AcDbDimStyleTableRecord
  2
TOLL-16
 70
     0
  3

  4

  5

  6

  7

 40
1.0
 41
2.5
 42
0.625
 43
3.75
 44
1.25
 45
0.0
 46
0.0
 47
0.5
 48
0.5
140
3.5
141
2.5
142
0.0
143
0.03937
144
1.0
145
0.0
146
0.8
147
0.625
 71
     1
 72
     0
 73
     0
 74
     0
 75
     0
 76
     0
 77
     1
 78
     8
170
     0
171
     2
172
     0
173
     0
174
     0
175
     0
176
     0
177
     0
178
     0
270
     2
271
     2
272
     2
273
     2
274
     2
340
10
275
     0
280
     0
281
     0
282
     0
283
     2
284
     8
285
     0
286
     0
287
     3
288
     0
  0
DIMSTYLE
105
583
100
AcDbSymbolTableRecord
100
AcDbDimStyleTableRecord
  2
TOLL-17
 70
     0
  3

  4

  5

  6

  7

 40
1.0
 41
2.5
 42
0.625
 43
3.75
 44
1.25
 45
0.0
 46
0.0
 47
0.5
 48
0.0
140
3.5
141
2.5
142
0.0
143
0.03937
144
1.0
145
0.0
146
0.8
147
0.625
 71
     1
 72
     0
 73
     0
 74
     0
 75
     0
 76
     0
 77
     1
 78
     8
170
     0
171
     2
172
     0
173
     0
174
     0
175
     0
176
     0
177
     0
178
     0
270
     2
271
     2
272
     2
273
     2
274
     2
340
10
275
     0
280
     0
281
     0
282
     0
283
     2
284
     8
285
     0
286
     0
287
     3
288
     0
  0
DIMSTYLE
105
584
100
AcDbSymbolTableRecord
100
AcDbDimStyleTableRecord
  2
TOLL-18
 70
     0
  3

  4

  5

  6

  7

 40
1.0
 41
2.5
 42
0.625
 43
3.75
 44
1.25
 45
0.0
 46
0.0
 47
-0.5
 48
0.0
140
3.5
141
2.5
142
0.0
143
0.03937
144
1.0
145
0.0
146
0.8
147
0.625
 71
     1
 72
     0
 73
     0
 74
     0
 75
     0
 76
     0
 77
     1
 78
     8
170
     0
171
     2
172
     0
173
     0
174
     0
175
     0
176
     0
177
     0
178
     0
270
     2
271
     2
272
     2
273
     2
274
     2
340
10
275
     0
280
     0
281
     0
282
     0
283
     2
284
     8
285
     0
286
     0
287
     3
288
     0
  0
DIMSTYLE
105
585
100
AcDbSymbolTableRecord
100
AcDbDimStyleTableRecord
  2
TOLL-19
 70
     0
  3

  4

  5

  6

  7

 40
1.0
 41
2.5
 42
0.625
 43
3.75
 44
1.25
 45
0.0
 46
0.0
 47
0.16
 48
0.0
140
3.5
141
2.5
142
0.0
143
0.03937
144
1.0
145
0.0
146
0.8
147
0.625
 71
     1
 72
     0
 73
     0
 74
     0
 75
     0
 76
     0
 77
     1
 78
     8
170
     0
171
     2
172
     0
173
     0
174
     0
175
     0
176
     0
177
     0
178
     0
270
     2
271
     0
272
     2
273
     2
274
     2
340
10
275
     1
280
     0
281
     0
282
     0
283
     2
284
     8
285
     0
286
     0
287
     3
288
     0
  0
DIMSTYLE
105
5E5
100
AcDbSymbolTableRecord
100
AcDbDimStyleTableRecord
  2
TOLL-20
 70
     0
  3

  4

  5

  6

  7

 40
1.0
 41
2.5
 42
0.625
 43
3.75
 44
1.25
 45
0.0
 46
0.0
 47
-0.08
 48
-0.08
140
3.5
141
2.5
142
0.0
143
0.03937
144
1.0
145
0.0
146
0.8
147
0.625
 71
     1
 72
     0
 73
     0
 74
     0
 75
     0
 76
     0
 77
     1
 78
     8
170
     0
171
     2
172
     0
173
     0
174
     0
175
     0
176
     0
177
     0
178
     0
270
     2
271
     0
272
     2
273
     2
274
     2
340
10
275
     1
280
     0
281
     0
282
     0
283
     2
284
     8
285
     0
286
     0
287
     3
288
     0
  0
DIMSTYLE
105
5E6
100
AcDbSymbolTableRecord
100
AcDbDimStyleTableRecord
  2
TOLL-21
 70
     0
  3

  4

  5

  6

  7

 40
1.0
 41
2.5
 42
0.625
 43
3.75
 44
1.25
 45
0.0
 46
0.0
 47
0.033
 48
0.0
140
3.5
141
2.5
142
0.0
143
0.03937
144
1.0
145
0.0
146
0.8
147
0.625
 71
     1
 72
     0
 73
     0
 74
     0
 75
     0
 76
     0
 77
     1
 78
     8
170
     0
171
     2
172
     0
173
     0
174
     0
175
     0
176
     0
177
     0
178
     0
270
     2
271
     0
272
     2
273
     2
274
     2
340
10
275
     1
280
     0
281
     0
282
     0
283
     2
284
     8
285
     0
286
     0
287
     3
288
     0
  0
DIMSTYLE
105
60E
100
AcDbSymbolTableRecord
100
AcDbDimStyleTableRecord
  2
TOLL-22
 70
     0
  3

  4

  5

  6

  7

 40
1.0
 41
2.5
 42
0.625
 43
3.75
 44
1.25
 45
0.0
 46
0.0
 47
-0.033
 48
0.0
140
3.5
141
2.5
142
0.0
143
0.03937
144
1.0
145
0.0
146
0.8
147
0.625
 71
     1
 72
     0
 73
     0
 74
     0
 75
     0
 76
     0
 77
     1
 78
     8
170
     0
171
     2
172
     0
173
     0
174
     0
175
     0
176
     0
177
     0
178
     0
270
     2
271
     0
272
     2
273
     2
274
     2
340
10
275
     1
280
     0
281
     0
282
     0
283
     2
284
     8
285
     0
286
     0
287
     3
288
     0
  0
ENDTAB
  0
TABLE
  2
BLOCK_RECORD
  5
1
100
AcDbSymbolTable
 70
    51
  0
BLOCK_RECORD
  5
19
100
AcDbSymbolTableRecord
100
AcDbBlockTableRecord
  2
*MODEL_SPACE
  0
BLOCK_RECORD
  5
16
100
AcDbSymbolTableRecord
100
AcDbBlockTableRecord
  2
*PAPER_SPACE
  0
BLOCK_RECORD
  5
3A2
100
AcDbSymbolTableRecord
100
AcDbBlockTableRecord
  2
RUGOSITA
  0
BLOCK_RECORD
  5
4A8
100
AcDbSymbolTableRecord
100
AcDbBlockTableRecord
  2
A$C52B2
  0
BLOCK_RECORD
  5
62B
100
AcDbSymbolTableRecord
100
AcDbBlockTableRecord
  2
A$C350
  0
BLOCK_RECORD
  5
69B
100
AcDbSymbolTableRecord
100
AcDbBlockTableRecord
  2
*D3
  0
BLOCK_RECORD
  5
6A8
100
AcDbSymbolTableRecord
100
AcDbBlockTableRecord
  2
*D4
  0
BLOCK_RECORD
  5
6CF
100
AcDbSymbolTableRecord
100
AcDbBlockTableRecord
  2
*D5
  0
BLOCK_RECORD
  5
723
100
AcDbSymbolTableRecord
100
AcDbBlockTableRecord
  2
*D6
  0
BLOCK_RECORD
  5
731
100
AcDbSymbolTableRecord
100
AcDbBlockTableRecord
  2
*D7
  0
BLOCK_RECORD
  5
7B8
100
AcDbSymbolTableRecord
100
AcDbBlockTableRecord
  2
*D8
  0
BLOCK_RECORD
  5
807
100
AcDbSymbolTableRecord
100
AcDbBlockTableRecord
  2
*D9
  0
BLOCK_RECORD
  5
815
100
AcDbSymbolTableRecord
100
AcDbBlockTableRecord
  2
*D10
  0
BLOCK_RECORD
  5
862
100
AcDbSymbolTableRecord
100
AcDbBlockTableRecord
  2
*D11
  0
BLOCK_RECORD
  5
892
100
AcDbSymbolTableRecord
100
AcDbBlockTableRecord
  2
*D12
  0
BLOCK_RECORD
  5
926
100
AcDbSymbolTableRecord
100
AcDbBlockTableRecord
  2
*D13
  0
BLOCK_RECORD
  5
933
100
AcDbSymbolTableRecord
100
AcDbBlockTableRecord
  2
*D14
  0
BLOCK_RECORD
  5
941
100
AcDbSymbolTableRecord
100
AcDbBlockTableRecord
  2
*D15
  0
BLOCK_RECORD
  5
AE0
100
AcDbSymbolTableRecord
100
AcDbBlockTableRecord
  2
*D16
  0
BLOCK_RECORD
  5
AEC
100
AcDbSymbolTableRecord
100
AcDbBlockTableRecord
  2
*D17
  0
BLOCK_RECORD
  5
AF9
100
AcDbSymbolTableRecord
100
AcDbBlockTableRecord
  2
*D18
  0
BLOCK_RECORD
  5
B7D
100
AcDbSymbolTableRecord
100
AcDbBlockTableRecord
  2
*D19
  0
BLOCK_RECORD
  5
B8A
100
AcDbSymbolTableRecord
100
AcDbBlockTableRecord
  2
*D20
  0
BLOCK_RECORD
  5
B98
100
AcDbSymbolTableRecord
100
AcDbBlockTableRecord
  2
*D21
  0
BLOCK_RECORD
  5
BB4
100
AcDbSymbolTableRecord
100
AcDbBlockTableRecord
  2
*D22
  0
BLOCK_RECORD
  5
BCE
100
AcDbSymbolTableRecord
100
AcDbBlockTableRecord
  2
*D23
  0
BLOCK_RECORD
  5
BEA
100
AcDbSymbolTableRecord
100
AcDbBlockTableRecord
  2
*D24
  0
BLOCK_RECORD
  5
C05
100
AcDbSymbolTableRecord
100
AcDbBlockTableRecord
  2
*D25
  0
BLOCK_RECORD
  5
C13
100
AcDbSymbolTableRecord
100
AcDbBlockTableRecord
  2
*D26
  0
BLOCK_RECORD
  5
F0F
100
AcDbSymbolTableRecord
100
AcDbBlockTableRecord
  2
*D27
  0
BLOCK_RECORD
  5
F1C
100
AcDbSymbolTableRecord
100
AcDbBlockTableRecord
  2
*D28
  0
BLOCK_RECORD
  5
F5A
100
AcDbSymbolTableRecord
100
AcDbBlockTableRecord
  2
*D29
  0
BLOCK_RECORD
  5
F67
100
AcDbSymbolTableRecord
100
AcDbBlockTableRecord
  2
*D30
  0
BLOCK_RECORD
  5
1490
100
AcDbSymbolTableRecord
100
AcDbBlockTableRecord
  2
*D31
  0
BLOCK_RECORD
  5
149D
100
AcDbSymbolTableRecord
100
AcDbBlockTableRecord
  2
*D32
  0
BLOCK_RECORD
  5
14B6
100
AcDbSymbolTableRecord
100
AcDbBlockTableRecord
  2
*D33
  0
BLOCK_RECORD
  5
14C3
100
AcDbSymbolTableRecord
100
AcDbBlockTableRecord
  2
*D34
  0
BLOCK_RECORD
  5
150F
100
AcDbSymbolTableRecord
100
AcDbBlockTableRecord
  2
*D35
  0
BLOCK_RECORD
  5
153B
100
AcDbSymbolTableRecord
100
AcDbBlockTableRecord
  2
*D36
  0
BLOCK_RECORD
  5
1545
100
AcDbSymbolTableRecord
100
AcDbBlockTableRecord
  2
*D37
  0
BLOCK_RECORD
  5
1585
100
AcDbSymbolTableRecord
100
AcDbBlockTableRecord
  2
*X38
  0
BLOCK_RECORD
  5
1642
100
AcDbSymbolTableRecord
100
AcDbBlockTableRecord
  2
*D39
  0
BLOCK_RECORD
  5
1669
100
AcDbSymbolTableRecord
100
AcDbBlockTableRecord
  2
*D40
  0
BLOCK_RECORD
  5
1684
100
AcDbSymbolTableRecord
100
AcDbBlockTableRecord
  2
*D41
  0
BLOCK_RECORD
  5
16B4
100
AcDbSymbolTableRecord
100
AcDbBlockTableRecord
  2
*D42
  0
BLOCK_RECORD
  5
16C4
100
AcDbSymbolTableRecord
100
AcDbBlockTableRecord
  2
*D43
  0
BLOCK_RECORD
  5
1718
100
AcDbSymbolTableRecord
100
AcDbBlockTableRecord
  2
*D44
  0
BLOCK_RECORD
  5
173F
100
AcDbSymbolTableRecord
100
AcDbBlockTableRecord
  2
*D45
  0
BLOCK_RECORD
  5
1766
100
AcDbSymbolTableRecord
100
AcDbBlockTableRecord
  2
*D46
  0
BLOCK_RECORD
  5
1784
100
AcDbSymbolTableRecord
100
AcDbBlockTableRecord
  2
*D47
  0
BLOCK_RECORD
  5
1D92
100
AcDbSymbolTableRecord
100
AcDbBlockTableRecord
  2
*X48
  0
BLOCK_RECORD
  5
1E74
100
AcDbSymbolTableRecord
100
AcDbBlockTableRecord
  2
*D49
  0
BLOCK_RECORD
  5
1E7E
100
AcDbSymbolTableRecord
100
AcDbBlockTableRecord
  2
*D50
  0
ENDTAB
  0
ENDSEC
  0
SECTION
  2
BLOCKS
  0
BLOCK
  5
1A
100
AcDbEntity
  8
0
100
AcDbBlockBegin
  2
*MODEL_SPACE
 70
     0
 10
0.0
 20
0.0
 30
0.0
  3
*MODEL_SPACE
  1

  0
ENDBLK
  5
1B
100
AcDbEntity
  8
0
100
AcDbBlockEnd
  0
BLOCK
  5
17
100
AcDbEntity
 67
     1
  8
0
100
AcDbBlockBegin
  2
*PAPER_SPACE
 70
     0
 10
0.0
 20
0.0
 30
0.0
  3
*PAPER_SPACE
  1

  0
ENDBLK
  5
18
100
AcDbEntity
 67
     1
  8
0
100
AcDbBlockEnd
  0
BLOCK
  5
3A7
100
AcDbEntity
  8
DISEGNO
100
AcDbBlockBegin
  2
RUGOSITA
 70
     2
 10
0.0
 20
0.0
 30
0.0
  3
RUGOSITA
  1

  0
ATTDEF
  5
3A3
100
AcDbEntity
  8
QUOTE
100
AcDbText
 10
-1.071886
 20
3.214106
 30
0.0
 40
1.5
  1
0.8
100
AcDbAttributeDefinition
  3
CHE RUGOSITA ?
  2
RUGOSITA
 70
     0
  0
LINE
  5
3A4
100
AcDbEntity
  8
QUOTE
100
AcDbLine
 10
0.0
 20
0.0
 30
0.0
 11
4.0
 21
6.928203
 31
0.0
  0
LINE
  5
3A5
100
AcDbEntity
  8
QUOTE
100
AcDbLine
 10
0.0
 20
0.0
 30
0.0
 11
-1.75
 21
3.031089
 31
0.0
  0
LINE
  5
3A6
100
AcDbEntity
  8
QUOTE
100
AcDbLine
 10
-1.75
 20
3.031089
 30
0.0
 11
1.75
 21
3.031089
 31
0.0
  0
ENDBLK
  5
3A8
100
AcDbEntity
  8
DISEGNO
100
AcDbBlockEnd
  0
BLOCK
  5
547
100
AcDbEntity
  8
QUOTE
100
AcDbBlockBegin
  2
A$C52B2
 70
     0
 10
0.0
 20
0.0
 30
0.0
  3
A$C52B2
  1

  0
LINE
  5
4A9
100
AcDbEntity
  8
TABELLA
  6
CONTINUOUS
100
AcDbLine
 10
100.781064
 20
5.387067
 30
0.0
 11
103.281064
 21
0.387067
 31
0.0
  0
LINE
  5
4AA
100
AcDbEntity
  8
TABELLA
  6
CONTINUOUS
100
AcDbLine
 10
100.781064
 20
0.387067
 30
0.0
 11
103.281064
 21
0.387067
 31
0.0
  0
LINE
  5
4AB
100
AcDbEntity
  8
TABELLA
  6
CONTINUOUS
100
AcDbLine
 10
103.281064
 20
287.387067
 30
0.0
 11
100.781064
 21
282.387067
 31
0.0
  0
LINE
  5
4AC
100
AcDbEntity
  8
TABELLA
  6
CONTINUOUS
100
AcDbLine
 10
100.781064
 20
287.387067
 30
0.0
 11
103.281064
 21
287.387067
 31
0.0
  0
TEXT
  5
4AD
100
AcDbEntity
  8
TABELLA
  6
CONTINUOUS
100
AcDbText
 10
83.891226
 20
14.123583
 30
0.0
 40
6.0
  1
ROLLERI
100
AcDbText
  0
LINE
  5
4AE
100
AcDbEntity
  8
TABELLA
  6
CONTINUOUS
100
AcDbLine
 10
115.706968
 20
22.612261
 30
0.0
 11
84.107383
 21
22.612261
 31
0.0
1001
ACAD
1000
ASC_BOUNDS
1002
{
1070
    19
1002
}
  0
LINE
  5
4AF
100
AcDbEntity
  8
TABELLA
  6
CONTINUOUS
100
AcDbLine
 10
82.055262
 20
11.456564
 30
0.0
 11
113.654847
 21
11.456564
 31
0.0
1001
ACAD
1000
ASC_BOUNDS
1002
{
1070
    19
1002
}
  0
LINE
  5
4B0
100
AcDbEntity
  8
TABELLA
  6
CONTINUOUS
100
AcDbLine
 10
116.407176
 20
23.612261
 30
0.0
 11
83.407176
 21
23.612261
 31
0.0
1001
ACAD
1000
ASC_BOUNDS
1002
{
1070
    19
1002
}
  0
LINE
  5
4B1
100
AcDbEntity
  8
TABELLA
  6
CONTINUOUS
100
AcDbLine
 10
81.355055
 20
10.456564
 30
0.0
 11
114.355055
 21
10.456564
 31
0.0
1001
ACAD
1000
ASC_BOUNDS
1002
{
1070
    19
1002
}
  0
TEXT
  5
4B2
100
AcDbEntity
  8
TABELLA
  6
CONTINUOUS
100
AcDbText
 10
79.770815
 20
6.679292
 30
0.0
 40
2.0
  1
Vigolzone ( Piacenza ) - ITALIA
100
AcDbText
  0
LINE
  5
4B3
100
AcDbEntity
  8
TABELLA
  6
CONTINUOUS
100
AcDbLine
 10
125.782064
 20
35.387067
 30
0.0
 11
75.782064
 21
35.387067
 31
0.0
  0
LINE
  5
4B4
100
AcDbEntity
  8
TABELLA
  6
CONTINUOUS
100
AcDbLine
 10
195.782064
 20
45.387067
 30
0.0
 11
5.697058
 21
45.395351
 31
0.0
  0
LINE
  5
4B5
100
AcDbEntity
  8
TABELLA
  6
CONTINUOUS
100
AcDbLine
 10
125.782064
 20
25.387067
 30
0.0
 11
75.782064
 21
25.387067
 31
0.0
  0
LINE
  5
4B6
100
AcDbEntity
  8
TABELLA
  6
CONTINUOUS
100
AcDbLine
 10
195.782064
 20
5.387067
 30
0.0
 11
5.782064
 21
5.387067
 31
0.0
  0
LINE
  5
4B7
100
AcDbEntity
  8
TABELLA
  6
CONTINUOUS
100
AcDbLine
 10
5.782064
 20
282.387067
 30
0.0
 11
195.782064
 21
282.387067
 31
0.0
  0
LINE
  5
4B8
100
AcDbEntity
  8
TABELLA
  6
CONTINUOUS
100
AcDbLine
 10
5.782064
 20
143.887067
 30
0.0
 11
0.782064
 21
141.387067
 31
0.0
  0
LINE
  5
4B9
100
AcDbEntity
  8
TABELLA
  6
CONTINUOUS
100
AcDbLine
 10
0.782064
 20
143.887067
 30
0.0
 11
0.782064
 21
141.387067
 31
0.0
  0
LINE
  5
4BA
100
AcDbEntity
  8
TABELLA
  6
CONTINUOUS
100
AcDbLine
 10
5.782064
 20
5.387067
 30
0.0
 11
5.782064
 21
282.387067
 31
0.0
  0
POLYLINE
  5
4BB
100
AcDbEntity
  8
QUOTE
100
AcDb2dPolyline
 66
     1
 10
0.0
 20
0.0
 30
0.0
 70
     1
  0
VERTEX
  5
4BC
100
AcDbEntity
  8
QUOTE
100
AcDbVertex
100
AcDb2dVertex
 10
11.507487
 20
62.582414
 30
0.0
  0
VERTEX
  5
4BD
100
AcDbEntity
  8
QUOTE
100
AcDbVertex
100
AcDb2dVertex
 10
11.507487
 20
49.867806
 30
0.0
  0
VERTEX
  5
4BE
100
AcDbEntity
  8
QUOTE
100
AcDbVertex
100
AcDb2dVertex
 10
52.626527
 20
49.867806
 30
0.0
  0
VERTEX
  5
4BF
100
AcDbEntity
  8
QUOTE
100
AcDbVertex
100
AcDb2dVertex
 10
52.626527
 20
62.582414
 30
0.0
  0
SEQEND
  5
4C0
100
AcDbEntity
  8
QUOTE
  0
TOLERANCE
  5
4C1
100
AcDbEntity
  8
QUOTE
  6
CONTINUOUS
100
AcDbFcf
  3
ISO-25
 10
30.863585
 20
54.182522
 30
0.0
  1
{\Fgdt;u}%%v0.02%%v%%v%%v%%v
1001
ACAD
1000
DSTYLE
1002
{
1070
   140
1040
2.6
1070
    47
1040
0.02
1070
    73
1070
     0
1070
   272
1070
     2
1070
   147
1040
0.53
1070
    42
1040
0.5261
1070
    44
1040
1.0522
1070
    43
1040
3.1566
1070
   271
1070
     2
1070
   141
1040
2.1044
1070
    41
1040
2.6
1002
}
  0
TEXT
  5
4C2
100
AcDbEntity
  8
QUOTE
100
AcDbText
 10
12.101072
 20
58.118453
 30
0.0
 40
2.5
  1
TOLLERANZE AL METRO
 41
1.1
100
AcDbText
  0
TEXT
  5
4C3
100
AcDbEntity
  8
TABELLA
  6
CONTINUOUS
100
AcDbText
 10
7.271803
 20
15.7314
 30
0.0
 40
2.0
  1
- Angoli su superfici lavorate = +/- 30'
100
AcDbText
  0
TEXT
  5
4C4
100
AcDbEntity
  8
TABELLA
  6
CONTINUOUS
100
AcDbText
 10
7.271803
 20
23.3314
 30
0.0
 40
2.0
  1
   da mm 151 a mm 500 = +/- 0.4
100
AcDbText
  0
TEXT
  5
4C5
100
AcDbEntity
  8
TABELLA
  6
CONTINUOUS
100
AcDbText
 10
7.271803
 20
27.1314
 30
0.0
 40
2.0
  1
   da mm 51 a mm 150 = +/- 0.3
100
AcDbText
  0
TEXT
  5
4C6
100
AcDbEntity
  8
TABELLA
  6
CONTINUOUS
100
AcDbText
 10
7.271803
 20
30.9314
 30
0.0
 40
2.0
  1
- Superfici lavorate da mm 1 a mm 50 = +/- 0.2
100
AcDbText
  0
TEXT
  5
4C7
100
AcDbEntity
  8
TABELLA
  6
CONTINUOUS
100
AcDbText
 10
7.271803
 20
34.7314
 30
0.0
 40
2.0
  1
- Parti fuse con spessori >10 mm = +/- 10%
100
AcDbText
  0
TEXT
  5
4C8
100
AcDbEntity
  8
TABELLA
  6
CONTINUOUS
100
AcDbText
 10
7.271803
 20
38.5314
 30
0.0
 40
2.0
  1
- Parti fuse con spessori <10 mm = +/- 1 mm
100
AcDbText
  0
TOLERANCE
  5
4C9
100
AcDbEntity
  8
QUOTE
  6
CONTINUOUS
100
AcDbFcf
  3
ISO-25
 10
15.305627
 20
54.182522
 30
0.0
  1
{\Fgdt;b}%%v0.02%%v%%v%%v%%v
1001
ACAD
1000
DSTYLE
1002
{
1070
   140
1040
2.6
1070
    47
1040
0.02
1070
    73
1070
     0
1070
   272
1070
     2
1070
   147
1040
0.53
1070
    42
1040
0.5261
1070
    44
1040
1.0522
1070
    43
1040
3.1566
1070
   271
1070
     2
1070
   141
1040
2.1044
1070
    41
1040
2.6
1002
}
  0
TEXT
  5
4CA
100
AcDbEntity
  8
TABELLA
  6
CONTINUOUS
100
AcDbText
 10
0.769342
 20
51.259863
 30
0.0
 40
4.0
  1
B
100
AcDbText
  0
TEXT
  5
4CB
100
AcDbEntity
  8
TABELLA
  6
CONTINUOUS
100
AcDbText
 10
0.353187
 20
15.100813
 30
0.0
 40
4.0
  1
A
100
AcDbText
  0
LINE
  5
4CC
100
AcDbEntity
  8
TABELLA
  6
CONTINUOUS
100
AcDbLine
 10
5.782064
 20
36.262067
 30
0.0
 11
0.782064
 21
36.262067
 31
0.0
  0
TEXT
  5
4CD
100
AcDbEntity
  8
TABELLA
  6
CONTINUOUS
100
AcDbText
 10
15.583223
 20
0.138446
 30
0.0
 40
4.0
  1
6
100
AcDbText
  0
LINE
  5
4CE
100
AcDbEntity
  8
TABELLA
  6
CONTINUOUS
100
AcDbLine
 10
34.115064
 20
5.387067
 30
0.0
 11
34.115064
 21
0.387067
 31
0.0
  0
TEXT
  5
4CF
100
AcDbEntity
  8
TABELLA
  6
CONTINUOUS
100
AcDbText
 10
7.271803
 20
11.9314
 30
0.0
 40
2.0
  1
- Interassi fori = +/- 0.25
100
AcDbText
  0
TEXT
  5
4D0
100
AcDbEntity
  8
TABELLA
  6
CONTINUOUS
100
AcDbText
 10
7.271803
 20
19.5314
 30
0.0
 40
2.0
  1
   oltre 500 mm = +/- 0.5
100
AcDbText
  0
TEXT
  5
4D1
100
AcDbEntity
  8
TABELLA
  6
CONTINUOUS
100
AcDbText
 10
7.271803
 20
42.3314
 30
0.0
 40
2.0
  1
TOLLERANZE GENERALI :
100
AcDbText
  0
LINE
  5
4D2
100
AcDbEntity
  8
TABELLA
  6
CONTINUOUS
100
AcDbLine
 10
5.782064
 20
72.137067
 30
0.0
 11
0.782064
 21
72.137067
 31
0.0
  0
TEXT
  5
4D3
100
AcDbEntity
  8
TABELLA
  6
CONTINUOUS
100
AcDbText
 10
0.769342
 20
87.459725
 30
0.0
 40
4.0
  1
C
100
AcDbText
  0
LINE
  5
4D4
100
AcDbEntity
  8
TABELLA
  6
CONTINUOUS
100
AcDbLine
 10
5.782064
 20
108.012067
 30
0.0
 11
0.782064
 21
108.012067
 31
0.0
  0
TEXT
  5
4D5
100
AcDbEntity
  8
TABELLA
  6
CONTINUOUS
100
AcDbText
 10
0.769342
 20
124.034397
 30
0.0
 40
4.0
  1
D
100
AcDbText
  0
LINE
  5
4D6
100
AcDbEntity
  8
TABELLA
  6
CONTINUOUS
100
AcDbLine
 10
65.792444
 20
45.394891
 30
0.0
 11
65.782064
 21
5.389662
 31
0.0
  0
TEXT
  5
4D7
100
AcDbEntity
  8
TABELLA
  6
CONTINUOUS
100
AcDbText
 10
68.438556
 20
7.454028
 30
0.0
 40
1.5
  1
A termine di legge la Rolleri si riserva la
 50
90.0
100
AcDbText
  0
TEXT
  5
4D8
100
AcDbEntity
  8
TABELLA
  6
CONTINUOUS
100
AcDbText
 10
49.29176
 20
0.138446
 30
0.0
 40
4.0
  1
5
100
AcDbText
  0
LINE
  5
4D9
100
AcDbEntity
  8
TABELLA
  6
CONTINUOUS
100
AcDbLine
 10
67.448064
 20
5.387067
 30
0.0
 11
67.448064
 21
0.387067
 31
0.0
  0
LINE
  5
4DA
100
AcDbEntity
  8
TABELLA
  6
CONTINUOUS
100
AcDbLine
 10
75.792442
 20
45.387067
 30
0.0
 11
75.792442
 21
5.387067
 31
0.0
  0
TEXT
  5
4DB
100
AcDbEntity
  8
TABELLA
  6
CONTINUOUS
100
AcDbText
 10
74.138556
 20
7.454028
 30
0.0
 40
1.5
  1
di riprodurlo e di comunicarlo a terzi.
 50
90.0
100
AcDbText
  0
TEXT
  5
4DC
100
AcDbEntity
  8
TABELLA
  6
CONTINUOUS
100
AcDbText
 10
71.288556
 20
7.454028
 30
0.0
 40
1.5
  1
proprietà di questo disegno, con divieto
 50
90.0
100
AcDbText
  0
TEXT
  5
4DD
100
AcDbEntity
  8
TABELLA
  6
CONTINUOUS
100
AcDbText
 10
83.416451
 20
0.554068
 30
0.0
 40
4.0
  1
4
100
AcDbText
  0
LINE
  5
4DE
100
AcDbEntity
  8
TABELLA
  6
CONTINUOUS
100
AcDbLine
 10
98.281064
 20
0.387067
 30
0.0
 11
100.781064
 21
5.387067
 31
0.0
  0
LINE
  5
4DF
100
AcDbEntity
  8
TABELLA
  6
CONTINUOUS
100
AcDbLine
 10
100.781064
 20
5.387067
 30
0.0
 11
100.781064
 21
0.387067
 31
0.0
  0
LINE
  5
4E0
100
AcDbEntity
  8
TABELLA
  6
CONTINUOUS
100
AcDbLine
 10
100.781064
 20
0.387067
 30
0.0
 11
98.281064
 21
0.387067
 31
0.0
  0
TEXT
  5
4E1
100
AcDbEntity
  8
TABELLA
  6
CONTINUOUS
100
AcDbText
 10
77.180326
 20
42.484843
 30
0.0
 40
2.0
  1
Materiale
100
AcDbText
  0
TEXT
  5
4E2
100
AcDbEntity
  8
TABELLA
  6
CONTINUOUS
100
AcDbText
 10
76.949018
 20
32.320687
 30
0.0
 40
2.0
  1
Disegnato da
100
AcDbText
  0
LINE
  5
4E3
100
AcDbEntity
  8
TABELLA
  6
CONTINUOUS
100
AcDbLine
 10
84.107383
 20
22.612261
 30
0.0
 11
81.051152
 21
14.215335
 31
0.0
1001
ACAD
1000
ASC_BOUNDS
1002
{
1070
    19
1002
}
  0
LINE
  5
4E4
100
AcDbEntity
  8
TABELLA
  6
CONTINUOUS
100
AcDbLine
 10
83.407176
 20
23.612261
 30
0.0
 11
79.986974
 21
14.215335
 31
0.0
1001
ACAD
1000
ASC_BOUNDS
1002
{
1070
    19
1002
}
  0
LINE
  5
4E5
100
AcDbEntity
  8
TABELLA
  6
CONTINUOUS
100
AcDbLine
 10
81.051152
 20
14.215335
 30
0.0
 11
82.055262
 21
11.456564
 31
0.0
1001
ACAD
1000
ASC_BOUNDS
1002
{
1070
    19
1002
}
  0
LINE
  5
4E6
100
AcDbEntity
  8
TABELLA
  6
CONTINUOUS
100
AcDbLine
 10
79.986974
 20
14.215335
 30
0.0
 11
81.355055
 21
10.456564
 31
0.0
1001
ACAD
1000
ASC_BOUNDS
1002
{
1070
    19
1002
}
  0
LINE
  5
4E7
100
AcDbEntity
  8
TABELLA
  6
CONTINUOUS
100
AcDbLine
 10
100.782064
 20
35.387067
 30
0.0
 11
100.782064
 21
25.387067
 31
0.0
  0
TEXT
  5
4E8
100
AcDbEntity
  8
TABELLA
  6
CONTINUOUS
100
AcDbText
 10
1.185497
 20
230.800736
 30
0.0
 40
4.0
  1
G
100
AcDbText
  0
LINE
  5
4E9
100
AcDbEntity
  8
TABELLA
  6
CONTINUOUS
100
AcDbLine
 10
0.782064
 20
146.387067
 30
0.0
 11
5.782064
 21
143.887067
 31
0.0
  0
LINE
  5
4EA
100
AcDbEntity
  8
TABELLA
  6
CONTINUOUS
100
AcDbLine
 10
5.782064
 20
143.887067
 30
0.0
 11
0.782064
 21
143.887067
 31
0.0
  0
LINE
  5
4EB
100
AcDbEntity
  8
TABELLA
  6
CONTINUOUS
100
AcDbLine
 10
0.782064
 20
143.887067
 30
0.0
 11
0.782064
 21
146.387067
 31
0.0
  0
TEXT
  5
4EC
100
AcDbEntity
  8
TABELLA
  6
CONTINUOUS
100
AcDbText
 10
1.601651
 20
158.319393
 30
0.0
 40
4.0
  1
E
100
AcDbText
  0
LINE
  5
4ED
100
AcDbEntity
  8
TABELLA
  6
CONTINUOUS
100
AcDbLine
 10
5.782064
 20
179.762067
 30
0.0
 11
0.782064
 21
179.762067
 31
0.0
  0
TEXT
  5
4EE
100
AcDbEntity
  8
TABELLA
  6
CONTINUOUS
100
AcDbText
 10
1.185497
 20
195.309687
 30
0.0
 40
4.0
  1
F
100
AcDbText
  0
LINE
  5
4EF
100
AcDbEntity
  8
TABELLA
  6
CONTINUOUS
100
AcDbLine
 10
5.782064
 20
215.637067
 30
0.0
 11
0.782064
 21
215.637067
 31
0.0
  0
LINE
  5
4F0
100
AcDbEntity
  8
TABELLA
  6
CONTINUOUS
100
AcDbLine
 10
5.782064
 20
251.512067
 30
0.0
 11
0.782064
 21
251.512067
 31
0.0
  0
TEXT
  5
4F1
100
AcDbEntity
  8
TABELLA
  6
CONTINUOUS
100
AcDbText
 10
1.185497
 20
268.206651
 30
0.0
 40
4.0
  1
H
100
AcDbText
  0
TEXT
  5
4F2
100
AcDbEntity
  8
TABELLA
  6
CONTINUOUS
100
AcDbText
 10
15.583224
 20
283.209827
 30
0.0
 40
4.0
  1
6
100
AcDbText
  0
LINE
  5
4F3
100
AcDbEntity
  8
TABELLA
  6
CONTINUOUS
100
AcDbLine
 10
34.115064
 20
282.387067
 30
0.0
 11
34.115064
 21
287.387067
 31
0.0
  0
TEXT
  5
4F4
100
AcDbEntity
  8
TABELLA
  6
CONTINUOUS
100
AcDbText
 10
50.12407
 20
283.250638
 30
0.0
 40
4.0
  1
5
100
AcDbText
  0
LINE
  5
4F5
100
AcDbEntity
  8
TABELLA
  6
CONTINUOUS
100
AcDbLine
 10
67.448064
 20
282.387067
 30
0.0
 11
67.448064
 21
287.387067
 31
0.0
  0
TEXT
  5
4F6
100
AcDbEntity
  8
TABELLA
  6
CONTINUOUS
100
AcDbText
 10
83.832607
 20
283.250638
 30
0.0
 40
4.0
  1
4
100
AcDbText
  0
LINE
  5
4F7
100
AcDbEntity
  8
TABELLA
  6
CONTINUOUS
100
AcDbLine
 10
100.781064
 20
282.387067
 30
0.0
 11
98.281064
 21
287.387067
 31
0.0
  0
LINE
  5
4F8
100
AcDbEntity
  8
TABELLA
  6
CONTINUOUS
100
AcDbLine
 10
100.781064
 20
282.387067
 30
0.0
 11
100.781064
 21
287.387067
 31
0.0
  0
LINE
  5
4F9
100
AcDbEntity
  8
TABELLA
  6
CONTINUOUS
100
AcDbLine
 10
100.781064
 20
287.387067
 30
0.0
 11
98.281064
 21
287.387067
 31
0.0
  0
LINE
  5
4FA
100
AcDbEntity
  8
TABELLA
  6
CONTINUOUS
100
AcDbLine
 10
200.782064
 20
141.387067
 30
0.0
 11
195.782064
 21
143.887067
 31
0.0
  0
LINE
  5
4FB
100
AcDbEntity
  8
TABELLA
  6
CONTINUOUS
100
AcDbLine
 10
200.782064
 20
143.887067
 30
0.0
 11
200.782064
 21
141.387067
 31
0.0
  0
LINE
  5
4FC
100
AcDbEntity
  8
TABELLA
  6
CONTINUOUS
100
AcDbLine
 10
191.781227
 20
165.387241
 30
0.0
 11
191.781227
 21
45.387241
 31
0.0
  0
LINE
  5
4FD
100
AcDbEntity
  8
TABELLA
  6
CONTINUOUS
100
AcDbLine
 10
195.782064
 20
5.387067
 30
0.0
 11
195.782064
 21
282.387067
 31
0.0
  0
TEXT
  5
4FE
100
AcDbEntity
  8
TABELLA
  6
CONTINUOUS
100
AcDbText
 10
147.267168
 20
42.484843
 30
0.0
 40
2.0
  1
Trattamento Termico
100
AcDbText
  0
TEXT
  5
4FF
100
AcDbEntity
  8
TABELLA
  6
CONTINUOUS
100
AcDbText
 10
161.83968
 20
32.089683
 30
0.0
 40
2.0
  1
Scala
100
AcDbText
  0
TEXT
  5
500
100
AcDbEntity
  8
TABELLA
  6
CONTINUOUS
100
AcDbText
 10
162.070991
 20
12.223377
 30
0.0
 40
2.0
  1
Data
100
AcDbText
  0
LINE
  5
501
100
AcDbEntity
  8
TABELLA
  6
CONTINUOUS
100
AcDbLine
 10
125.782064
 20
35.387067
 30
0.0
 11
195.782064
 21
35.387067
 31
0.0
  0
LINE
  5
502
100
AcDbEntity
  8
TABELLA
  6
CONTINUOUS
100
AcDbLine
 10
125.782064
 20
25.387067
 30
0.0
 11
195.782064
 21
25.387067
 31
0.0
  0
LINE
  5
503
100
AcDbEntity
  8
TABELLA
  6
CONTINUOUS
100
AcDbLine
 10
120.666552
 20
15.457427
 30
0.0
 11
195.782064
 21
15.387067
 31
0.0
  0
TEXT
  5
504
100
AcDbEntity
  8
TABELLA
  6
CONTINUOUS
100
AcDbText
 10
116.965597
 20
42.484843
 30
0.0
 40
2.0
  1
Dimensioni di prelievo
100
AcDbText
  0
TEXT
  5
505
100
AcDbEntity
  8
TABELLA
  6
CONTINUOUS
100
AcDbText
 10
126.911915
 20
32.089683
 30
0.0
 40
2.0
  1
Approvato da - data
100
AcDbText
  0
TEXT
  5
506
100
AcDbEntity
  8
TABELLA
  6
CONTINUOUS
100
AcDbText
 10
121.823101
 20
22.387534
 30
0.0
 40
2.0
  1
Particolare
100
AcDbText
  0
LINE
  5
507
100
AcDbEntity
  8
TABELLA
  6
CONTINUOUS
100
AcDbLine
 10
120.782064
 20
15.387067
 30
0.0
 11
120.782064
 21
5.387067
 31
0.0
  0
TEXT
  5
508
100
AcDbEntity
  8
TABELLA
  6
CONTINUOUS
100
AcDbText
 10
116.708833
 20
0.138446
 30
0.0
 40
4.0
  1
3
100
AcDbText
  0
LINE
  5
509
100
AcDbEntity
  8
TABELLA
  6
CONTINUOUS
100
AcDbLine
 10
116.711078
 20
19.853491
 30
0.0
 11
115.706968
 21
22.612261
 31
0.0
1001
ACAD
1000
ASC_BOUNDS
1002
{
1070
    19
1002
}
  0
LINE
  5
50A
100
AcDbEntity
  8
TABELLA
  6
CONTINUOUS
100
AcDbLine
 10
113.654847
 20
11.456564
 30
0.0
 11
116.711078
 21
19.853491
 31
0.0
1001
ACAD
1000
ASC_BOUNDS
1002
{
1070
    19
1002
}
  0
LINE
  5
50B
100
AcDbEntity
  8
TABELLA
  6
CONTINUOUS
100
AcDbLine
 10
114.355055
 20
10.456564
 30
0.0
 11
117.775256
 21
19.853491
 31
0.0
1001
ACAD
1000
ASC_BOUNDS
1002
{
1070
    19
1002
}
  0
TEXT
  5
50C
100
AcDbEntity
  8
TABELLA
  6
CONTINUOUS
100
AcDbText
 10
101.930465
 20
32.089683
 30
0.0
 40
2.0
  1
Controllato da
100
AcDbText
  0
LINE
  5
50D
100
AcDbEntity
  8
TABELLA
  6
CONTINUOUS
100
AcDbLine
 10
115.782064
 20
35.387067
 30
0.0
 11
115.782064
 21
45.387067
 31
0.0
  0
LINE
  5
50E
100
AcDbEntity
  8
TABELLA
  6
CONTINUOUS
100
AcDbLine
 10
125.782064
 20
35.387067
 30
0.0
 11
125.782064
 21
25.387067
 31
0.0
  0
TEXT
  5
50F
100
AcDbEntity
  8
TABELLA
  6
CONTINUOUS
100
AcDbText
 10
121.591791
 20
12.223377
 30
0.0
 40
2.0
  1
Disegno
100
AcDbText
  0
LINE
  5
510
100
AcDbEntity
  8
TABELLA
  6
CONTINUOUS
100
AcDbLine
 10
117.775256
 20
19.853491
 30
0.0
 11
116.407176
 21
23.612261
 31
0.0
1001
ACAD
1000
ASC_BOUNDS
1002
{
1070
    19
1002
}
  0
LINE
  5
511
100
AcDbEntity
  8
TABELLA
  6
CONTINUOUS
100
AcDbLine
 10
120.782064
 20
25.387067
 30
0.0
 11
120.782064
 21
15.387067
 31
0.0
  0
LINE
  5
512
100
AcDbEntity
  8
TABELLA
  6
CONTINUOUS
100
AcDbLine
 10
160.782064
 20
15.387067
 30
0.0
 11
160.782064
 21
5.387067
 31
0.0
  0
LINE
  5
513
100
AcDbEntity
  8
TABELLA
  6
CONTINUOUS
100
AcDbLine
 10
134.114064
 20
5.387067
 30
0.0
 11
134.114064
 21
0.387067
 31
0.0
  0
TEXT
  5
514
100
AcDbEntity
  8
TABELLA
  6
CONTINUOUS
100
AcDbText
 10
150.41737
 20
0.138446
 30
0.0
 40
4.0
  1
2
100
AcDbText
  0
LINE
  5
515
100
AcDbEntity
  8
TABELLA
  6
CONTINUOUS
100
AcDbLine
 10
145.782064
 20
35.387067
 30
0.0
 11
145.782064
 21
45.387067
 31
0.0
  0
LINE
  5
516
100
AcDbEntity
  8
TABELLA
  6
CONTINUOUS
100
AcDbLine
 10
160.782064
 20
35.387067
 30
0.0
 11
160.782064
 21
25.387067
 31
0.0
  0
TEXT
  5
517
100
AcDbEntity
  8
TABELLA
  6
CONTINUOUS
100
AcDbText
 10
197.026704
 20
51.259863
 30
0.0
 40
4.0
  1
B
100
AcDbText
  0
TEXT
  5
518
100
AcDbEntity
  8
TABELLA
  6
CONTINUOUS
100
AcDbText
 10
195.001816
 20
46.303578
 30
0.0
 40
2.0
  1
N° rev.
 50
90.0
100
AcDbText
  0
LINE
  5
519
100
AcDbEntity
  8
TABELLA
  6
CONTINUOUS
100
AcDbLine
 10
176.747411
 20
30.474182
 30
0.0
 11
194.673913
 21
30.474182
 31
0.0
  0
LINE
  5
51A
100
AcDbEntity
  8
TABELLA
  6
CONTINUOUS
100
AcDbLine
 10
180.782064
 20
15.387067
 30
0.0
 11
180.782064
 21
5.387067
 31
0.0
  0
LINE
  5
51B
100
AcDbEntity
  8
TABELLA
  6
CONTINUOUS
100
AcDbLine
 10
167.447064
 20
5.387067
 30
0.0
 11
167.447064
 21
0.387067
 31
0.0
  0
TEXT
  5
51C
100
AcDbEntity
  8
TABELLA
  6
CONTINUOUS
100
AcDbText
 10
184.542061
 20
0.138446
 30
0.0
 40
4.0
  1
1
100
AcDbText
  0
LINE
  5
51D
100
AcDbEntity
  8
TABELLA
  6
CONTINUOUS
100
AcDbLine
 10
176.747411
 20
31.974182
 30
0.0
 11
182.656258
 21
33.016071
 31
0.0
  0
LINE
  5
51E
100
AcDbEntity
  8
TABELLA
  6
CONTINUOUS
100
AcDbLine
 10
176.747411
 20
28.974182
 30
0.0
 11
182.656258
 21
27.932293
 31
0.0
  0
LINE
  5
51F
100
AcDbEntity
  8
TABELLA
  6
CONTINUOUS
100
AcDbLine
 10
176.747411
 20
31.974182
 30
0.0
 11
176.747411
 21
28.974182
 31
0.0
  0
LINE
  5
520
100
AcDbEntity
  8
TABELLA
  6
CONTINUOUS
100
AcDbLine
 10
175.782064
 20
35.387067
 30
0.0
 11
175.782064
 21
25.387067
 31
0.0
  0
CIRCLE
  5
521
100
AcDbEntity
  8
TABELLA
  6
CONTINUOUS
100
AcDbCircle
 10
189.932065
 20
30.474182
 30
0.0
 40
1.5
  0
LINE
  5
522
100
AcDbEntity
  8
TABELLA
  6
CONTINUOUS
100
AcDbLine
 10
189.932065
 20
28.369782
 30
0.0
 11
189.932065
 21
32.578582
 31
0.0
  0
CIRCLE
  5
523
100
AcDbEntity
  8
TABELLA
  6
CONTINUOUS
100
AcDbCircle
 10
189.932065
 20
30.474182
 30
0.0
 40
2.54
  0
LINE
  5
524
100
AcDbEntity
  8
TABELLA
  6
CONTINUOUS
100
AcDbLine
 10
182.656258
 20
33.016071
 30
0.0
 11
182.656258
 21
27.932293
 31
0.0
  0
TEXT
  5
525
100
AcDbEntity
  8
TABELLA
  6
CONTINUOUS
100
AcDbText
 10
181.963625
 20
11.992375
 30
0.0
 40
2.0
  1
Formato
100
AcDbText
  0
LINE
  5
526
100
AcDbEntity
  8
TABELLA
  6
CONTINUOUS
100
AcDbLine
 10
187.827665
 20
30.474182
 30
0.0
 11
192.036465
 21
30.474182
 31
0.0
  0
LINE
  5
527
100
AcDbEntity
  8
TABELLA
  6
CONTINUOUS
100
AcDbLine
 10
195.782064
 20
5.387067
 30
0.0
 11
195.782064
 21
35.387067
 31
0.0
  0
TEXT
  5
528
100
AcDbEntity
  8
TABELLA
  6
CONTINUOUS
100
AcDbText
 10
197.026704
 20
14.685191
 30
0.0
 40
4.0
  1
A
100
AcDbText
  0
LINE
  5
529
100
AcDbEntity
  8
TABELLA
  6
CONTINUOUS
100
AcDbLine
 10
195.782064
 20
36.262067
 30
0.0
 11
200.782064
 21
36.262067
 31
0.0
  0
TEXT
  5
52A
100
AcDbEntity
  8
TABELLA
  6
CONTINUOUS
100
AcDbText
 10
195.209894
 20
130.984517
 30
0.0
 40
2.0
  1
Data
 50
90.0
100
AcDbText
  0
TEXT
  5
52B
100
AcDbEntity
  8
TABELLA
  6
CONTINUOUS
100
AcDbText
 10
195.209894
 20
56.278486
 30
0.0
 40
2.0
  1
Nota di revisione
 50
90.0
100
AcDbText
  0
LINE
  5
52C
100
AcDbEntity
  8
TABELLA
  6
CONTINUOUS
100
AcDbLine
 10
191.781227
 20
55.387241
 30
0.0
 11
195.782064
 21
55.387241
 31
0.0
  0
LINE
  5
52D
100
AcDbEntity
  8
TABELLA
  6
CONTINUOUS
100
AcDbLine
 10
191.781227
 20
130.387241
 30
0.0
 11
195.782064
 21
130.387241
 31
0.0
  0
LINE
  5
52E
100
AcDbEntity
  8
TABELLA
  6
CONTINUOUS
100
AcDbLine
 10
195.782064
 20
72.137067
 30
0.0
 11
200.782064
 21
72.137067
 31
0.0
  0
TEXT
  5
52F
100
AcDbEntity
  8
TABELLA
  6
CONTINUOUS
100
AcDbText
 10
197.442859
 20
87.459725
 30
0.0
 40
4.0
  1
C
100
AcDbText
  0
LINE
  5
530
100
AcDbEntity
  8
TABELLA
  6
CONTINUOUS
100
AcDbLine
 10
195.782064
 20
108.012067
 30
0.0
 11
200.782064
 21
108.012067
 31
0.0
  0
TEXT
  5
531
100
AcDbEntity
  8
TABELLA
  6
CONTINUOUS
100
AcDbText
 10
197.442859
 20
123.618776
 30
0.0
 40
4.0
  1
D
100
AcDbText
  0
TEXT
  5
532
100
AcDbEntity
  8
TABELLA
  6
CONTINUOUS
100
AcDbText
 10
116.708835
 20
283.250638
 30
0.0
 40
4.0
  1
3
100
AcDbText
  0
LINE
  5
533
100
AcDbEntity
  8
TABELLA
  6
CONTINUOUS
100
AcDbLine
 10
134.114064
 20
282.387067
 30
0.0
 11
134.114064
 21
287.387067
 31
0.0
  0
TEXT
  5
534
100
AcDbEntity
  8
TABELLA
  6
CONTINUOUS
100
AcDbText
 10
150.417372
 20
283.250638
 30
0.0
 40
4.0
  1
2
100
AcDbText
  0
TEXT
  5
535
100
AcDbEntity
  8
TABELLA
  6
CONTINUOUS
100
AcDbText
 10
197.026704
 20
230.800736
 30
0.0
 40
4.0
  1
G
100
AcDbText
  0
TEXT
  5
536
100
AcDbEntity
  8
TABELLA
  6
CONTINUOUS
100
AcDbText
 10
195.209894
 20
155.7956
 30
0.0
 40
2.0
  1
Control.
 50
90.0
100
AcDbText
  0
TEXT
  5
537
100
AcDbEntity
  8
TABELLA
  6
CONTINUOUS
100
AcDbText
 10
195.209894
 20
146.028502
 30
0.0
 40
2.0
  1
Firma
 50
90.0
100
AcDbText
  0
LINE
  5
538
100
AcDbEntity
  8
TABELLA
  6
CONTINUOUS
100
AcDbLine
 10
191.781227
 20
145.387241
 30
0.0
 11
195.782064
 21
145.387241
 31
0.0
  0
LINE
  5
539
100
AcDbEntity
  8
TABELLA
  6
CONTINUOUS
100
AcDbLine
 10
191.781227
 20
155.387241
 30
0.0
 11
195.782064
 21
155.387241
 31
0.0
  0
LINE
  5
53A
100
AcDbEntity
  8
TABELLA
  6
CONTINUOUS
100
AcDbLine
 10
191.781227
 20
165.387241
 30
0.0
 11
195.782064
 21
165.387241
 31
0.0
  0
LINE
  5
53B
100
AcDbEntity
  8
TABELLA
  6
CONTINUOUS
100
AcDbLine
 10
195.782064
 20
143.887067
 30
0.0
 11
200.782064
 21
146.387067
 31
0.0
  0
LINE
  5
53C
100
AcDbEntity
  8
TABELLA
  6
CONTINUOUS
100
AcDbLine
 10
195.782064
 20
143.887067
 30
0.0
 11
200.782064
 21
143.887067
 31
0.0
  0
LINE
  5
53D
100
AcDbEntity
  8
TABELLA
  6
CONTINUOUS
100
AcDbLine
 10
200.782064
 20
143.887067
 30
0.0
 11
200.782064
 21
146.387067
 31
0.0
  0
TEXT
  5
53E
100
AcDbEntity
  8
TABELLA
  6
CONTINUOUS
100
AcDbText
 10
197.442859
 20
158.319393
 30
0.0
 40
4.0
  1
E
100
AcDbText
  0
LINE
  5
53F
100
AcDbEntity
  8
TABELLA
  6
CONTINUOUS
100
AcDbLine
 10
195.782064
 20
179.762067
 30
0.0
 11
200.782064
 21
179.762067
 31
0.0
  0
TEXT
  5
540
100
AcDbEntity
  8
TABELLA
  6
CONTINUOUS
100
AcDbText
 10
197.859013
 20
195.309687
 30
0.0
 40
4.0
  1
F
100
AcDbText
  0
LINE
  5
541
100
AcDbEntity
  8
TABELLA
  6
CONTINUOUS
100
AcDbLine
 10
195.782064
 20
215.637067
 30
0.0
 11
200.782064
 21
215.637067
 31
0.0
  0
LINE
  5
542
100
AcDbEntity
  8
TABELLA
  6
CONTINUOUS
100
AcDbLine
 10
167.447064
 20
282.387067
 30
0.0
 11
167.447064
 21
287.387067
 31
0.0
  0
TEXT
  5
543
100
AcDbEntity
  8
TABELLA
  6
CONTINUOUS
100
AcDbText
 10
184.958217
 20
283.250638
 30
0.0
 40
4.0
  1
1
100
AcDbText
  0
LINE
  5
544
100
AcDbEntity
  8
TABELLA
  6
CONTINUOUS
100
AcDbLine
 10
195.782064
 20
282.387067
 30
0.0
 11
195.782064
 21
278.387067
 31
0.0
  0
LINE
  5
545
100
AcDbEntity
  8
TABELLA
  6
CONTINUOUS
100
AcDbLine
 10
195.782064
 20
251.512067
 30
0.0
 11
200.782064
 21
251.512067
 31
0.0
  0
TEXT
  5
546
100
AcDbEntity
  8
TABELLA
  6
CONTINUOUS
100
AcDbText
 10
197.026704
 20
268.206651
 30
0.0
 40
4.0
  1
H
100
AcDbText
  0
ENDBLK
  5
548
100
AcDbEntity
  8
QUOTE
100
AcDbBlockEnd
  0
BLOCK
  5
660
100
AcDbEntity
  8
DISEGNO
100
AcDbBlockBegin
  2
A$C350
 70
     0
 10
0.0
 20
0.0
 30
0.0
  3
A$C350
  1

  0
LINE
  5
62C
100
AcDbEntity
  8
DISEGNO
100
AcDbLine
 10
8.0579
 20
17.260118
 30
0.0
 11
8.0579
 21
20.260118
 31
0.0
  0
LINE
  5
62D
100
AcDbEntity
  8
DISEGNO
100
AcDbLine
 10
16.0579
 20
17.260118
 30
0.0
 11
8.0579
 21
17.260118
 31
0.0
  0
LINE
  5
62E
100
AcDbEntity
  8
DISEGNO
100
AcDbLine
 10
16.0579
 20
20.260118
 30
0.0
 11
16.0579
 21
17.260118
 31
0.0
  0
LINE
  5
62F
100
AcDbEntity
  8
DISEGNO
100
AcDbLine
 10
8.0579
 20
20.260118
 30
0.0
 11
16.0579
 21
20.260118
 31
0.0
  0
LINE
  5
630
100
AcDbEntity
  8
DISEGNO
100
AcDbLine
 10
50.0579
 20
0.260118
 30
0.0
 11
50.0579
 21
24.260118
 31
0.0
  0
LINE
  5
631
100
AcDbEntity
  8
DISEGNO
100
AcDbLine
 10
0.0579
 20
0.260118
 30
0.0
 11
0.0579
 21
24.260118
 31
0.0
  0
LINE
  5
632
100
AcDbEntity
  8
DISEGNO
100
AcDbLine
 10
0.0579
 20
24.260118
 30
0.0
 11
50.0579
 21
24.260118
 31
0.0
  0
LINE
  5
633
100
AcDbEntity
  8
DISEGNO
100
AcDbLine
 10
0.0579
 20
9.260118
 30
0.0
 11
50.0579
 21
9.260118
 31
0.0
  0
LINE
  5
634
100
AcDbEntity
  8
DISEGNO
100
AcDbLine
 10
0.0579
 20
6.260118
 30
0.0
 11
50.0579
 21
6.260118
 31
0.0
  0
LINE
  5
635
100
AcDbEntity
  8
DISEGNO
100
AcDbLine
 10
0.0579
 20
0.260118
 30
0.0
 11
50.0579
 21
0.260118
 31
0.0
  0
ARC
  5
636
100
AcDbEntity
  8
DISEGNO
100
AcDbCircle
 10
100.198804
 20
122.244193
 30
0.0
 40
1.0
100
AcDbArc
 50
195.0
 51
345.0
1001
ACAD
1000
ASC_BOUNDS
1002
{
1070
    19
1005
0
1002
}
  0
LINE
  5
637
100
AcDbEntity
  8
ASSI
100
AcDbLine
 10
100.198804
 20
65.964984
 30
0.0
 11
100.198804
 21
18.126553
 31
0.0
  0
LINE
  5
638
100
AcDbEntity
  8
ASSI
100
AcDbLine
 10
100.198804
 20
11.442606
 30
0.0
 11
100.198804
 21
10.119892
 31
0.0
  0
ARC
  5
639
100
AcDbEntity
  8
DISEGNO
100
AcDbCircle
 10
105.966131
 20
136.040743
 30
0.0
 40
1.0
100
AcDbArc
 50
90.0
 51
165.0
1001
ACAD
1000
ASC_BOUNDS
1002
{
1070
    19
1005
0
1002
}
  0
ARC
  5
63A
100
AcDbEntity
  8
DISEGNO
100
AcDbCircle
 10
94.431477
 20
136.040743
 30
0.0
 40
1.0
100
AcDbArc
 50
15.0
 51
90.0
1001
ACAD
1000
ASC_BOUNDS
1002
{
1070
    19
1005
0
1002
}
  0
LINE
  5
63B
100
AcDbEntity
  8
DISEGNO
100
AcDbLine
 10
111.698804
 20
82.040743
 30
0.0
 11
112.698804
 21
81.040743
 31
0.0
1001
ACAD
1000
ASC_BOUNDS
1002
{
1070
    19
1002
}
  0
LINE
  5
63C
100
AcDbEntity
  8
DISEGNO
100
AcDbLine
 10
87.698804
 20
81.040743
 30
0.0
 11
88.698804
 21
82.040743
 31
0.0
  0
LINE
  5
63D
100
AcDbEntity
  8
ASSI
100
AcDbLine
 10
100.198804
 20
152.302677
 30
0.0
 11
100.198804
 21
149.197785
 31
0.0
  0
LINE
  5
63E
100
AcDbEntity
  8
DISEGNO
100
AcDbLine
 10
105.966131
 20
137.040743
 30
0.0
 11
109.198804
 21
137.040743
 31
0.0
1001
ACAD
1000
ASC_BOUNDS
1002
{
1070
    19
1005
0
1002
}
  0
LINE
  5
63F
100
AcDbEntity
  8
DISEGNO
100
AcDbLine
 10
95.397403
 20
136.299563
 30
0.0
 11
99.232878
 21
121.985374
 31
0.0
1001
ACAD
1000
ASC_BOUNDS
1002
{
1070
    19
1005
0
1002
}
  0
LINE
  5
640
100
AcDbEntity
  8
DISEGNO
100
AcDbLine
 10
105.000205
 20
136.299563
 30
0.0
 11
101.16473
 21
121.985374
 31
0.0
1001
ACAD
1000
ASC_BOUNDS
1002
{
1070
    19
1005
0
1002
}
  0
LINE
  5
641
100
AcDbEntity
  8
DISEGNO
100
AcDbLine
 10
91.198804
 20
137.040743
 30
0.0
 11
94.431477
 21
137.040743
 31
0.0
1001
ACAD
1000
ASC_BOUNDS
1002
{
1070
    19
1005
0
1002
}
  0
LINE
  5
642
100
AcDbEntity
  8
DISEGNO
100
AcDbLine
 10
90.198804
 20
82.040743
 30
0.0
 11
88.698804
 21
82.040743
 31
0.0
  0
LINE
  5
643
100
AcDbEntity
  8
DISEGNO
100
AcDbLine
 10
87.698804
 20
81.040743
 30
0.0
 11
87.698804
 21
76.540743
 31
0.0
1001
ACAD
1000
ASC_BOUNDS
1002
{
1070
    19
1002
}
  0
LINE
  5
644
100
AcDbEntity
  8
DISEGNO
100
AcDbLine
 10
110.198804
 20
82.040743
 30
0.0
 11
110.198804
 21
136.040743
 31
0.0
1001
ACAD
1000
ASC_BOUNDS
1002
{
1070
    19
1005
0
1002
}
  0
LINE
  5
645
100
AcDbEntity
  8
DISEGNO
100
AcDbLine
 10
111.698804
 20
82.040743
 30
0.0
 11
110.198804
 21
82.040743
 31
0.0
  0
LINE
  5
646
100
AcDbEntity
  8
DISEGNO
100
AcDbLine
 10
109.198804
 20
137.040743
 30
0.0
 11
110.198804
 21
136.040743
 31
0.0
1001
ACAD
1000
ASC_BOUNDS
1002
{
1070
    19
1005
0
1002
}
  0
LINE
  5
647
100
AcDbEntity
  8
DISEGNO
100
AcDbLine
 10
90.198804
 20
136.040743
 30
0.0
 11
91.198804
 21
137.040743
 31
0.0
1001
ACAD
1000
ASC_BOUNDS
1002
{
1070
    19
1005
0
1002
}
  0
LINE
  5
648
100
AcDbEntity
  8
DISEGNO
100
AcDbLine
 10
87.698804
 20
68.040743
 30
0.0
 11
88.698804
 21
67.040743
 31
0.0
  0
LINE
  5
649
100
AcDbEntity
  8
DISEGNO
100
AcDbLine
 10
111.698804
 20
67.040743
 30
0.0
 11
112.698804
 21
68.040743
 31
0.0
  0
LINE
  5
64A
100
AcDbEntity
  8
DISEGNO
100
AcDbLine
 10
105.698804
 20
47.040743
 30
0.0
 11
106.698804
 21
48.040743
 31
0.0
  0
LINE
  5
64B
100
AcDbEntity
  8
DISEGNO
100
AcDbLine
 10
93.698804
 20
48.040743
 30
0.0
 11
94.698804
 21
47.040743
 31
0.0
  0
LINE
  5
64C
100
AcDbEntity
  8
ASSI
100
AcDbLine
 10
75.396992
 20
75.040743
 30
0.0
 11
74.902374
 21
75.040743
 31
0.0
  0
LINE
  5
64D
100
AcDbEntity
  8
DISEGNO
100
AcDbLine
 10
87.698804
 20
73.540743
 30
0.0
 11
87.698804
 21
68.040743
 31
0.0
  0
LINE
  5
64E
100
AcDbEntity
  8
DISEGNO
100
AcDbLine
 10
87.698804
 20
73.540743
 30
0.0
 11
89.198804
 21
75.040743
 31
0.0
  0
LINE
  5
64F
100
AcDbEntity
  8
DISEGNO
100
AcDbLine
 10
87.698804
 20
76.540743
 30
0.0
 11
89.198804
 21
75.040743
 31
0.0
  0
LINE
  5
650
100
AcDbEntity
  8
ASSI
100
AcDbLine
 10
94.698804
 20
75.040743
 30
0.0
 11
79.697732
 21
75.040743
 31
0.0
  0
LINE
  5
651
100
AcDbEntity
  8
DISEGNO
100
AcDbLine
 10
105.638144
 20
66.68719
 30
0.0
 11
107.052358
 21
68.101404
 31
0.0
  0
LINE
  5
652
100
AcDbEntity
  8
DISEGNO
100
AcDbLine
 10
108.113018
 20
67.040743
 30
0.0
 11
107.052358
 21
68.101404
 31
0.0
  0
LINE
  5
653
100
AcDbEntity
  8
DISEGNO
100
AcDbLine
 10
106.698804
 20
65.62653
 30
0.0
 11
105.638144
 21
66.68719
 31
0.0
  0
LINE
  5
654
100
AcDbEntity
  8
DISEGNO
100
AcDbLine
 10
94.759464
 20
66.68719
 30
0.0
 11
93.345251
 21
68.101404
 31
0.0
  0
LINE
  5
655
100
AcDbEntity
  8
DISEGNO
100
AcDbLine
 10
93.698804
 20
65.62653
 30
0.0
 11
94.759464
 21
66.68719
 31
0.0
  0
LINE
  5
656
100
AcDbEntity
  8
DISEGNO
100
AcDbLine
 10
92.284591
 20
67.040743
 30
0.0
 11
93.345251
 21
68.101404
 31
0.0
  0
LINE
  5
657
100
AcDbEntity
  8
ASSI
100
AcDbLine
 10
100.198804
 20
141.638559
 30
0.0
 11
100.198804
 21
74.55863
 31
0.0
  0
LINE
  5
658
100
AcDbEntity
  8
DISEGNO
100
AcDbLine
 10
93.698804
 20
65.62653
 30
0.0
 11
93.698804
 21
48.040743
 31
0.0
  0
LINE
  5
659
100
AcDbEntity
  8
DISEGNO
100
AcDbLine
 10
88.698804
 20
67.040743
 30
0.0
 11
92.284591
 21
67.040743
 31
0.0
  0
LINE
  5
65A
100
AcDbEntity
  8
DISEGNO
100
AcDbLine
 10
90.198804
 20
136.040743
 30
0.0
 11
90.198804
 21
82.040743
 31
0.0
1001
ACAD
1000
ASC_BOUNDS
1002
{
1070
    19
1005
0
1002
}
  0
LINE
  5
65B
100
AcDbEntity
  8
DISEGNO
100
AcDbLine
 10
112.698804
 20
68.040743
 30
0.0
 11
112.698804
 21
81.040743
 31
0.0
1001
ACAD
1000
ASC_BOUNDS
1002
{
1070
    19
1002
}
  0
LINE
  5
65C
100
AcDbEntity
  8
DISEGNO
100
AcDbLine
 10
108.113018
 20
67.040743
 30
0.0
 11
111.698804
 21
67.040743
 31
0.0
  0
LINE
  5
65D
100
AcDbEntity
  8
DISEGNO
100
AcDbLine
 10
106.698804
 20
48.040743
 30
0.0
 11
106.698804
 21
65.62653
 31
0.0
  0
LINE
  5
65E
100
AcDbEntity
  8
DISEGNO
100
AcDbLine
 10
94.698804
 20
47.040743
 30
0.0
 11
105.698804
 21
47.040743
 31
0.0
  0
LINE
  5
65F
100
AcDbEntity
  8
ASSI
100
AcDbLine
 10
100.198804
 20
165.803287
 30
0.0
 11
100.198804
 21
159.62319
 31
0.0
  0
ENDBLK
  5
661
100
AcDbEntity
  8
DISEGNO
100
AcDbBlockEnd
  0
BLOCK
  5
756
100
AcDbEntity
  8
0
100
AcDbBlockBegin
  2
*D3
 70
    65
 10
0.0
 20
0.0
 30
0.0
  3
*D3
  1

  0
LINE
  5
757
100
AcDbEntity
  8
0
  6
BYBLOCK
 62
     0
100
AcDbLine
 10
-1806.221673
 20
-1524.645768
 30
0.0
 11
-1806.221673
 21
-1543.249355
 31
0.0
  0
LINE
  5
758
100
AcDbEntity
  8
0
  6
BYBLOCK
 62
     0
100
AcDbLine
 10
-1819.221673
 20
-1524.645768
 30
0.0
 11
-1819.221673
 21
-1543.249355
 31
0.0
  0
LINE
  5
759
100
AcDbEntity
  8
0
  6
BYBLOCK
 62
     0
100
AcDbLine
 10
-1816.721673
 20
-1541.999355
 30
0.0
 11
-1808.721673
 21
-1541.999355
 31
0.0
  0
LINE
  5
75A
100
AcDbEntity
  8
0
  6
BYBLOCK
 62
     0
100
AcDbLine
 10
-1806.221673
 20
-1541.999355
 30
0.0
 11
-1782.94112
 21
-1541.999355
 31
0.0
  0
SOLID
  5
75B
100
AcDbEntity
  8
0
  6
BYBLOCK
 62
     0
100
AcDbTrace
 10
-1816.721673
 20
-1541.582689
 30
0.0
 11
-1816.721673
 21
-1542.416022
 31
0.0
 12
-1819.221673
 22
-1541.999355
 32
0.0
 13
-1819.221673
 23
-1541.999355
 33
0.0
  0
SOLID
  5
75C
100
AcDbEntity
  8
0
  6
BYBLOCK
 62
     0
100
AcDbTrace
 10
-1808.721673
 20
-1541.582689
 30
0.0
 11
-1808.721673
 21
-1542.416022
 31
0.0
 12
-1806.221673
 22
-1541.999355
 32
0.0
 13
-1806.221673
 23
-1541.999355
 33
0.0
  0
MTEXT
  5
75D
100
AcDbEntity
  8
0
  6
BYBLOCK
 62
     0
100
AcDbMText
 10
-1789.88012
 20
-1539.624355
 30
0.0
 40
3.5
 41
0.0
 71
     5
 72
     1
  1
\A2;13{\H2.800000;±0.01}
  0
POINT
  5
75E
100
AcDbEntity
  8
DEFPOINTS
  6
BYBLOCK
 62
     0
100
AcDbPoint
 10
-1806.221673
 20
-1524.020768
 30
0.0
  0
POINT
  5
75F
100
AcDbEntity
  8
DEFPOINTS
  6
BYBLOCK
 62
     0
100
AcDbPoint
 10
-1819.221673
 20
-1524.020768
 30
0.0
  0
POINT
  5
760
100
AcDbEntity
  8
DEFPOINTS
  6
BYBLOCK
 62
     0
100
AcDbPoint
 10
-1819.221673
 20
-1541.999355
 30
0.0
  0
ENDBLK
  5
761
100
AcDbEntity
  8
0
100
AcDbBlockEnd
  0
BLOCK
  5
1DD3
100
AcDbEntity
  8
0
100
AcDbBlockBegin
  2
*D4
 70
    65
 10
0.0
 20
0.0
 30
0.0
  3
*D4
  1

  0
LINE
  5
1DD4
100
AcDbEntity
  8
0
  6
BYBLOCK
 62
     0
100
AcDbLine
 10
-1800.221673
 20
-1504.645768
 30
0.0
 11
-1800.221673
 21
-1559.968972
 31
0.0
  0
LINE
  5
1DD5
100
AcDbEntity
  8
0
  6
BYBLOCK
 62
     0
100
AcDbLine
 10
-1825.221673
 20
-1504.645768
 30
0.0
 11
-1825.221673
 21
-1559.968972
 31
0.0
  0
LINE
  5
1DD6
100
AcDbEntity
  8
0
  6
BYBLOCK
 62
     0
100
AcDbLine
 10
-1802.721673
 20
-1558.718972
 30
0.0
 11
-1822.721673
 21
-1558.718972
 31
0.0
  0
SOLID
  5
1DD7
100
AcDbEntity
  8
0
  6
BYBLOCK
 62
     0
100
AcDbTrace
 10
-1802.721673
 20
-1558.302306
 30
0.0
 11
-1802.721673
 21
-1559.135639
 31
0.0
 12
-1800.221673
 22
-1558.718972
 32
0.0
 13
-1800.221673
 23
-1558.718972
 33
0.0
  0
SOLID
  5
1DD8
100
AcDbEntity
  8
0
  6
BYBLOCK
 62
     0
100
AcDbTrace
 10
-1822.721673
 20
-1558.302306
 30
0.0
 11
-1822.721673
 21
-1559.135639
 31
0.0
 12
-1825.221673
 22
-1558.718972
 32
0.0
 13
-1825.221673
 23
-1558.718972
 33
0.0
  0
MTEXT
  5
1DD9
100
AcDbEntity
  8
0
  6
BYBLOCK
 62
     0
100
AcDbMText
 10
-1812.721673
 20
-1556.343972
 30
0.0
 40
3.5
 41
0.0
 71
     5
 72
     1
  1
\A2;25{\H2.800000;±0.05}
  0
POINT
  5
1DDA
100
AcDbEntity
  8
DEFPOINTS
  6
BYBLOCK
 62
     0
100
AcDbPoint
 10
-1800.221673
 20
-1504.020768
 30
0.0
  0
POINT
  5
1DDB
100
AcDbEntity
  8
DEFPOINTS
  6
BYBLOCK
 62
     0
100
AcDbPoint
 10
-1825.221673
 20
-1504.020768
 30
0.0
  0
POINT
  5
1DDC
100
AcDbEntity
  8
DEFPOINTS
  6
BYBLOCK
 62
     0
100
AcDbPoint
 10
-1825.221673
 20
-1558.718972
 30
0.0
  0
ENDBLK
  5
1DDD
100
AcDbEntity
  8
0
100
AcDbBlockEnd
  0
BLOCK
  5
6D0
100
AcDbEntity
  8
0
100
AcDbBlockBegin
  2
*D5
 70
    65
 10
0.0
 20
0.0
 30
0.0
  3
*D5
  1

  0
LINE
  5
6D1
100
AcDbEntity
  8
0
  6
BYBLOCK
 62
     0
100
AcDbLine
 10
-1800.596673
 20
-1505.020768
 30
0.0
 11
-1782.599478
 21
-1505.020768
 31
0.0
  0
LINE
  5
6D2
100
AcDbEntity
  8
0
  6
BYBLOCK
 62
     0
100
AcDbLine
 10
-1806.596673
 20
-1525.020768
 30
0.0
 11
-1782.599478
 21
-1525.020768
 31
0.0
  0
LINE
  5
6D3
100
AcDbEntity
  8
0
  6
BYBLOCK
 62
     0
100
AcDbLine
 10
-1783.849478
 20
-1507.520768
 30
0.0
 11
-1783.849478
 21
-1522.520768
 31
0.0
  0
SOLID
  5
6D4
100
AcDbEntity
  8
0
  6
BYBLOCK
 62
     0
100
AcDbTrace
 10
-1784.266144
 20
-1507.520768
 30
0.0
 11
-1783.432811
 21
-1507.520768
 31
0.0
 12
-1783.849478
 22
-1505.020768
 32
0.0
 13
-1783.849478
 23
-1505.020768
 33
0.0
  0
SOLID
  5
6D5
100
AcDbEntity
  8
0
  6
BYBLOCK
 62
     0
100
AcDbTrace
 10
-1784.266144
 20
-1522.520768
 30
0.0
 11
-1783.432811
 21
-1522.520768
 31
0.0
 12
-1783.849478
 22
-1525.020768
 32
0.0
 13
-1783.849478
 23
-1525.020768
 33
0.0
  0
MTEXT
  5
6D6
100
AcDbEntity
  8
0
  6
BYBLOCK
 62
     0
100
AcDbMText
 10
-1786.224478
 20
-1515.020768
 30
0.0
 40
3.5
 41
0.0
 71
     5
 72
     1
  1
\A1;20
 11
0.0
 21
1.0
 31
0.0
  0
POINT
  5
6D7
100
AcDbEntity
  8
DEFPOINTS
  6
BYBLOCK
 62
     0
100
AcDbPoint
 10
-1801.221673
 20
-1505.020768
 30
0.0
  0
POINT
  5
6D8
100
AcDbEntity
  8
DEFPOINTS
  6
BYBLOCK
 62
     0
100
AcDbPoint
 10
-1807.221673
 20
-1525.020768
 30
0.0
  0
POINT
  5
6D9
100
AcDbEntity
  8
DEFPOINTS
  6
BYBLOCK
 62
     0
100
AcDbPoint
 10
-1783.849478
 20
-1525.020768
 30
0.0
  0
ENDBLK
  5
6DA
100
AcDbEntity
  8
0
100
AcDbBlockEnd
  0
BLOCK
  5
724
100
AcDbEntity
  8
0
100
AcDbBlockBegin
  2
*D6
 70
    65
 10
0.0
 20
0.0
 30
0.0
  3
*D6
  1

  0
LINE
  5
725
100
AcDbEntity
  8
0
  6
BYBLOCK
 62
     0
100
AcDbLine
 10
-1820.193945
 20
-1505.462709
 30
0.0
 11
-1819.425308
 21
-1506.231347
 31
0.0
  0
LINE
  5
726
100
AcDbEntity
  8
0
  6
BYBLOCK
 62
     0
100
AcDbLine
 10
-1819.133285
 20
-1504.402049
 30
0.0
 11
-1818.364648
 21
-1505.170687
 31
0.0
  0
LINE
  5
727
100
AcDbEntity
  8
0
  6
BYBLOCK
 62
     0
100
AcDbLine
 10
-1822.076958
 20
-1507.11523
 30
0.0
 11
-1823.844725
 21
-1508.882997
 31
0.0
  0
LINE
  5
728
100
AcDbEntity
  8
0
  6
BYBLOCK
 62
     0
100
AcDbLine
 10
-1817.480764
 20
-1502.519036
 30
0.0
 11
-1811.449516
 21
-1496.487789
 31
0.0
  0
SOLID
  5
729
100
AcDbEntity
  8
0
  6
BYBLOCK
 62
     0
100
AcDbTrace
 10
-1822.371586
 20
-1506.820602
 30
0.0
 11
-1821.78233
 21
-1507.409858
 31
0.0
 12
-1820.309191
 22
-1505.347463
 32
0.0
 13
-1820.309191
 23
-1505.347463
 33
0.0
  0
SOLID
  5
72A
100
AcDbEntity
  8
0
  6
BYBLOCK
 62
     0
100
AcDbTrace
 10
-1817.775392
 20
-1502.224408
 30
0.0
 11
-1817.186136
 21
-1502.813664
 31
0.0
 12
-1819.248531
 22
-1504.286803
 32
0.0
 13
-1819.248531
 23
-1504.286803
 33
0.0
  0
MTEXT
  5
72B
100
AcDbEntity
  8
0
  6
BYBLOCK
 62
     0
100
AcDbMText
 10
-1815.260635
 20
-1496.94015
 30
0.0
 40
3.5
 41
0.0
 71
     5
 72
     1
  1
\A1;1.5
 11
0.707107
 21
0.707107
 31
0.0
  0
POINT
  5
72C
100
AcDbEntity
  8
DEFPOINTS
  6
BYBLOCK
 62
     0
100
AcDbPoint
 10
-1820.635887
 20
-1505.020768
 30
0.0
  0
POINT
  5
72D
100
AcDbEntity
  8
DEFPOINTS
  6
BYBLOCK
 62
     0
100
AcDbPoint
 10
-1819.575227
 20
-1503.960107
 30
0.0
  0
POINT
  5
72E
100
AcDbEntity
  8
DEFPOINTS
  6
BYBLOCK
 62
     0
100
AcDbPoint
 10
-1819.248531
 20
-1504.286803
 30
0.0
  0
ENDBLK
  5
72F
100
AcDbEntity
  8
0
100
AcDbBlockEnd
  0
BLOCK
  5
732
100
AcDbEntity
  8
0
100
AcDbBlockBegin
  2
*D7
 70
    65
 10
0.0
 20
0.0
 30
0.0
  3
*D7
  1

  0
LINE
  5
733
100
AcDbEntity
  8
0
  6
BYBLOCK
 62
     0
100
AcDbLine
 10
-1807.724275
 20
-1504.932379
 30
0.0
 11
-1809.499717
 21
-1503.156938
 31
0.0
  0
LINE
  5
734
100
AcDbEntity
  8
0
  6
BYBLOCK
 62
     0
100
AcDbLine
 10
-1806.310062
 20
-1503.518166
 30
0.0
 11
-1808.085503
 21
-1501.742724
 31
0.0
  0
LINE
  5
735
100
AcDbEntity
  8
0
  6
BYBLOCK
 62
     0
100
AcDbLine
 10
-1810.3836
 20
-1505.808588
 30
0.0
 11
-1812.151367
 21
-1507.576355
 31
0.0
  0
LINE
  5
736
100
AcDbEntity
  8
0
  6
BYBLOCK
 62
     0
100
AcDbLine
 10
-1805.433853
 20
-1500.858841
 30
0.0
 11
-1801.460625
 21
-1496.885613
 31
0.0
  0
SOLID
  5
737
100
AcDbEntity
  8
0
  6
BYBLOCK
 62
     0
100
AcDbTrace
 10
-1810.678228
 20
-1505.51396
 30
0.0
 11
-1810.088972
 21
-1506.103216
 31
0.0
 12
-1808.615833
 22
-1504.040821
 32
0.0
 13
-1808.615833
 23
-1504.040821
 33
0.0
  0
SOLID
  5
738
100
AcDbEntity
  8
0
  6
BYBLOCK
 62
     0
100
AcDbTrace
 10
-1805.728481
 20
-1500.564213
 30
0.0
 11
-1805.139225
 21
-1501.153468
 31
0.0
 12
-1807.20162
 22
-1502.626608
 32
0.0
 13
-1807.20162
 23
-1502.626608
 33
0.0
  0
MTEXT
  5
739
100
AcDbEntity
  8
0
  6
BYBLOCK
 62
     0
100
AcDbMText
 10
-1804.242977
 20
-1496.308721
 30
0.0
 40
3.5
 41
0.0
 71
     5
 72
     1
  1
\A1;2
 11
0.707107
 21
0.707107
 31
0.0
  0
POINT
  5
73A
100
AcDbEntity
  8
DEFPOINTS
  6
BYBLOCK
 62
     0
100
AcDbPoint
 10
-1807.282333
 20
-1505.374321
 30
0.0
  0
POINT
  5
73B
100
AcDbEntity
  8
DEFPOINTS
  6
BYBLOCK
 62
     0
100
AcDbPoint
 10
-1805.86812
 20
-1503.960107
 30
0.0
  0
POINT
  5
73C
100
AcDbEntity
  8
DEFPOINTS
  6
BYBLOCK
 62
     0
100
AcDbPoint
 10
-1807.20162
 20
-1502.626608
 30
0.0
  0
ENDBLK
  5
73D
100
AcDbEntity
  8
0
100
AcDbBlockEnd
  0
BLOCK
  5
7FC
100
AcDbEntity
  8
0
100
AcDbBlockBegin
  2
*D8
 70
    65
 10
0.0
 20
0.0
 30
0.0
  3
*D8
  1

  0
LINE
  5
7FD
100
AcDbEntity
  8
0
  6
BYBLOCK
 62
     0
100
AcDbLine
 10
-1862.862577
 20
-1572.426394
 30
0.0
 11
-1862.862577
 21
-1584.164194
 31
0.0
  0
LINE
  5
7FE
100
AcDbEntity
  8
0
  6
BYBLOCK
 62
     0
100
AcDbLine
 10
-1912.862577
 20
-1572.426394
 30
0.0
 11
-1912.862577
 21
-1584.164194
 31
0.0
  0
LINE
  5
7FF
100
AcDbEntity
  8
0
  6
BYBLOCK
 62
     0
100
AcDbLine
 10
-1865.362577
 20
-1582.914194
 30
0.0
 11
-1910.362577
 21
-1582.914194
 31
0.0
  0
SOLID
  5
800
100
AcDbEntity
  8
0
  6
BYBLOCK
 62
     0
100
AcDbTrace
 10
-1865.362577
 20
-1582.497527
 30
0.0
 11
-1865.362577
 21
-1583.330861
 31
0.0
 12
-1862.862577
 22
-1582.914194
 32
0.0
 13
-1862.862577
 23
-1582.914194
 33
0.0
  0
SOLID
  5
801
100
AcDbEntity
  8
0
  6
BYBLOCK
 62
     0
100
AcDbTrace
 10
-1910.362577
 20
-1582.497527
 30
0.0
 11
-1910.362577
 21
-1583.330861
 31
0.0
 12
-1912.862577
 22
-1582.914194
 32
0.0
 13
-1912.862577
 23
-1582.914194
 33
0.0
  0
MTEXT
  5
802
100
AcDbEntity
  8
0
  6
BYBLOCK
 62
     0
100
AcDbMText
 10
-1887.862577
 20
-1580.539194
 30
0.0
 40
3.5
 41
0.0
 71
     5
 72
     1
  1
\A1;{1000 +/- 0,1}
  0
POINT
  5
803
100
AcDbEntity
  8
DEFPOINTS
  6
BYBLOCK
 62
     0
100
AcDbPoint
 10
-1862.862577
 20
-1571.801394
 30
0.0
  0
POINT
  5
804
100
AcDbEntity
  8
DEFPOINTS
  6
BYBLOCK
 62
     0
100
AcDbPoint
 10
-1912.862577
 20
-1571.801394
 30
0.0
  0
POINT
  5
805
100
AcDbEntity
  8
DEFPOINTS
  6
BYBLOCK
 62
     0
100
AcDbPoint
 10
-1912.862577
 20
-1582.914194
 30
0.0
  0
ENDBLK
  5
806
100
AcDbEntity
  8
0
100
AcDbBlockEnd
  0
BLOCK
  5
830
100
AcDbEntity
  8
0
100
AcDbBlockBegin
  2
*D9
 70
    65
 10
0.0
 20
0.0
 30
0.0
  3
*D9
  1

  0
LINE
  5
831
100
AcDbEntity
  8
0
  6
BYBLOCK
 62
     0
100
AcDbLine
 10
-1862.237577
 20
-1571.801394
 30
0.0
 11
-1855.846704
 21
-1571.801394
 31
0.0
  0
ARC
  5
832
100
AcDbEntity
  8
0
  6
BYBLOCK
 62
     0
100
AcDbCircle
 10
-1862.862577
 20
-1571.801394
 30
0.0
 40
5.765874
100
AcDbArc
 50
25.041459
 51
64.958541
  0
SOLID
  5
833
100
AcDbEntity
  8
0
  6
BYBLOCK
 62
     0
100
AcDbTrace
 10
-1857.231928
 20
-1569.270519
 30
0.0
 11
-1858.045443
 21
-1569.45118
 31
0.0
 12
-1857.096704
 22
-1571.801394
 32
0.0
 13
-1857.096704
 23
-1571.801394
 33
0.0
  0
SOLID
  5
834
100
AcDbEntity
  8
0
  6
BYBLOCK
 62
     0
100
AcDbTrace
 10
-1860.512363
 20
-1566.984259
 30
0.0
 11
-1860.331703
 21
-1566.170745
 31
0.0
 12
-1862.862577
 22
-1566.03552
 32
0.0
 13
-1862.862577
 23
-1566.03552
 33
0.0
  0
MTEXT
  5
835
100
AcDbEntity
  8
0
  6
BYBLOCK
 62
     0
100
AcDbMText
 10
-1855.78581
 20
-1565.331761
 30
0.0
 40
3.5
 41
0.0
 71
     5
 72
     1
  1
\A2;90°{\H2.800000;\S-0°2'^  0°0';}
 11
0.674738
 21
-0.738058
 31
0.0
  0
POINT
  5
836
100
AcDbEntity
  8
DEFPOINTS
  6
BYBLOCK
 62
     0
100
AcDbPoint
 10
-1859.97964
 20
-1566.808001
 30
0.0
  0
POINT
  5
837
100
AcDbEntity
  8
DEFPOINTS
  6
BYBLOCK
 62
     0
100
AcDbPoint
 10
-1912.862577
 20
-1571.801394
 30
0.0
  0
POINT
  5
838
100
AcDbEntity
  8
DEFPOINTS
  6
BYBLOCK
 62
     0
100
AcDbPoint
 10
-1862.862577
 20
-1571.801394
 30
0.0
  0
POINT
  5
839
100
AcDbEntity
  8
DEFPOINTS
  6
BYBLOCK
 62
     0
100
AcDbPoint
 10
-1862.862577
 20
-1547.801394
 30
0.0
  0
POINT
  5
83A
100
AcDbEntity
  8
DEFPOINTS
  6
BYBLOCK
 62
     0
100
AcDbPoint
 10
-1862.862577
 20
-1571.801394
 30
0.0
  0
ENDBLK
  5
83B
100
AcDbEntity
  8
0
100
AcDbBlockEnd
  0
BLOCK
  5
855
100
AcDbEntity
  8
0
100
AcDbBlockBegin
  2
*D10
 70
    65
 10
0.0
 20
0.0
 30
0.0
  3
*D10
  1

  0
LINE
  5
856
100
AcDbEntity
  8
0
  6
BYBLOCK
 62
     0
100
AcDbLine
 10
-1913.487577
 20
-1571.801394
 30
0.0
 11
-1919.170275
 21
-1571.801394
 31
0.0
  0
ARC
  5
857
100
AcDbEntity
  8
0
  6
BYBLOCK
 62
     0
100
AcDbCircle
 10
-1912.862577
 20
-1571.801394
 30
0.0
 40
5.057697
100
AcDbArc
 50
118.617624
 51
151.382376
  0
SOLID
  5
858
100
AcDbEntity
  8
0
  6
BYBLOCK
 62
     0
100
AcDbTrace
 10
-1915.388
 20
-1566.957825
 30
0.0
 11
-1915.182043
 21
-1567.765307
 31
0.0
 12
-1912.862577
 22
-1566.743696
 32
0.0
 13
-1912.862577
 23
-1566.743696
 33
0.0
  0
SOLID
  5
859
100
AcDbEntity
  8
0
  6
BYBLOCK
 62
     0
100
AcDbTrace
 10
-1916.898664
 20
-1569.481928
 30
0.0
 11
-1917.706145
 21
-1569.275971
 31
0.0
 12
-1917.920275
 22
-1571.801394
 32
0.0
 13
-1917.920275
 23
-1571.801394
 33
0.0
  0
MTEXT
  5
85A
100
AcDbEntity
  8
0
  6
BYBLOCK
 62
     0
100
AcDbMText
 10
-1920.044252
 20
-1566.57824
 30
0.0
 40
3.5
 41
0.0
 71
     5
 72
     1
  1
\A2;90°{\H2.800000;\S-0°2'^  0°0';}
 11
0.58818
 21
0.80873
 31
0.0
  0
POINT
  5
85B
100
AcDbEntity
  8
DEFPOINTS
  6
BYBLOCK
 62
     0
100
AcDbPoint
 10
-1915.391426
 20
-1567.421299
 30
0.0
  0
POINT
  5
85C
100
AcDbEntity
  8
DEFPOINTS
  6
BYBLOCK
 62
     0
100
AcDbPoint
 10
-1912.862577
 20
-1571.801394
 30
0.0
  0
POINT
  5
85D
100
AcDbEntity
  8
DEFPOINTS
  6
BYBLOCK
 62
     0
100
AcDbPoint
 10
-1912.862577
 20
-1571.801394
 30
0.0
  0
POINT
  5
85E
100
AcDbEntity
  8
DEFPOINTS
  6
BYBLOCK
 62
     0
100
AcDbPoint
 10
-1912.862577
 20
-1547.801394
 30
0.0
  0
POINT
  5
85F
100
AcDbEntity
  8
DEFPOINTS
  6
BYBLOCK
 62
     0
100
AcDbPoint
 10
-1862.862577
 20
-1571.801394
 30
0.0
  0
ENDBLK
  5
860
100
AcDbEntity
  8
0
100
AcDbBlockEnd
  0
BLOCK
  5
886
100
AcDbEntity
  8
0
100
AcDbBlockBegin
  2
*D11
 70
    65
 10
0.0
 20
0.0
 30
0.0
  3
*D11
  1

  0
LINE
  5
887
100
AcDbEntity
  8
0
  6
BYBLOCK
 62
     0
100
AcDbLine
 10
-1904.862577
 20
-1551.176394
 30
0.0
 11
-1904.862577
 21
-1537.971706
 31
0.0
  0
LINE
  5
888
100
AcDbEntity
  8
0
  6
BYBLOCK
 62
     0
100
AcDbLine
 10
-1912.862577
 20
-1547.176394
 30
0.0
 11
-1912.862577
 21
-1537.971706
 31
0.0
  0
LINE
  5
889
100
AcDbEntity
  8
0
  6
BYBLOCK
 62
     0
100
AcDbLine
 10
-1902.362577
 20
-1539.221706
 30
0.0
 11
-1899.862577
 21
-1539.221706
 31
0.0
  0
LINE
  5
88A
100
AcDbEntity
  8
0
  6
BYBLOCK
 62
     0
100
AcDbLine
 10
-1915.362577
 20
-1539.221706
 30
0.0
 11
-1917.862577
 21
-1539.221706
 31
0.0
  0
SOLID
  5
88B
100
AcDbEntity
  8
0
  6
BYBLOCK
 62
     0
100
AcDbTrace
 10
-1902.362577
 20
-1538.805039
 30
0.0
 11
-1902.362577
 21
-1539.638373
 31
0.0
 12
-1904.862577
 22
-1539.221706
 32
0.0
 13
-1904.862577
 23
-1539.221706
 33
0.0
  0
SOLID
  5
88C
100
AcDbEntity
  8
0
  6
BYBLOCK
 62
     0
100
AcDbTrace
 10
-1915.362577
 20
-1538.805039
 30
0.0
 11
-1915.362577
 21
-1539.638373
 31
0.0
 12
-1912.862577
 22
-1539.221706
 32
0.0
 13
-1912.862577
 23
-1539.221706
 33
0.0
  0
MTEXT
  5
88D
100
AcDbEntity
  8
0
  6
BYBLOCK
 62
     0
100
AcDbMText
 10
-1908.862577
 20
-1536.846706
 30
0.0
 40
3.5
 41
0.0
 71
     5
 72
     1
  1
\A1;{50}
  0
POINT
  5
88E
100
AcDbEntity
  8
DEFPOINTS
  6
BYBLOCK
 62
     0
100
AcDbPoint
 10
-1904.862577
 20
-1551.801394
 30
0.0
  0
POINT
  5
88F
100
AcDbEntity
  8
DEFPOINTS
  6
BYBLOCK
 62
     0
100
AcDbPoint
 10
-1912.862577
 20
-1547.801394
 30
0.0
  0
POINT
  5
890
100
AcDbEntity
  8
DEFPOINTS
  6
BYBLOCK
 62
     0
100
AcDbPoint
 10
-1912.862577
 20
-1539.221706
 30
0.0
  0
ENDBLK
  5
891
100
AcDbEntity
  8
0
100
AcDbBlockEnd
  0
BLOCK
  5
8B8
100
AcDbEntity
  8
0
100
AcDbBlockBegin
  2
*D12
 70
    65
 10
0.0
 20
0.0
 30
0.0
  3
*D12
  1

  0
LINE
  5
8B9
100
AcDbEntity
  8
0
  6
BYBLOCK
 62
     0
100
AcDbLine
 10
-1896.237577
 20
-1551.801394
 30
0.0
 11
-1883.016989
 21
-1551.801394
 31
0.0
  0
LINE
  5
8BA
100
AcDbEntity
  8
0
  6
BYBLOCK
 62
     0
100
AcDbLine
 10
-1884.281038
 20
-1547.801394
 30
0.0
 11
-1885.516989
 21
-1547.801394
 31
0.0
  0
LINE
  5
8BB
100
AcDbEntity
  8
0
  6
BYBLOCK
 62
     0
100
AcDbLine
 10
-1884.266989
 20
-1554.301394
 30
0.0
 11
-1884.266989
 21
-1556.801394
 31
0.0
  0
LINE
  5
8BC
100
AcDbEntity
  8
0
  6
BYBLOCK
 62
     0
100
AcDbLine
 10
-1884.266989
 20
-1545.301394
 30
0.0
 11
-1884.266989
 21
-1537.310331
 31
0.0
  0
SOLID
  5
8BD
100
AcDbEntity
  8
0
  6
BYBLOCK
 62
     0
100
AcDbTrace
 10
-1884.683656
 20
-1554.301394
 30
0.0
 11
-1883.850323
 21
-1554.301394
 31
0.0
 12
-1884.266989
 22
-1551.801394
 32
0.0
 13
-1884.266989
 23
-1551.801394
 33
0.0
  0
SOLID
  5
8BE
100
AcDbEntity
  8
0
  6
BYBLOCK
 62
     0
100
AcDbTrace
 10
-1884.683656
 20
-1545.301394
 30
0.0
 11
-1883.850323
 21
-1545.301394
 31
0.0
 12
-1884.266989
 22
-1547.801394
 32
0.0
 13
-1884.266989
 23
-1547.801394
 33
0.0
  0
MTEXT
  5
8BF
100
AcDbEntity
  8
0
  6
BYBLOCK
 62
     0
100
AcDbMText
 10
-1886.641989
 20
-1540.055862
 30
0.0
 40
3.5
 41
0.0
 71
     5
 72
     1
  1
\A1;{20}
 11
0.0
 21
1.0
 31
0.0
  0
POINT
  5
8C0
100
AcDbEntity
  8
DEFPOINTS
  6
BYBLOCK
 62
     0
100
AcDbPoint
 10
-1896.862577
 20
-1551.801394
 30
0.0
  0
POINT
  5
8C1
100
AcDbEntity
  8
DEFPOINTS
  6
BYBLOCK
 62
     0
100
AcDbPoint
 10
-1883.656038
 20
-1547.801394
 30
0.0
  0
POINT
  5
8C2
100
AcDbEntity
  8
DEFPOINTS
  6
BYBLOCK
 62
     0
100
AcDbPoint
 10
-1884.266989
 20
-1547.801394
 30
0.0
  0
ENDBLK
  5
8C3
100
AcDbEntity
  8
0
100
AcDbBlockEnd
  0
BLOCK
  5
927
100
AcDbEntity
  8
0
100
AcDbBlockBegin
  2
*D13
 70
    65
 10
0.0
 20
0.0
 30
0.0
  3
*D13
  1

  0
LINE
  5
928
100
AcDbEntity
  8
0
  6
BYBLOCK
 62
     0
100
AcDbLine
 10
-1838.643103
 20
-1497.020768
 30
0.0
 11
-1847.959048
 21
-1497.020768
 31
0.0
  0
LINE
  5
929
100
AcDbEntity
  8
0
  6
BYBLOCK
 62
     0
100
AcDbLine
 10
-1824.846673
 20
-1505.020768
 30
0.0
 11
-1847.959048
 21
-1505.020768
 31
0.0
  0
LINE
  5
92A
100
AcDbEntity
  8
0
  6
BYBLOCK
 62
     0
100
AcDbLine
 10
-1846.709048
 20
-1499.520768
 30
0.0
 11
-1846.709048
 21
-1502.520768
 31
0.0
  0
SOLID
  5
92B
100
AcDbEntity
  8
0
  6
BYBLOCK
 62
     0
100
AcDbTrace
 10
-1847.125715
 20
-1499.520768
 30
0.0
 11
-1846.292381
 21
-1499.520768
 31
0.0
 12
-1846.709048
 22
-1497.020768
 32
0.0
 13
-1846.709048
 23
-1497.020768
 33
0.0
  0
SOLID
  5
92C
100
AcDbEntity
  8
0
  6
BYBLOCK
 62
     0
100
AcDbTrace
 10
-1847.125715
 20
-1502.520768
 30
0.0
 11
-1846.292381
 21
-1502.520768
 31
0.0
 12
-1846.709048
 22
-1505.020768
 32
0.0
 13
-1846.709048
 23
-1505.020768
 33
0.0
  0
MTEXT
  5
92D
100
AcDbEntity
  8
0
  6
BYBLOCK
 62
     0
100
AcDbMText
 10
-1849.084048
 20
-1501.020768
 30
0.0
 40
3.5
 41
0.0
 71
     5
 72
     1
  1
\A1;8
 11
0.0
 21
1.0
 31
0.0
  0
POINT
  5
92E
100
AcDbEntity
  8
DEFPOINTS
  6
BYBLOCK
 62
     0
100
AcDbPoint
 10
-1838.018103
 20
-1497.020768
 30
0.0
  0
POINT
  5
92F
100
AcDbEntity
  8
DEFPOINTS
  6
BYBLOCK
 62
     0
100
AcDbPoint
 10
-1824.221673
 20
-1505.020768
 30
0.0
  0
POINT
  5
930
100
AcDbEntity
  8
DEFPOINTS
  6
BYBLOCK
 62
     0
100
AcDbPoint
 10
-1846.709048
 20
-1505.020768
 30
0.0
  0
ENDBLK
  5
931
100
AcDbEntity
  8
0
100
AcDbBlockEnd
  0
BLOCK
  5
934
100
AcDbEntity
  8
0
100
AcDbBlockBegin
  2
*D14
 70
    65
 10
0.0
 20
0.0
 30
0.0
  3
*D14
  1

  0
LINE
  5
935
100
AcDbEntity
  8
0
  6
BYBLOCK
 62
     0
100
AcDbLine
 10
-1825.846673
 20
-1495.520768
 30
0.0
 11
-1834.059904
 21
-1495.520768
 31
0.0
  0
LINE
  5
936
100
AcDbEntity
  8
0
  6
BYBLOCK
 62
     0
100
AcDbLine
 10
-1825.846673
 20
-1498.520768
 30
0.0
 11
-1834.059904
 21
-1498.520768
 31
0.0
  0
LINE
  5
937
100
AcDbEntity
  8
0
  6
BYBLOCK
 62
     0
100
AcDbLine
 10
-1832.809904
 20
-1493.020768
 30
0.0
 11
-1832.809904
 21
-1490.520768
 31
0.0
  0
LINE
  5
938
100
AcDbEntity
  8
0
  6
BYBLOCK
 62
     0
100
AcDbLine
 10
-1832.809904
 20
-1501.020768
 30
0.0
 11
-1832.809904
 21
-1503.520768
 31
0.0
  0
SOLID
  5
939
100
AcDbEntity
  8
0
  6
BYBLOCK
 62
     0
100
AcDbTrace
 10
-1833.22657
 20
-1493.020768
 30
0.0
 11
-1832.393237
 21
-1493.020768
 31
0.0
 12
-1832.809904
 22
-1495.520768
 32
0.0
 13
-1832.809904
 23
-1495.520768
 33
0.0
  0
SOLID
  5
93A
100
AcDbEntity
  8
0
  6
BYBLOCK
 62
     0
100
AcDbTrace
 10
-1833.22657
 20
-1501.020768
 30
0.0
 11
-1832.393237
 21
-1501.020768
 31
0.0
 12
-1832.809904
 22
-1498.520768
 32
0.0
 13
-1832.809904
 23
-1498.520768
 33
0.0
  0
MTEXT
  5
93B
100
AcDbEntity
  8
0
  6
BYBLOCK
 62
     0
100
AcDbMText
 10
-1835.184904
 20
-1497.020768
 30
0.0
 40
3.5
 41
0.0
 71
     5
 72
     1
  1
\A1;3
 11
0.0
 21
1.0
 31
0.0
  0
POINT
  5
93C
100
AcDbEntity
  8
DEFPOINTS
  6
BYBLOCK
 62
     0
100
AcDbPoint
 10
-1825.221673
 20
-1495.520768
 30
0.0
  0
POINT
  5
93D
100
AcDbEntity
  8
DEFPOINTS
  6
BYBLOCK
 62
     0
100
AcDbPoint
 10
-1825.221673
 20
-1498.520768
 30
0.0
  0
POINT
  5
93E
100
AcDbEntity
  8
DEFPOINTS
  6
BYBLOCK
 62
     0
100
AcDbPoint
 10
-1832.809904
 20
-1498.520768
 30
0.0
  0
ENDBLK
  5
93F
100
AcDbEntity
  8
0
100
AcDbBlockEnd
  0
BLOCK
  5
942
100
AcDbEntity
  8
0
100
AcDbBlockBegin
  2
*D15
 70
    65
 10
0.0
 20
0.0
 30
0.0
  3
*D15
  1

  0
LINE
  5
943
100
AcDbEntity
  8
0
  6
BYBLOCK
 62
     0
100
AcDbLine
 10
-1825.663615
 20
-1495.078826
 30
0.0
 11
-1845.101867
 21
-1475.640574
 31
0.0
  0
LINE
  5
944
100
AcDbEntity
  8
0
  6
BYBLOCK
 62
     0
100
AcDbLine
 10
-1825.663615
 20
-1498.962709
 30
0.0
 11
-1845.101867
 21
-1518.400961
 31
0.0
  0
ARC
  5
945
100
AcDbEntity
  8
0
  6
BYBLOCK
 62
     0
100
AcDbCircle
 10
-1823.721673
 20
-1497.020768
 30
0.0
 40
28.98616
100
AcDbArc
 50
139.943183
 51
220.056817
  0
SOLID
  5
946
100
AcDbEntity
  8
0
  6
BYBLOCK
 62
     0
100
AcDbTrace
 10
-1846.214932
 20
-1478.085165
 30
0.0
 11
-1845.600813
 21
-1478.648462
 31
0.0
 12
-1844.217983
 22
-1476.524458
 32
0.0
 13
-1844.217983
 23
-1476.524458
 33
0.0
  0
SOLID
  5
947
100
AcDbEntity
  8
0
  6
BYBLOCK
 62
     0
100
AcDbTrace
 10
-1845.600813
 20
-1515.393074
 30
0.0
 11
-1846.214932
 21
-1515.95637
 31
0.0
 12
-1844.217983
 22
-1517.517078
 32
0.0
 13
-1844.217983
 23
-1517.517078
 33
0.0
  0
MTEXT
  5
948
100
AcDbEntity
  8
0
  6
BYBLOCK
 62
     0
100
AcDbMText
 10
-1855.082833
 20
-1497.020768
 30
0.0
 40
3.5
 41
0.0
 71
     5
 72
     1
  1
\A1;90°
 11
0.0
 21
1.0
 31
0.0
  0
POINT
  5
949
100
AcDbEntity
  8
DEFPOINTS
  6
BYBLOCK
 62
     0
100
AcDbPoint
 10
-1851.720153
 20
-1489.518598
 30
0.0
  0
POINT
  5
94A
100
AcDbEntity
  8
DEFPOINTS
  6
BYBLOCK
 62
     0
100
AcDbPoint
 10
-1825.221673
 20
-1495.520768
 30
0.0
  0
POINT
  5
94B
100
AcDbEntity
  8
DEFPOINTS
  6
BYBLOCK
 62
     0
100
AcDbPoint
 10
-1825.221673
 20
-1498.520768
 30
0.0
  0
POINT
  5
94C
100
AcDbEntity
  8
DEFPOINTS
  6
BYBLOCK
 62
     0
100
AcDbPoint
 10
-1823.721673
 20
-1497.020768
 30
0.0
  0
POINT
  5
94D
100
AcDbEntity
  8
DEFPOINTS
  6
BYBLOCK
 62
     0
100
AcDbPoint
 10
-1823.721673
 20
-1497.020768
 30
0.0
  0
ENDBLK
  5
94E
100
AcDbEntity
  8
0
100
AcDbBlockEnd
  0
BLOCK
  5
AE1
100
AcDbEntity
  8
0
100
AcDbBlockBegin
  2
*D16
 70
    65
 10
0.0
 20
0.0
 30
0.0
  3
*D16
  1

  0
LINE
  5
AE2
100
AcDbEntity
  8
0
  6
BYBLOCK
 62
     0
100
AcDbLine
 10
-1862.862577
 20
-1572.426394
 30
0.0
 11
-1862.862577
 21
-1584.164194
 31
0.0
  0
LINE
  5
AE3
100
AcDbEntity
  8
0
  6
BYBLOCK
 62
     0
100
AcDbLine
 10
-1912.862577
 20
-1572.426394
 30
0.0
 11
-1912.862577
 21
-1584.164194
 31
0.0
  0
LINE
  5
AE4
100
AcDbEntity
  8
0
  6
BYBLOCK
 62
     0
100
AcDbLine
 10
-1865.362577
 20
-1582.914194
 30
0.0
 11
-1910.362577
 21
-1582.914194
 31
0.0
  0
SOLID
  5
AE5
100
AcDbEntity
  8
0
  6
BYBLOCK
 62
     0
100
AcDbTrace
 10
-1865.362577
 20
-1582.497527
 30
0.0
 11
-1865.362577
 21
-1583.330861
 31
0.0
 12
-1862.862577
 22
-1582.914194
 32
0.0
 13
-1862.862577
 23
-1582.914194
 33
0.0
  0
SOLID
  5
AE6
100
AcDbEntity
  8
0
  6
BYBLOCK
 62
     0
100
AcDbTrace
 10
-1910.362577
 20
-1582.497527
 30
0.0
 11
-1910.362577
 21
-1583.330861
 31
0.0
 12
-1912.862577
 22
-1582.914194
 32
0.0
 13
-1912.862577
 23
-1582.914194
 33
0.0
  0
MTEXT
  5
AE7
100
AcDbEntity
  8
0
  6
BYBLOCK
 62
     0
100
AcDbMText
 10
-1887.862577
 20
-1580.539194
 30
0.0
 40
3.5
 41
0.0
 71
     5
 72
     1
  1
\A1;{1000 +/- 0,1}
  0
POINT
  5
AE8
100
AcDbEntity
  8
DEFPOINTS
  6
BYBLOCK
 62
     0
100
AcDbPoint
 10
-1862.862577
 20
-1571.801394
 30
0.0
  0
POINT
  5
AE9
100
AcDbEntity
  8
DEFPOINTS
  6
BYBLOCK
 62
     0
100
AcDbPoint
 10
-1912.862577
 20
-1571.801394
 30
0.0
  0
POINT
  5
AEA
100
AcDbEntity
  8
DEFPOINTS
  6
BYBLOCK
 62
     0
100
AcDbPoint
 10
-1912.862577
 20
-1582.914194
 30
0.0
  0
ENDBLK
  5
AEB
100
AcDbEntity
  8
0
100
AcDbBlockEnd
  0
BLOCK
  5
AED
100
AcDbEntity
  8
0
100
AcDbBlockBegin
  2
*D17
 70
    65
 10
0.0
 20
0.0
 30
0.0
  3
*D17
  1

  0
LINE
  5
AEE
100
AcDbEntity
  8
0
  6
BYBLOCK
 62
     0
100
AcDbLine
 10
-1862.237577
 20
-1571.801394
 30
0.0
 11
-1855.846704
 21
-1571.801394
 31
0.0
  0
ARC
  5
AEF
100
AcDbEntity
  8
0
  6
BYBLOCK
 62
     0
100
AcDbCircle
 10
-1862.862577
 20
-1571.801394
 30
0.0
 40
5.765874
100
AcDbArc
 50
25.041459
 51
64.958541
  0
SOLID
  5
AF0
100
AcDbEntity
  8
0
  6
BYBLOCK
 62
     0
100
AcDbTrace
 10
-1857.231928
 20
-1569.270519
 30
0.0
 11
-1858.045443
 21
-1569.45118
 31
0.0
 12
-1857.096704
 22
-1571.801394
 32
0.0
 13
-1857.096704
 23
-1571.801394
 33
0.0
  0
SOLID
  5
AF1
100
AcDbEntity
  8
0
  6
BYBLOCK
 62
     0
100
AcDbTrace
 10
-1860.512363
 20
-1566.984259
 30
0.0
 11
-1860.331703
 21
-1566.170745
 31
0.0
 12
-1862.862577
 22
-1566.03552
 32
0.0
 13
-1862.862577
 23
-1566.03552
 33
0.0
  0
MTEXT
  5
AF2
100
AcDbEntity
  8
0
  6
BYBLOCK
 62
     0
100
AcDbMText
 10
-1855.78581
 20
-1565.331761
 30
0.0
 40
3.5
 41
0.0
 71
     5
 72
     1
  1
\A2;90°{\H2.800000;\S-0°2'^  0°0';}
 11
0.674738
 21
-0.738058
 31
0.0
  0
POINT
  5
AF3
100
AcDbEntity
  8
DEFPOINTS
  6
BYBLOCK
 62
     0
100
AcDbPoint
 10
-1859.97964
 20
-1566.808001
 30
0.0
  0
POINT
  5
AF4
100
AcDbEntity
  8
DEFPOINTS
  6
BYBLOCK
 62
     0
100
AcDbPoint
 10
-1912.862577
 20
-1571.801394
 30
0.0
  0
POINT
  5
AF5
100
AcDbEntity
  8
DEFPOINTS
  6
BYBLOCK
 62
     0
100
AcDbPoint
 10
-1862.862577
 20
-1571.801394
 30
0.0
  0
POINT
  5
AF6
100
AcDbEntity
  8
DEFPOINTS
  6
BYBLOCK
 62
     0
100
AcDbPoint
 10
-1862.862577
 20
-1547.801394
 30
0.0
  0
POINT
  5
AF7
100
AcDbEntity
  8
DEFPOINTS
  6
BYBLOCK
 62
     0
100
AcDbPoint
 10
-1862.862577
 20
-1571.801394
 30
0.0
  0
ENDBLK
  5
AF8
100
AcDbEntity
  8
0
100
AcDbBlockEnd
  0
BLOCK
  5
AFA
100
AcDbEntity
  8
0
100
AcDbBlockBegin
  2
*D18
 70
    65
 10
0.0
 20
0.0
 30
0.0
  3
*D18
  1

  0
LINE
  5
AFB
100
AcDbEntity
  8
0
  6
BYBLOCK
 62
     0
100
AcDbLine
 10
-1913.487577
 20
-1571.801394
 30
0.0
 11
-1919.170275
 21
-1571.801394
 31
0.0
  0
ARC
  5
AFC
100
AcDbEntity
  8
0
  6
BYBLOCK
 62
     0
100
AcDbCircle
 10
-1912.862577
 20
-1571.801394
 30
0.0
 40
5.057697
100
AcDbArc
 50
118.617624
 51
151.382376
  0
SOLID
  5
AFD
100
AcDbEntity
  8
0
  6
BYBLOCK
 62
     0
100
AcDbTrace
 10
-1915.388
 20
-1566.957825
 30
0.0
 11
-1915.182043
 21
-1567.765307
 31
0.0
 12
-1912.862577
 22
-1566.743696
 32
0.0
 13
-1912.862577
 23
-1566.743696
 33
0.0
  0
SOLID
  5
AFE
100
AcDbEntity
  8
0
  6
BYBLOCK
 62
     0
100
AcDbTrace
 10
-1916.898664
 20
-1569.481928
 30
0.0
 11
-1917.706145
 21
-1569.275971
 31
0.0
 12
-1917.920275
 22
-1571.801394
 32
0.0
 13
-1917.920275
 23
-1571.801394
 33
0.0
  0
MTEXT
  5
AFF
100
AcDbEntity
  8
0
  6
BYBLOCK
 62
     0
100
AcDbMText
 10
-1920.044252
 20
-1566.57824
 30
0.0
 40
3.5
 41
0.0
 71
     5
 72
     1
  1
\A2;90°{\H2.800000;\S-0°2'^  0°0';}
 11
0.58818
 21
0.80873
 31
0.0
  0
POINT
  5
B00
100
AcDbEntity
  8
DEFPOINTS
  6
BYBLOCK
 62
     0
100
AcDbPoint
 10
-1915.391426
 20
-1567.421299
 30
0.0
  0
POINT
  5
B01
100
AcDbEntity
  8
DEFPOINTS
  6
BYBLOCK
 62
     0
100
AcDbPoint
 10
-1912.862577
 20
-1571.801394
 30
0.0
  0
POINT
  5
B02
100
AcDbEntity
  8
DEFPOINTS
  6
BYBLOCK
 62
     0
100
AcDbPoint
 10
-1912.862577
 20
-1571.801394
 30
0.0
  0
POINT
  5
B03
100
AcDbEntity
  8
DEFPOINTS
  6
BYBLOCK
 62
     0
100
AcDbPoint
 10
-1912.862577
 20
-1547.801394
 30
0.0
  0
POINT
  5
B04
100
AcDbEntity
  8
DEFPOINTS
  6
BYBLOCK
 62
     0
100
AcDbPoint
 10
-1862.862577
 20
-1571.801394
 30
0.0
  0
ENDBLK
  5
B05
100
AcDbEntity
  8
0
100
AcDbBlockEnd
  0
BLOCK
  5
17D4
100
AcDbEntity
  8
0
100
AcDbBlockBegin
  2
*D19
 70
    65
 10
0.0
 20
0.0
 30
0.0
  3
*D19
  1

  0
LINE
  5
17D5
100
AcDbEntity
  8
0
  6
BYBLOCK
 62
     0
100
AcDbLine
 10
-1562.625628
 20
-1505.320768
 30
0.0
 11
-1540.971044
 21
-1505.320768
 31
0.0
  0
LINE
  5
17D6
100
AcDbEntity
  8
0
  6
BYBLOCK
 62
     0
100
AcDbLine
 10
-1568.625628
 20
-1525.020768
 30
0.0
 11
-1540.971044
 21
-1525.020768
 31
0.0
  0
LINE
  5
17D7
100
AcDbEntity
  8
0
  6
BYBLOCK
 62
     0
100
AcDbLine
 10
-1542.221044
 20
-1507.820768
 30
0.0
 11
-1542.221044
 21
-1522.520768
 31
0.0
  0
SOLID
  5
17D8
100
AcDbEntity
  8
0
  6
BYBLOCK
 62
     0
100
AcDbTrace
 10
-1542.637711
 20
-1507.820768
 30
0.0
 11
-1541.804378
 21
-1507.820768
 31
0.0
 12
-1542.221044
 22
-1505.320768
 32
0.0
 13
-1542.221044
 23
-1505.320768
 33
0.0
  0
SOLID
  5
17D9
100
AcDbEntity
  8
0
  6
BYBLOCK
 62
     0
100
AcDbTrace
 10
-1542.637711
 20
-1522.520768
 30
0.0
 11
-1541.804378
 21
-1522.520768
 31
0.0
 12
-1542.221044
 22
-1525.020768
 32
0.0
 13
-1542.221044
 23
-1525.020768
 33
0.0
  0
MTEXT
  5
17DA
100
AcDbEntity
  8
0
  6
BYBLOCK
 62
     0
100
AcDbMText
 10
-1544.596044
 20
-1515.170768
 30
0.0
 40
3.5
 41
0.0
 71
     5
 72
     1
  1
\A1;19.7
 11
0.0
 21
1.0
 31
0.0
  0
POINT
  5
17DB
100
AcDbEntity
  8
DEFPOINTS
  6
BYBLOCK
 62
     0
100
AcDbPoint
 10
-1563.250628
 20
-1505.320768
 30
0.0
  0
POINT
  5
17DC
100
AcDbEntity
  8
DEFPOINTS
  6
BYBLOCK
 62
     0
100
AcDbPoint
 10
-1569.250628
 20
-1525.020768
 30
0.0
  0
POINT
  5
17DD
100
AcDbEntity
  8
DEFPOINTS
  6
BYBLOCK
 62
     0
100
AcDbPoint
 10
-1542.221044
 20
-1525.020768
 30
0.0
  0
ENDBLK
  5
17DE
100
AcDbEntity
  8
0
100
AcDbBlockEnd
  0
BLOCK
  5
CDE
100
AcDbEntity
  8
0
100
AcDbBlockBegin
  2
*D20
 70
    65
 10
0.0
 20
0.0
 30
0.0
  3
*D20
  1

  0
LINE
  5
CDF
100
AcDbEntity
  8
0
  6
BYBLOCK
 62
     0
100
AcDbLine
 10
-1567.700628
 20
-1524.395768
 30
0.0
 11
-1567.700628
 21
-1541.320167
 31
0.0
  0
LINE
  5
CE0
100
AcDbEntity
  8
0
  6
BYBLOCK
 62
     0
100
AcDbLine
 10
-1581.200628
 20
-1524.395768
 30
0.0
 11
-1581.200628
 21
-1541.320167
 31
0.0
  0
LINE
  5
CE1
100
AcDbEntity
  8
0
  6
BYBLOCK
 62
     0
100
AcDbLine
 10
-1578.700628
 20
-1540.070167
 30
0.0
 11
-1570.200628
 21
-1540.070167
 31
0.0
  0
LINE
  5
CE2
100
AcDbEntity
  8
0
  6
BYBLOCK
 62
     0
100
AcDbLine
 10
-1567.700628
 20
-1540.070167
 30
0.0
 11
-1540.190587
 21
-1540.070167
 31
0.0
  0
SOLID
  5
CE3
100
AcDbEntity
  8
0
  6
BYBLOCK
 62
     0
100
AcDbTrace
 10
-1578.700628
 20
-1539.6535
 30
0.0
 11
-1578.700628
 21
-1540.486834
 31
0.0
 12
-1581.200628
 22
-1540.070167
 32
0.0
 13
-1581.200628
 23
-1540.070167
 33
0.0
  0
SOLID
  5
CE4
100
AcDbEntity
  8
0
  6
BYBLOCK
 62
     0
100
AcDbTrace
 10
-1570.200628
 20
-1539.6535
 30
0.0
 11
-1570.200628
 21
-1540.486834
 31
0.0
 12
-1567.700628
 22
-1540.070167
 32
0.0
 13
-1567.700628
 23
-1540.070167
 33
0.0
  0
MTEXT
  5
CE5
100
AcDbEntity
  8
0
  6
BYBLOCK
 62
     0
100
AcDbMText
 10
-1548.438587
 20
-1536.317398
 30
0.0
 40
3.5
 41
0.0
 71
     5
 72
     1
  1
\A2;13.5{\H2.800000;\S+0.1^  0;}
  0
POINT
  5
CE6
100
AcDbEntity
  8
DEFPOINTS
  6
BYBLOCK
 62
     0
100
AcDbPoint
 10
-1567.700628
 20
-1523.770768
 30
0.0
  0
POINT
  5
CE7
100
AcDbEntity
  8
DEFPOINTS
  6
BYBLOCK
 62
     0
100
AcDbPoint
 10
-1581.200628
 20
-1523.770768
 30
0.0
  0
POINT
  5
CE8
100
AcDbEntity
  8
DEFPOINTS
  6
BYBLOCK
 62
     0
100
AcDbPoint
 10
-1581.200628
 20
-1540.070167
 30
0.0
  0
ENDBLK
  5
CE9
100
AcDbEntity
  8
0
100
AcDbBlockEnd
  0
BLOCK
  5
193E
100
AcDbEntity
  8
0
100
AcDbBlockBegin
  2
*D21
 70
    65
 10
0.0
 20
0.0
 30
0.0
  3
*D21
  1

  0
LINE
  5
193F
100
AcDbEntity
  8
0
  6
BYBLOCK
 62
     0
100
AcDbLine
 10
-1561.950628
 20
-1504.645768
 30
0.0
 11
-1561.950628
 21
-1562.379287
 31
0.0
  0
LINE
  5
1940
100
AcDbEntity
  8
0
  6
BYBLOCK
 62
     0
100
AcDbLine
 10
-1586.950628
 20
-1504.395768
 30
0.0
 11
-1586.950628
 21
-1562.379287
 31
0.0
  0
LINE
  5
1941
100
AcDbEntity
  8
0
  6
BYBLOCK
 62
     0
100
AcDbLine
 10
-1564.450628
 20
-1561.129287
 30
0.0
 11
-1584.450628
 21
-1561.129287
 31
0.0
  0
SOLID
  5
1942
100
AcDbEntity
  8
0
  6
BYBLOCK
 62
     0
100
AcDbTrace
 10
-1564.450628
 20
-1560.71262
 30
0.0
 11
-1564.450628
 21
-1561.545954
 31
0.0
 12
-1561.950628
 22
-1561.129287
 32
0.0
 13
-1561.950628
 23
-1561.129287
 33
0.0
  0
SOLID
  5
1943
100
AcDbEntity
  8
0
  6
BYBLOCK
 62
     0
100
AcDbTrace
 10
-1584.450628
 20
-1560.71262
 30
0.0
 11
-1584.450628
 21
-1561.545954
 31
0.0
 12
-1586.950628
 22
-1561.129287
 32
0.0
 13
-1586.950628
 23
-1561.129287
 33
0.0
  0
MTEXT
  5
1944
100
AcDbEntity
  8
0
  6
BYBLOCK
 62
     0
100
AcDbMText
 10
-1574.450628
 20
-1558.754287
 30
0.0
 40
3.5
 41
0.0
 71
     5
 72
     1
  1
\A2;25{\H2.800000;±0.05}
  0
POINT
  5
1945
100
AcDbEntity
  8
DEFPOINTS
  6
BYBLOCK
 62
     0
100
AcDbPoint
 10
-1561.950628
 20
-1504.020768
 30
0.0
  0
POINT
  5
1946
100
AcDbEntity
  8
DEFPOINTS
  6
BYBLOCK
 62
     0
100
AcDbPoint
 10
-1586.950628
 20
-1503.770768
 30
0.0
  0
POINT
  5
1947
100
AcDbEntity
  8
DEFPOINTS
  6
BYBLOCK
 62
     0
100
AcDbPoint
 10
-1586.950628
 20
-1561.129287
 30
0.0
  0
ENDBLK
  5
1948
100
AcDbEntity
  8
0
100
AcDbBlockEnd
  0
BLOCK
  5
EFB
100
AcDbEntity
  8
0
100
AcDbBlockBegin
  2
*D22
 70
    65
 10
0.0
 20
0.0
 30
0.0
  3
*D22
  1

  0
LINE
  5
EFC
100
AcDbEntity
  8
0
  6
BYBLOCK
 62
     0
100
AcDbLine
 10
-1600.372058
 20
-1497.020768
 30
0.0
 11
-1605.186529
 21
-1497.020768
 31
0.0
  0
LINE
  5
EFD
100
AcDbEntity
  8
0
  6
BYBLOCK
 62
     0
100
AcDbLine
 10
-1586.275628
 20
-1505.320768
 30
0.0
 11
-1605.186529
 21
-1505.320768
 31
0.0
  0
LINE
  5
EFE
100
AcDbEntity
  8
0
  6
BYBLOCK
 62
     0
100
AcDbLine
 10
-1603.936529
 20
-1499.520768
 30
0.0
 11
-1603.936529
 21
-1502.820768
 31
0.0
  0
LINE
  5
EFF
100
AcDbEntity
  8
0
  6
BYBLOCK
 62
     0
100
AcDbLine
 10
-1603.936529
 20
-1505.320768
 30
0.0
 11
-1603.936529
 21
-1534.373992
 31
0.0
  0
SOLID
  5
F00
100
AcDbEntity
  8
0
  6
BYBLOCK
 62
     0
100
AcDbTrace
 10
-1604.353196
 20
-1499.520768
 30
0.0
 11
-1603.519863
 21
-1499.520768
 31
0.0
 12
-1603.936529
 22
-1497.020768
 32
0.0
 13
-1603.936529
 23
-1497.020768
 33
0.0
  0
SOLID
  5
F01
100
AcDbEntity
  8
0
  6
BYBLOCK
 62
     0
100
AcDbTrace
 10
-1604.353196
 20
-1502.820768
 30
0.0
 11
-1603.519863
 21
-1502.820768
 31
0.0
 12
-1603.936529
 22
-1505.320768
 32
0.0
 13
-1603.936529
 23
-1505.320768
 33
0.0
  0
MTEXT
  5
F02
100
AcDbEntity
  8
0
  6
BYBLOCK
 62
     0
100
AcDbMText
 10
-1606.311529
 20
-1527.550492
 30
0.0
 40
3.5
 41
0.0
 71
     5
 72
     1
  1
\A2;8.3{\H2.800000;±0.1}
 11
0.0
 21
1.0
 31
0.0
  0
POINT
  5
F03
100
AcDbEntity
  8
DEFPOINTS
  6
BYBLOCK
 62
     0
100
AcDbPoint
 10
-1599.747058
 20
-1497.020768
 30
0.0
  0
POINT
  5
F04
100
AcDbEntity
  8
DEFPOINTS
  6
BYBLOCK
 62
     0
100
AcDbPoint
 10
-1585.650628
 20
-1505.320768
 30
0.0
  0
POINT
  5
F05
100
AcDbEntity
  8
DEFPOINTS
  6
BYBLOCK
 62
     0
100
AcDbPoint
 10
-1603.936529
 20
-1505.320768
 30
0.0
  0
ENDBLK
  5
F06
100
AcDbEntity
  8
0
100
AcDbBlockEnd
  0
BLOCK
  5
BDD
100
AcDbEntity
  8
0
100
AcDbBlockBegin
  2
*D23
 70
    65
 10
0.0
 20
0.0
 30
0.0
  3
*D23
  1

  0
LINE
  5
BDE
100
AcDbEntity
  8
0
  6
BYBLOCK
 62
     0
100
AcDbLine
 10
-1587.64257
 20
-1494.828826
 30
0.0
 11
-1607.429074
 21
-1475.042322
 31
0.0
  0
LINE
  5
BDF
100
AcDbEntity
  8
0
  6
BYBLOCK
 62
     0
100
AcDbLine
 10
-1587.64257
 20
-1499.212709
 30
0.0
 11
-1607.429074
 21
-1518.999213
 31
0.0
  0
ARC
  5
BE0
100
AcDbEntity
  8
0
  6
BYBLOCK
 62
     0
100
AcDbCircle
 10
-1585.450628
 20
-1497.020768
 30
0.0
 40
29.832216
100
AcDbArc
 50
139.802908
 51
220.197092
  0
SOLID
  5
BE1
100
AcDbEntity
  8
0
  6
BYBLOCK
 62
     0
100
AcDbTrace
 10
-1608.544048
 20
-1477.484467
 30
0.0
 11
-1607.930619
 21
-1478.048515
 31
0.0
 12
-1606.54519
 22
-1475.926205
 32
0.0
 13
-1606.54519
 23
-1475.926205
 33
0.0
  0
SOLID
  5
BE2
100
AcDbEntity
  8
0
  6
BYBLOCK
 62
     0
100
AcDbTrace
 10
-1607.930619
 20
-1515.99302
 30
0.0
 11
-1608.544048
 21
-1516.557068
 31
0.0
 12
-1606.54519
 22
-1518.11533
 32
0.0
 13
-1606.54519
 23
-1518.11533
 33
0.0
  0
MTEXT
  5
BE3
100
AcDbEntity
  8
0
  6
BYBLOCK
 62
     0
100
AcDbMText
 10
-1617.657844
 20
-1497.020768
 30
0.0
 40
3.5
 41
0.0
 71
     5
 72
     1
  1
\A1;90°
 11
0.0
 21
1.0
 31
0.0
  0
POINT
  5
BE4
100
AcDbEntity
  8
DEFPOINTS
  6
BYBLOCK
 62
     0
100
AcDbPoint
 10
-1614.266336
 20
-1489.299622
 30
0.0
  0
POINT
  5
BE5
100
AcDbEntity
  8
DEFPOINTS
  6
BYBLOCK
 62
     0
100
AcDbPoint
 10
-1587.200628
 20
-1495.270768
 30
0.0
  0
POINT
  5
BE6
100
AcDbEntity
  8
DEFPOINTS
  6
BYBLOCK
 62
     0
100
AcDbPoint
 10
-1587.200628
 20
-1498.770768
 30
0.0
  0
POINT
  5
BE7
100
AcDbEntity
  8
DEFPOINTS
  6
BYBLOCK
 62
     0
100
AcDbPoint
 10
-1585.450628
 20
-1497.020768
 30
0.0
  0
POINT
  5
BE8
100
AcDbEntity
  8
DEFPOINTS
  6
BYBLOCK
 62
     0
100
AcDbPoint
 10
-1585.450628
 20
-1497.020768
 30
0.0
  0
ENDBLK
  5
BE9
100
AcDbEntity
  8
0
100
AcDbBlockEnd
  0
BLOCK
  5
17ED
100
AcDbEntity
  8
0
100
AcDbBlockBegin
  2
*D24
 70
    65
 10
0.0
 20
0.0
 30
0.0
  3
*D24
  1

  0
LINE
  5
17EE
100
AcDbEntity
  8
0
  6
BYBLOCK
 62
     0
100
AcDbLine
 10
-1587.575628
 20
-1495.520768
 30
0.0
 11
-1600.933948
 21
-1495.520768
 31
0.0
  0
LINE
  5
17EF
100
AcDbEntity
  8
0
  6
BYBLOCK
 62
     0
100
AcDbLine
 10
-1587.575628
 20
-1498.520768
 30
0.0
 11
-1600.933948
 21
-1498.520768
 31
0.0
  0
LINE
  5
17F0
100
AcDbEntity
  8
0
  6
BYBLOCK
 62
     0
100
AcDbLine
 10
-1599.683948
 20
-1501.020768
 30
0.0
 11
-1599.683948
 21
-1503.520768
 31
0.0
  0
LINE
  5
17F1
100
AcDbEntity
  8
0
  6
BYBLOCK
 62
     0
100
AcDbLine
 10
-1599.683948
 20
-1493.020768
 30
0.0
 11
-1599.683948
 21
-1473.598381
 31
0.0
  0
SOLID
  5
17F2
100
AcDbEntity
  8
0
  6
BYBLOCK
 62
     0
100
AcDbTrace
 10
-1600.100614
 20
-1501.020768
 30
0.0
 11
-1599.267281
 21
-1501.020768
 31
0.0
 12
-1599.683948
 22
-1498.520768
 32
0.0
 13
-1599.683948
 23
-1498.520768
 33
0.0
  0
SOLID
  5
17F3
100
AcDbEntity
  8
0
  6
BYBLOCK
 62
     0
100
AcDbTrace
 10
-1600.100614
 20
-1493.020768
 30
0.0
 11
-1599.267281
 21
-1493.020768
 31
0.0
 12
-1599.683948
 22
-1495.520768
 32
0.0
 13
-1599.683948
 23
-1495.520768
 33
0.0
  0
MTEXT
  5
17F4
100
AcDbEntity
  8
0
  6
BYBLOCK
 62
     0
100
AcDbMText
 10
-1602.058948
 20
-1475.073117
 30
0.0
 40
3.5
 41
0.0
 71
     5
 72
     1
  1
\A1;3
 11
0.0
 21
1.0
 31
0.0
  0
POINT
  5
17F5
100
AcDbEntity
  8
DEFPOINTS
  6
BYBLOCK
 62
     0
100
AcDbPoint
 10
-1586.950628
 20
-1495.520768
 30
0.0
  0
POINT
  5
17F6
100
AcDbEntity
  8
DEFPOINTS
  6
BYBLOCK
 62
     0
100
AcDbPoint
 10
-1586.950628
 20
-1498.520768
 30
0.0
  0
POINT
  5
17F7
100
AcDbEntity
  8
DEFPOINTS
  6
BYBLOCK
 62
     0
100
AcDbPoint
 10
-1599.683948
 20
-1498.520768
 30
0.0
  0
ENDBLK
  5
17F8
100
AcDbEntity
  8
0
100
AcDbBlockEnd
  0
BLOCK
  5
C06
100
AcDbEntity
  8
0
100
AcDbBlockBegin
  2
*D25
 70
    65
 10
0.0
 20
0.0
 30
0.0
  3
*D25
  1

  0
LINE
  5
C07
100
AcDbEntity
  8
0
  6
BYBLOCK
 62
     0
100
AcDbLine
 10
-1583.106783
 20
-1504.878826
 30
0.0
 11
-1584.928911
 21
-1503.056699
 31
0.0
  0
LINE
  5
C08
100
AcDbEntity
  8
0
  6
BYBLOCK
 62
     0
100
AcDbLine
 10
-1581.746123
 20
-1503.518166
 30
0.0
 11
-1583.56825
 21
-1501.696038
 31
0.0
  0
LINE
  5
C09
100
AcDbEntity
  8
0
  6
BYBLOCK
 62
     0
100
AcDbLine
 10
-1585.812794
 20
-1505.708349
 30
0.0
 11
-1587.580561
 21
-1507.476116
 31
0.0
  0
LINE
  5
C0A
100
AcDbEntity
  8
0
  6
BYBLOCK
 62
     0
100
AcDbLine
 10
-1580.9166
 20
-1500.812155
 30
0.0
 11
-1572.850317
 21
-1492.745872
 31
0.0
  0
SOLID
  5
C0B
100
AcDbEntity
  8
0
  6
BYBLOCK
 62
     0
100
AcDbTrace
 10
-1586.107422
 20
-1505.413721
 30
0.0
 11
-1585.518166
 21
-1506.002977
 31
0.0
 12
-1584.045027
 22
-1503.940582
 32
0.0
 13
-1584.045027
 23
-1503.940582
 33
0.0
  0
SOLID
  5
C0C
100
AcDbEntity
  8
0
  6
BYBLOCK
 62
     0
100
AcDbTrace
 10
-1581.211228
 20
-1500.517527
 30
0.0
 11
-1580.621972
 21
-1501.106783
 31
0.0
 12
-1582.684367
 22
-1502.579922
 32
0.0
 13
-1582.684367
 23
-1502.579922
 33
0.0
  0
MTEXT
  5
C0D
100
AcDbEntity
  8
0
  6
BYBLOCK
 62
     0
100
AcDbMText
 10
-1577.679197
 20
-1494.215508
 30
0.0
 40
3.5
 41
0.0
 71
     5
 72
     1
  1
\A1;1.92
 11
0.707107
 21
0.707107
 31
0.0
  0
POINT
  5
C0E
100
AcDbEntity
  8
DEFPOINTS
  6
BYBLOCK
 62
     0
100
AcDbPoint
 10
-1582.664841
 20
-1505.320768
 30
0.0
  0
POINT
  5
C0F
100
AcDbEntity
  8
DEFPOINTS
  6
BYBLOCK
 62
     0
100
AcDbPoint
 10
-1581.304181
 20
-1503.960107
 30
0.0
  0
POINT
  5
C10
100
AcDbEntity
  8
DEFPOINTS
  6
BYBLOCK
 62
     0
100
AcDbPoint
 10
-1582.684367
 20
-1502.579922
 30
0.0
  0
ENDBLK
  5
C11
100
AcDbEntity
  8
0
100
AcDbBlockEnd
  0
BLOCK
  5
C14
100
AcDbEntity
  8
0
100
AcDbBlockBegin
  2
*D26
 70
    65
 10
0.0
 20
0.0
 30
0.0
  3
*D26
  1

  0
LINE
  5
C15
100
AcDbEntity
  8
0
  6
BYBLOCK
 62
     0
100
AcDbLine
 10
-1569.45323
 20
-1504.932379
 30
0.0
 11
-1572.095563
 21
-1502.290047
 31
0.0
  0
LINE
  5
C16
100
AcDbEntity
  8
0
  6
BYBLOCK
 62
     0
100
AcDbLine
 10
-1568.039016
 20
-1503.518166
 30
0.0
 11
-1570.681349
 21
-1500.875833
 31
0.0
  0
LINE
  5
C17
100
AcDbEntity
  8
0
  6
BYBLOCK
 62
     0
100
AcDbLine
 10
-1572.979446
 20
-1504.941697
 30
0.0
 11
-1574.747213
 21
-1506.709464
 31
0.0
  0
LINE
  5
C18
100
AcDbEntity
  8
0
  6
BYBLOCK
 62
     0
100
AcDbLine
 10
-1568.029699
 20
-1499.99195
 30
0.0
 11
-1564.05647
 21
-1496.018721
 31
0.0
  0
SOLID
  5
C19
100
AcDbEntity
  8
0
  6
BYBLOCK
 62
     0
100
AcDbTrace
 10
-1573.274074
 20
-1504.647069
 30
0.0
 11
-1572.684818
 21
-1505.236325
 31
0.0
 12
-1571.211679
 22
-1503.17393
 32
0.0
 13
-1571.211679
 23
-1503.17393
 33
0.0
  0
SOLID
  5
C1A
100
AcDbEntity
  8
0
  6
BYBLOCK
 62
     0
100
AcDbTrace
 10
-1568.324326
 20
-1499.697322
 30
0.0
 11
-1567.735071
 21
-1500.286577
 31
0.0
 12
-1569.797466
 22
-1501.759716
 32
0.0
 13
-1569.797466
 23
-1501.759716
 33
0.0
  0
MTEXT
  5
C1B
100
AcDbEntity
  8
0
  6
BYBLOCK
 62
     0
100
AcDbMText
 10
-1566.838823
 20
-1495.44183
 30
0.0
 40
3.5
 41
0.0
 71
     5
 72
     1
  1
\A1;2
 11
0.707107
 21
0.707107
 31
0.0
  0
POINT
  5
C1C
100
AcDbEntity
  8
DEFPOINTS
  6
BYBLOCK
 62
     0
100
AcDbPoint
 10
-1569.011288
 20
-1505.374321
 30
0.0
  0
POINT
  5
C1D
100
AcDbEntity
  8
DEFPOINTS
  6
BYBLOCK
 62
     0
100
AcDbPoint
 10
-1567.597075
 20
-1503.960107
 30
0.0
  0
POINT
  5
C1E
100
AcDbEntity
  8
DEFPOINTS
  6
BYBLOCK
 62
     0
100
AcDbPoint
 10
-1569.797466
 20
-1501.759716
 30
0.0
  0
ENDBLK
  5
C1F
100
AcDbEntity
  8
0
100
AcDbBlockEnd
  0
BLOCK
  5
F34
100
AcDbEntity
  8
0
100
AcDbBlockBegin
  2
*D27
 70
    65
 10
0.0
 20
0.0
 30
0.0
  3
*D27
  1

  0
LINE
  5
F35
100
AcDbEntity
  8
0
  6
BYBLOCK
 62
     0
100
AcDbLine
 10
-1564.375628
 20
-1449.520768
 30
0.0
 11
-1540.94493
 21
-1449.520768
 31
0.0
  0
LINE
  5
F36
100
AcDbEntity
  8
0
  6
BYBLOCK
 62
     0
100
AcDbLine
 10
-1561.075628
 20
-1505.320768
 30
0.0
 11
-1540.94493
 21
-1505.320768
 31
0.0
  0
LINE
  5
F37
100
AcDbEntity
  8
0
  6
BYBLOCK
 62
     0
100
AcDbLine
 10
-1542.19493
 20
-1452.020768
 30
0.0
 11
-1542.19493
 21
-1502.820768
 31
0.0
  0
SOLID
  5
F38
100
AcDbEntity
  8
0
  6
BYBLOCK
 62
     0
100
AcDbTrace
 10
-1542.611597
 20
-1452.020768
 30
0.0
 11
-1541.778264
 21
-1452.020768
 31
0.0
 12
-1542.19493
 22
-1449.520768
 32
0.0
 13
-1542.19493
 23
-1449.520768
 33
0.0
  0
SOLID
  5
F39
100
AcDbEntity
  8
0
  6
BYBLOCK
 62
     0
100
AcDbTrace
 10
-1542.611597
 20
-1502.820768
 30
0.0
 11
-1541.778264
 21
-1502.820768
 31
0.0
 12
-1542.19493
 22
-1505.320768
 32
0.0
 13
-1542.19493
 23
-1505.320768
 33
0.0
  0
MTEXT
  5
F3A
100
AcDbEntity
  8
0
  6
BYBLOCK
 62
     0
100
AcDbMText
 10
-1545.947699
 20
-1477.420768
 30
0.0
 40
3.5
 41
0.0
 71
     5
 72
     1
  1
\A2;55.8{\H2.800000;\S+0.1^  0;}
 11
0.0
 21
1.0
 31
0.0
  0
POINT
  5
F3B
100
AcDbEntity
  8
DEFPOINTS
  6
BYBLOCK
 62
     0
100
AcDbPoint
 10
-1565.000628
 20
-1449.520768
 30
0.0
  0
POINT
  5
F3C
100
AcDbEntity
  8
DEFPOINTS
  6
BYBLOCK
 62
     0
100
AcDbPoint
 10
-1561.700628
 20
-1505.320768
 30
0.0
  0
POINT
  5
F3D
100
AcDbEntity
  8
DEFPOINTS
  6
BYBLOCK
 62
     0
100
AcDbPoint
 10
-1542.19493
 20
-1505.320768
 30
0.0
  0
ENDBLK
  5
F3E
100
AcDbEntity
  8
0
100
AcDbBlockEnd
  0
BLOCK
  5
1956
100
AcDbEntity
  8
0
100
AcDbBlockBegin
  2
*D28
 70
    65
 10
0.0
 20
0.0
 30
0.0
  3
*D28
  1

  0
LINE
  5
1957
100
AcDbEntity
  8
0
  6
BYBLOCK
 62
     0
100
AcDbLine
 10
-1563.525931
 20
-1449.520768
 30
0.0
 11
-1529.336856
 21
-1449.520768
 31
0.0
  0
LINE
  5
1958
100
AcDbEntity
  8
0
  6
BYBLOCK
 62
     0
100
AcDbLine
 10
-1568.625628
 20
-1525.020768
 30
0.0
 11
-1529.336856
 21
-1525.020768
 31
0.0
  0
LINE
  5
1959
100
AcDbEntity
  8
0
  6
BYBLOCK
 62
     0
100
AcDbLine
 10
-1530.586856
 20
-1452.020768
 30
0.0
 11
-1530.586856
 21
-1522.520768
 31
0.0
  0
SOLID
  5
195A
100
AcDbEntity
  8
0
  6
BYBLOCK
 62
     0
100
AcDbTrace
 10
-1531.003522
 20
-1452.020768
 30
0.0
 11
-1530.170189
 21
-1452.020768
 31
0.0
 12
-1530.586856
 22
-1449.520768
 32
0.0
 13
-1530.586856
 23
-1449.520768
 33
0.0
  0
SOLID
  5
195B
100
AcDbEntity
  8
0
  6
BYBLOCK
 62
     0
100
AcDbTrace
 10
-1531.003522
 20
-1522.520768
 30
0.0
 11
-1530.170189
 21
-1522.520768
 31
0.0
 12
-1530.586856
 22
-1525.020768
 32
0.0
 13
-1530.586856
 23
-1525.020768
 33
0.0
  0
MTEXT
  5
195C
100
AcDbEntity
  8
0
  6
BYBLOCK
 62
     0
100
AcDbMText
 10
-1534.339625
 20
-1487.270768
 30
0.0
 40
3.5
 41
0.0
 71
     5
 72
     1
  1
\A2;75.5{\H2.800000;\S-0.1^  0;}
 11
0.0
 21
1.0
 31
0.0
  0
POINT
  5
195D
100
AcDbEntity
  8
DEFPOINTS
  6
BYBLOCK
 62
     0
100
AcDbPoint
 10
-1564.150931
 20
-1449.520768
 30
0.0
  0
POINT
  5
195E
100
AcDbEntity
  8
DEFPOINTS
  6
BYBLOCK
 62
     0
100
AcDbPoint
 10
-1569.250628
 20
-1525.020768
 30
0.0
  0
POINT
  5
195F
100
AcDbEntity
  8
DEFPOINTS
  6
BYBLOCK
 62
     0
100
AcDbPoint
 10
-1530.586856
 20
-1525.020768
 30
0.0
  0
ENDBLK
  5
1960
100
AcDbEntity
  8
0
100
AcDbBlockEnd
  0
BLOCK
  5
F7F
100
AcDbEntity
  8
0
100
AcDbBlockBegin
  2
*D29
 70
    65
 10
0.0
 20
0.0
 30
0.0
  3
*D29
  1

  0
LINE
  5
F80
100
AcDbEntity
  8
0
  6
BYBLOCK
 62
     0
100
AcDbLine
 10
-1803.096673
 20
-1450.020768
 30
0.0
 11
-1782.248996
 21
-1450.020768
 31
0.0
  0
LINE
  5
F81
100
AcDbEntity
  8
0
  6
BYBLOCK
 62
     0
100
AcDbLine
 10
-1800.596673
 20
-1505.020768
 30
0.0
 11
-1782.248996
 21
-1505.020768
 31
0.0
  0
LINE
  5
F82
100
AcDbEntity
  8
0
  6
BYBLOCK
 62
     0
100
AcDbLine
 10
-1783.498996
 20
-1452.520768
 30
0.0
 11
-1783.498996
 21
-1502.520768
 31
0.0
  0
SOLID
  5
F83
100
AcDbEntity
  8
0
  6
BYBLOCK
 62
     0
100
AcDbTrace
 10
-1783.915662
 20
-1452.520768
 30
0.0
 11
-1783.082329
 21
-1452.520768
 31
0.0
 12
-1783.498996
 22
-1450.020768
 32
0.0
 13
-1783.498996
 23
-1450.020768
 33
0.0
  0
SOLID
  5
F84
100
AcDbEntity
  8
0
  6
BYBLOCK
 62
     0
100
AcDbTrace
 10
-1783.915662
 20
-1502.520768
 30
0.0
 11
-1783.082329
 21
-1502.520768
 31
0.0
 12
-1783.498996
 22
-1505.020768
 32
0.0
 13
-1783.498996
 23
-1505.020768
 33
0.0
  0
MTEXT
  5
F85
100
AcDbEntity
  8
0
  6
BYBLOCK
 62
     0
100
AcDbMText
 10
-1785.873996
 20
-1477.520768
 30
0.0
 40
3.5
 41
0.0
 71
     5
 72
     1
  1
\A2;55{\H2.800000;±0.01}
 11
0.0
 21
1.0
 31
0.0
  0
POINT
  5
F86
100
AcDbEntity
  8
DEFPOINTS
  6
BYBLOCK
 62
     0
100
AcDbPoint
 10
-1803.721673
 20
-1450.020768
 30
0.0
  0
POINT
  5
F87
100
AcDbEntity
  8
DEFPOINTS
  6
BYBLOCK
 62
     0
100
AcDbPoint
 10
-1801.221673
 20
-1505.020768
 30
0.0
  0
POINT
  5
F88
100
AcDbEntity
  8
DEFPOINTS
  6
BYBLOCK
 62
     0
100
AcDbPoint
 10
-1783.498996
 20
-1505.020768
 30
0.0
  0
ENDBLK
  5
F89
100
AcDbEntity
  8
0
100
AcDbBlockEnd
  0
BLOCK
  5
1E01
100
AcDbEntity
  8
0
100
AcDbBlockBegin
  2
*D30
 70
    65
 10
0.0
 20
0.0
 30
0.0
  3
*D30
  1

  0
LINE
  5
1E02
100
AcDbEntity
  8
0
  6
BYBLOCK
 62
     0
100
AcDbLine
 10
-1803.096673
 20
-1450.020768
 30
0.0
 11
-1767.280687
 21
-1450.020768
 31
0.0
  0
LINE
  5
1E03
100
AcDbEntity
  8
0
  6
BYBLOCK
 62
     0
100
AcDbLine
 10
-1806.596673
 20
-1525.020768
 30
0.0
 11
-1767.280687
 21
-1525.020768
 31
0.0
  0
LINE
  5
1E04
100
AcDbEntity
  8
0
  6
BYBLOCK
 62
     0
100
AcDbLine
 10
-1768.530687
 20
-1452.520768
 30
0.0
 11
-1768.530687
 21
-1522.520768
 31
0.0
  0
SOLID
  5
1E05
100
AcDbEntity
  8
0
  6
BYBLOCK
 62
     0
100
AcDbTrace
 10
-1768.947354
 20
-1452.520768
 30
0.0
 11
-1768.114021
 21
-1452.520768
 31
0.0
 12
-1768.530687
 22
-1450.020768
 32
0.0
 13
-1768.530687
 23
-1450.020768
 33
0.0
  0
SOLID
  5
1E06
100
AcDbEntity
  8
0
  6
BYBLOCK
 62
     0
100
AcDbTrace
 10
-1768.947354
 20
-1522.520768
 30
0.0
 11
-1768.114021
 21
-1522.520768
 31
0.0
 12
-1768.530687
 22
-1525.020768
 32
0.0
 13
-1768.530687
 23
-1525.020768
 33
0.0
  0
MTEXT
  5
1E07
100
AcDbEntity
  8
0
  6
BYBLOCK
 62
     0
100
AcDbMText
 10
-1772.283456
 20
-1487.520768
 30
0.0
 40
3.5
 41
0.0
 71
     5
 72
     1
  1
\A2;75{\H2.800000;\S-0.1^  0;}
 11
0.0
 21
1.0
 31
0.0
  0
POINT
  5
1E08
100
AcDbEntity
  8
DEFPOINTS
  6
BYBLOCK
 62
     0
100
AcDbPoint
 10
-1803.721673
 20
-1450.020768
 30
0.0
  0
POINT
  5
1E09
100
AcDbEntity
  8
DEFPOINTS
  6
BYBLOCK
 62
     0
100
AcDbPoint
 10
-1807.221673
 20
-1525.020768
 30
0.0
  0
POINT
  5
1E0A
100
AcDbEntity
  8
DEFPOINTS
  6
BYBLOCK
 62
     0
100
AcDbPoint
 10
-1768.530687
 20
-1525.020768
 30
0.0
  0
ENDBLK
  5
1E0B
100
AcDbEntity
  8
0
100
AcDbBlockEnd
  0
BLOCK
  5
1491
100
AcDbEntity
  8
0
100
AcDbBlockBegin
  2
*D31
 70
    65
 10
0.0
 20
0.0
 30
0.0
  3
*D31
  1

  0
LINE
  5
1492
100
AcDbEntity
  8
0
  6
BYBLOCK
 62
     0
100
AcDbLine
 10
-1800.596673
 20
-1490.020768
 30
0.0
 11
-1792.448686
 21
-1490.020768
 31
0.0
  0
LINE
  5
1493
100
AcDbEntity
  8
0
  6
BYBLOCK
 62
     0
100
AcDbLine
 10
-1801.729077
 20
-1505.020768
 30
0.0
 11
-1792.448686
 21
-1505.020768
 31
0.0
  0
LINE
  5
1494
100
AcDbEntity
  8
0
  6
BYBLOCK
 62
     0
100
AcDbLine
 10
-1793.698686
 20
-1492.520768
 30
0.0
 11
-1793.698686
 21
-1502.520768
 31
0.0
  0
SOLID
  5
1495
100
AcDbEntity
  8
0
  6
BYBLOCK
 62
     0
100
AcDbTrace
 10
-1794.115352
 20
-1492.520768
 30
0.0
 11
-1793.282019
 21
-1492.520768
 31
0.0
 12
-1793.698686
 22
-1490.020768
 32
0.0
 13
-1793.698686
 23
-1490.020768
 33
0.0
  0
SOLID
  5
1496
100
AcDbEntity
  8
0
  6
BYBLOCK
 62
     0
100
AcDbTrace
 10
-1794.115352
 20
-1502.520768
 30
0.0
 11
-1793.282019
 21
-1502.520768
 31
0.0
 12
-1793.698686
 22
-1505.020768
 32
0.0
 13
-1793.698686
 23
-1505.020768
 33
0.0
  0
MTEXT
  5
1497
100
AcDbEntity
  8
0
  6
BYBLOCK
 62
     0
100
AcDbMText
 10
-1796.073686
 20
-1497.520768
 30
0.0
 40
3.5
 41
0.0
 71
     5
 72
     1
  1
\A1;15
 11
0.0
 21
1.0
 31
0.0
  0
POINT
  5
1498
100
AcDbEntity
  8
DEFPOINTS
  6
BYBLOCK
 62
     0
100
AcDbPoint
 10
-1801.221673
 20
-1490.020768
 30
0.0
  0
POINT
  5
1499
100
AcDbEntity
  8
DEFPOINTS
  6
BYBLOCK
 62
     0
100
AcDbPoint
 10
-1802.354077
 20
-1505.020768
 30
0.0
  0
POINT
  5
149A
100
AcDbEntity
  8
DEFPOINTS
  6
BYBLOCK
 62
     0
100
AcDbPoint
 10
-1793.698686
 20
-1505.020768
 30
0.0
  0
ENDBLK
  5
149B
100
AcDbEntity
  8
0
100
AcDbBlockEnd
  0
BLOCK
  5
149E
100
AcDbEntity
  8
0
100
AcDbBlockBegin
  2
*D32
 70
    65
 10
0.0
 20
0.0
 30
0.0
  3
*D32
  1

  0
LINE
  5
149F
100
AcDbEntity
  8
0
  6
BYBLOCK
 62
     0
100
AcDbLine
 10
-1562.325628
 20
-1490.020768
 30
0.0
 11
-1550.213854
 21
-1490.020768
 31
0.0
  0
LINE
  5
14A0
100
AcDbEntity
  8
0
  6
BYBLOCK
 62
     0
100
AcDbLine
 10
-1562.625628
 20
-1505.320768
 30
0.0
 11
-1550.213854
 21
-1505.320768
 31
0.0
  0
LINE
  5
14A1
100
AcDbEntity
  8
0
  6
BYBLOCK
 62
     0
100
AcDbLine
 10
-1551.463854
 20
-1492.520768
 30
0.0
 11
-1551.463854
 21
-1502.820768
 31
0.0
  0
SOLID
  5
14A2
100
AcDbEntity
  8
0
  6
BYBLOCK
 62
     0
100
AcDbTrace
 10
-1551.880521
 20
-1492.520768
 30
0.0
 11
-1551.047188
 21
-1492.520768
 31
0.0
 12
-1551.463854
 22
-1490.020768
 32
0.0
 13
-1551.463854
 23
-1490.020768
 33
0.0
  0
SOLID
  5
14A3
100
AcDbEntity
  8
0
  6
BYBLOCK
 62
     0
100
AcDbTrace
 10
-1551.880521
 20
-1502.820768
 30
0.0
 11
-1551.047188
 21
-1502.820768
 31
0.0
 12
-1551.463854
 22
-1505.320768
 32
0.0
 13
-1551.463854
 23
-1505.320768
 33
0.0
  0
MTEXT
  5
14A4
100
AcDbEntity
  8
0
  6
BYBLOCK
 62
     0
100
AcDbMText
 10
-1553.838854
 20
-1497.670768
 30
0.0
 40
3.5
 41
0.0
 71
     5
 72
     1
  1
\A1;15.3
 11
0.0
 21
1.0
 31
0.0
  0
POINT
  5
14A5
100
AcDbEntity
  8
DEFPOINTS
  6
BYBLOCK
 62
     0
100
AcDbPoint
 10
-1562.950628
 20
-1490.020768
 30
0.0
  0
POINT
  5
14A6
100
AcDbEntity
  8
DEFPOINTS
  6
BYBLOCK
 62
     0
100
AcDbPoint
 10
-1563.250628
 20
-1505.320768
 30
0.0
  0
POINT
  5
14A7
100
AcDbEntity
  8
DEFPOINTS
  6
BYBLOCK
 62
     0
100
AcDbPoint
 10
-1551.463854
 20
-1505.320768
 30
0.0
  0
ENDBLK
  5
14A8
100
AcDbEntity
  8
0
100
AcDbBlockEnd
  0
BLOCK
  5
14E9
100
AcDbEntity
  8
0
100
AcDbBlockBegin
  2
*D33
 70
    65
 10
0.0
 20
0.0
 30
0.0
  3
*D33
  1

  0
LINE
  5
14EA
100
AcDbEntity
  8
0
  6
BYBLOCK
 62
     0
100
AcDbLine
 10
-1816.721673
 20
-1449.395768
 30
0.0
 11
-1816.721673
 21
-1428.581128
 31
0.0
  0
LINE
  5
14EB
100
AcDbEntity
  8
0
  6
BYBLOCK
 62
     0
100
AcDbLine
 10
-1808.721673
 20
-1449.395768
 30
0.0
 11
-1808.721673
 21
-1428.581128
 31
0.0
  0
LINE
  5
14EC
100
AcDbEntity
  8
0
  6
BYBLOCK
 62
     0
100
AcDbLine
 10
-1814.221673
 20
-1429.831128
 30
0.0
 11
-1811.221673
 21
-1429.831128
 31
0.0
  0
LINE
  5
14ED
100
AcDbEntity
  8
0
  6
BYBLOCK
 62
     0
100
AcDbLine
 10
-1808.721673
 20
-1429.831128
 30
0.0
 11
-1786.229057
 21
-1429.831128
 31
0.0
  0
SOLID
  5
14EE
100
AcDbEntity
  8
0
  6
BYBLOCK
 62
     0
100
AcDbTrace
 10
-1814.221673
 20
-1429.414461
 30
0.0
 11
-1814.221673
 21
-1430.247794
 31
0.0
 12
-1816.721673
 22
-1429.831128
 32
0.0
 13
-1816.721673
 23
-1429.831128
 33
0.0
  0
SOLID
  5
14EF
100
AcDbEntity
  8
0
  6
BYBLOCK
 62
     0
100
AcDbTrace
 10
-1811.221673
 20
-1429.414461
 30
0.0
 11
-1811.221673
 21
-1430.247794
 31
0.0
 12
-1808.721673
 22
-1429.831128
 32
0.0
 13
-1808.721673
 23
-1429.831128
 33
0.0
  0
MTEXT
  5
14F0
100
AcDbEntity
  8
0
  6
BYBLOCK
 62
     0
100
AcDbMText
 10
-1792.205557
 20
-1427.456128
 30
0.0
 40
3.5
 41
0.0
 71
     5
 72
     1
  1
\A2;8{\H2.800000;±0.01}
  0
POINT
  5
14F1
100
AcDbEntity
  8
DEFPOINTS
  6
BYBLOCK
 62
     0
100
AcDbPoint
 10
-1816.721673
 20
-1450.020768
 30
0.0
  0
POINT
  5
14F2
100
AcDbEntity
  8
DEFPOINTS
  6
BYBLOCK
 62
     0
100
AcDbPoint
 10
-1808.721673
 20
-1450.020768
 30
0.0
  0
POINT
  5
14F3
100
AcDbEntity
  8
DEFPOINTS
  6
BYBLOCK
 62
     0
100
AcDbPoint
 10
-1808.721673
 20
-1429.831128
 30
0.0
  0
ENDBLK
  5
14F4
100
AcDbEntity
  8
0
100
AcDbBlockEnd
  0
BLOCK
  5
1502
100
AcDbEntity
  8
0
100
AcDbBlockBegin
  2
*D34
 70
    65
 10
0.0
 20
0.0
 30
0.0
  3
*D34
  1

  0
LINE
  5
1503
100
AcDbEntity
  8
0
  6
BYBLOCK
 62
     0
100
AcDbLine
 10
-1808.559911
 20
-1449.417064
 30
0.0
 11
-1800.802263
 21
-1420.465126
 31
0.0
  0
LINE
  5
1504
100
AcDbEntity
  8
0
  6
BYBLOCK
 62
     0
100
AcDbLine
 10
-1816.883435
 20
-1449.417064
 30
0.0
 11
-1824.641083
 21
-1420.465126
 31
0.0
  0
ARC
  5
1505
100
AcDbEntity
  8
0
  6
BYBLOCK
 62
     0
100
AcDbCircle
 10
-1812.721673
 20
-1464.948971
 30
0.0
 40
44.803065
100
AcDbArc
 50
78.197505
 51
101.802495
  0
SOLID
  5
1506
100
AcDbEntity
  8
0
  6
BYBLOCK
 62
     0
100
AcDbTrace
 10
-1803.461144
 20
-1420.68779
 30
0.0
 11
-1803.654284
 21
-1421.498432
 31
0.0
 12
-1801.125787
 22
-1421.672534
 32
0.0
 13
-1801.125787
 23
-1421.672534
 33
0.0
  0
SOLID
  5
1507
100
AcDbEntity
  8
0
  6
BYBLOCK
 62
     0
100
AcDbTrace
 10
-1821.789062
 20
-1421.498432
 30
0.0
 11
-1821.982203
 21
-1420.68779
 31
0.0
 12
-1824.31756
 22
-1421.672534
 32
0.0
 13
-1824.31756
 23
-1421.672534
 33
0.0
  0
MTEXT
  5
1508
100
AcDbEntity
  8
0
  6
BYBLOCK
 62
     0
100
AcDbMText
 10
-1812.721673
 20
-1417.770906
 30
0.0
 40
3.5
 41
0.0
 71
     5
 72
     1
  1
\A2;30°{\H2.800000;±0°5'}
  0
POINT
  5
1509
100
AcDbEntity
  8
DEFPOINTS
  6
BYBLOCK
 62
     0
100
AcDbPoint
 10
-1808.816829
 20
-1420.316396
 30
0.0
  0
POINT
  5
150A
100
AcDbEntity
  8
DEFPOINTS
  6
BYBLOCK
 62
     0
100
AcDbPoint
 10
-1808.721673
 20
-1450.020768
 30
0.0
  0
POINT
  5
150B
100
AcDbEntity
  8
DEFPOINTS
  6
BYBLOCK
 62
     0
100
AcDbPoint
 10
-1816.721673
 20
-1450.020768
 30
0.0
  0
POINT
  5
150C
100
AcDbEntity
  8
DEFPOINTS
  6
BYBLOCK
 62
     0
100
AcDbPoint
 10
-1812.687599
 20
-1465.076137
 30
0.0
  0
POINT
  5
150D
100
AcDbEntity
  8
DEFPOINTS
  6
BYBLOCK
 62
     0
100
AcDbPoint
 10
-1812.755747
 20
-1465.076137
 30
0.0
  0
ENDBLK
  5
150E
100
AcDbEntity
  8
0
100
AcDbBlockEnd
  0
BLOCK
  5
1DEA
100
AcDbEntity
  8
0
100
AcDbBlockBegin
  2
*D35
 70
    65
 10
0.0
 20
0.0
 30
0.0
  3
*D35
  1

  0
LINE
  5
1DEB
100
AcDbEntity
  8
0
  6
BYBLOCK
 62
     0
100
AcDbLine
 10
-1820.221673
 20
-1475.457115
 30
0.0
 11
-1820.221673
 21
-1476.865212
 31
0.0
  0
LINE
  5
1DEC
100
AcDbEntity
  8
0
  6
BYBLOCK
 62
     0
100
AcDbLine
 10
-1805.221673
 20
-1475.143878
 30
0.0
 11
-1805.221673
 21
-1476.865212
 31
0.0
  0
LINE
  5
1DED
100
AcDbEntity
  8
0
  6
BYBLOCK
 62
     0
100
AcDbLine
 10
-1822.721673
 20
-1475.615212
 30
0.0
 11
-1825.221673
 21
-1475.615212
 31
0.0
  0
LINE
  5
1DEE
100
AcDbEntity
  8
0
  6
BYBLOCK
 62
     0
100
AcDbLine
 10
-1802.721673
 20
-1475.615212
 30
0.0
 11
-1800.221673
 21
-1475.615212
 31
0.0
  0
SOLID
  5
1DEF
100
AcDbEntity
  8
0
  6
BYBLOCK
 62
     0
100
AcDbTrace
 10
-1822.721673
 20
-1475.198545
 30
0.0
 11
-1822.721673
 21
-1476.031879
 31
0.0
 12
-1820.221673
 22
-1475.615212
 32
0.0
 13
-1820.221673
 23
-1475.615212
 33
0.0
  0
SOLID
  5
1DF0
100
AcDbEntity
  8
0
  6
BYBLOCK
 62
     0
100
AcDbTrace
 10
-1802.721673
 20
-1475.198545
 30
0.0
 11
-1802.721673
 21
-1476.031879
 31
0.0
 12
-1805.221673
 22
-1475.615212
 32
0.0
 13
-1805.221673
 23
-1475.615212
 33
0.0
  0
MTEXT
  5
1DF1
100
AcDbEntity
  8
0
  6
BYBLOCK
 62
     0
100
AcDbMText
 10
-1812.721673
 20
-1473.240212
 30
0.0
 40
3.5
 41
0.0
 71
     5
 72
     1
  1
\A2;15{\H2.800000;±0.05}
  0
POINT
  5
1DF2
100
AcDbEntity
  8
DEFPOINTS
  6
BYBLOCK
 62
     0
100
AcDbPoint
 10
-1820.221673
 20
-1474.832115
 30
0.0
  0
POINT
  5
1DF3
100
AcDbEntity
  8
DEFPOINTS
  6
BYBLOCK
 62
     0
100
AcDbPoint
 10
-1805.221673
 20
-1474.518878
 30
0.0
  0
POINT
  5
1DF4
100
AcDbEntity
  8
DEFPOINTS
  6
BYBLOCK
 62
     0
100
AcDbPoint
 10
-1805.221673
 20
-1475.615212
 30
0.0
  0
ENDBLK
  5
1DF5
100
AcDbEntity
  8
0
100
AcDbBlockEnd
  0
BLOCK
  5
153C
100
AcDbEntity
  8
0
100
AcDbBlockBegin
  2
*D36
 70
    65
 10
0.0
 20
0.0
 30
0.0
  3
*D36
  1

  0
LINE
  5
153D
100
AcDbEntity
  8
0
  6
BYBLOCK
 62
     0
100
AcDbLine
 10
-1813.781258
 20
-1464.421025
 30
0.0
 11
-1816.08207
 21
-1471.664385
 31
0.0
  0
SOLID
  5
153E
100
AcDbEntity
  8
0
  6
BYBLOCK
 62
     0
100
AcDbTrace
 10
-1814.178372
 20
-1464.294884
 30
0.0
 11
-1813.384144
 21
-1464.547166
 31
0.0
 12
-1813.024412
 22
-1462.038341
 32
0.0
 13
-1813.024412
 23
-1462.038341
 33
0.0
  0
MTEXT
  5
153F
100
AcDbEntity
  8
0
  6
BYBLOCK
 62
     0
100
AcDbMText
 10
-1817.573637
 20
-1468.515044
 30
0.0
 40
3.5
 41
0.0
 71
     5
 72
     1
  1
\A1;R1
 11
0.302738
 21
0.953074
 31
0.0
  0
POINT
  5
1540
100
AcDbEntity
  8
DEFPOINTS
  6
BYBLOCK
 62
     0
100
AcDbPoint
 10
-1813.024412
 20
-1462.038341
 30
0.0
  0
POINT
  5
1541
100
AcDbEntity
  8
DEFPOINTS
  6
BYBLOCK
 62
     0
100
AcDbPoint
 10
-1812.721673
 20
-1461.085268
 30
0.0
  0
ENDBLK
  5
1542
100
AcDbEntity
  8
0
100
AcDbBlockEnd
  0
BLOCK
  5
155C
100
AcDbEntity
  8
0
100
AcDbBlockBegin
  2
*D37
 70
    65
 10
0.0
 20
0.0
 30
0.0
  3
*D37
  1

  0
LINE
  5
155D
100
AcDbEntity
  8
0
  6
BYBLOCK
 62
     0
100
AcDbLine
 10
-1814.387984
 20
-1449.336873
 30
0.0
 11
-1785.326295
 21
-1434.706263
 31
0.0
  0
SOLID
  5
155E
100
AcDbEntity
  8
0
  6
BYBLOCK
 62
     0
100
AcDbTrace
 10
-1814.575344
 20
-1448.964708
 30
0.0
 11
-1814.200623
 21
-1449.709039
 31
0.0
 12
-1816.620977
 22
-1450.461036
 32
0.0
 13
-1816.620977
 23
-1450.461036
 33
0.0
  0
MTEXT
  5
155F
100
AcDbEntity
  8
0
  6
BYBLOCK
 62
     0
100
AcDbMText
 10
-1795.220018
 20
-1437.028102
 30
0.0
 40
3.5
 41
0.0
 71
     5
 72
     1
  1
\A2;R0.8{\H2.800000;±0.02}
 11
0.893197
 21
0.449665
 31
0.0
  0
POINT
  5
1560
100
AcDbEntity
  8
DEFPOINTS
  6
BYBLOCK
 62
     0
100
AcDbPoint
 10
-1816.620977
 20
-1450.461036
 30
0.0
  0
POINT
  5
1561
100
AcDbEntity
  8
DEFPOINTS
  6
BYBLOCK
 62
     0
100
AcDbPoint
 10
-1817.335535
 20
-1450.820768
 30
0.0
  0
ENDBLK
  5
1562
100
AcDbEntity
  8
0
100
AcDbBlockEnd
  0
BLOCK
  5
1586
100
AcDbEntity
  8
0
100
AcDbBlockBegin
  2
*X38
 70
    65
 10
0.0
 20
0.0
 30
0.0
  3
*X38
  1

  0
LINE
  5
1588
100
AcDbEntity
  8
0
 62
     0
100
AcDbLine
 10
-1815.40675
 20
-1456.0169
 30
0.0
 11
-1815.176665
 21
-1455.786815
 31
0.0
  0
LINE
  5
1589
100
AcDbEntity
  8
0
 62
     0
100
AcDbLine
 10
-1815.523669
 20
-1455.864411
 30
0.0
 11
-1815.233598
 21
-1455.57434
 31
0.0
  0
LINE
  5
158A
100
AcDbEntity
  8
0
 62
     0
100
AcDbLine
 10
-1815.64126
 20
-1455.712595
 30
0.0
 11
-1815.290531
 21
-1455.361865
 31
0.0
  0
LINE
  5
158B
100
AcDbEntity
  8
0
 62
     0
100
AcDbLine
 10
-1815.759582
 20
-1455.561509
 30
0.0
 11
-1815.347463
 21
-1455.14939
 31
0.0
  0
LINE
  5
158C
100
AcDbEntity
  8
0
 62
     0
100
AcDbLine
 10
-1815.878706
 20
-1455.411225
 30
0.0
 11
-1815.404396
 21
-1454.936915
 31
0.0
  0
LINE
  5
158D
100
AcDbEntity
  8
0
 62
     0
100
AcDbLine
 10
-1815.99871
 20
-1455.261822
 30
0.0
 11
-1815.461328
 21
-1454.72444
 31
0.0
  0
LINE
  5
158E
100
AcDbEntity
  8
0
 62
     0
100
AcDbLine
 10
-1816.11969
 20
-1455.113394
 30
0.0
 11
-1815.518261
 21
-1454.511965
 31
0.0
  0
LINE
  5
158F
100
AcDbEntity
  8
0
 62
     0
100
AcDbLine
 10
-1816.241757
 20
-1454.966054
 30
0.0
 11
-1815.575193
 21
-1454.299489
 31
0.0
  0
LINE
  5
1590
100
AcDbEntity
  8
0
 62
     0
100
AcDbLine
 10
-1816.365045
 20
-1454.819933
 30
0.0
 11
-1815.632126
 21
-1454.087014
 31
0.0
  0
LINE
  5
1591
100
AcDbEntity
  8
0
 62
     0
100
AcDbLine
 10
-1816.489713
 20
-1454.675194
 30
0.0
 11
-1815.689058
 21
-1453.874539
 31
0.0
  0
LINE
  5
1592
100
AcDbEntity
  8
0
 62
     0
100
AcDbLine
 10
-1816.61596
 20
-1454.532033
 30
0.0
 11
-1815.745991
 21
-1453.662064
 31
0.0
  0
LINE
  5
1593
100
AcDbEntity
  8
0
 62
     0
100
AcDbLine
 10
-1816.744032
 20
-1454.390698
 30
0.0
 11
-1815.802923
 21
-1453.449589
 31
0.0
  0
LINE
  5
1594
100
AcDbEntity
  8
0
 62
     0
100
AcDbLine
 10
-1816.874242
 20
-1454.2515
 30
0.0
 11
-1815.859856
 21
-1453.237114
 31
0.0
  0
LINE
  5
1595
100
AcDbEntity
  8
0
 62
     0
100
AcDbLine
 10
-1817.006994
 20
-1454.114844
 30
0.0
 11
-1815.916788
 21
-1453.024639
 31
0.0
  0
LINE
  5
1596
100
AcDbEntity
  8
0
 62
     0
100
AcDbLine
 10
-1817.142829
 20
-1453.981272
 30
0.0
 11
-1815.973721
 21
-1452.812163
 31
0.0
  0
LINE
  5
1597
100
AcDbEntity
  8
0
 62
     0
100
AcDbLine
 10
-1817.282486
 20
-1453.851521
 30
0.0
 11
-1816.030654
 21
-1452.599688
 31
0.0
  0
LINE
  5
1598
100
AcDbEntity
  8
0
 62
     0
100
AcDbLine
 10
-1817.427011
 20
-1453.726638
 30
0.0
 11
-1816.087586
 21
-1452.387213
 31
0.0
  0
LINE
  5
1599
100
AcDbEntity
  8
0
 62
     0
100
AcDbLine
 10
-1817.577947
 20
-1453.608166
 30
0.0
 11
-1816.144519
 21
-1452.174738
 31
0.0
  0
LINE
  5
159A
100
AcDbEntity
  8
0
 62
     0
100
AcDbLine
 10
-1817.737644
 20
-1453.498456
 30
0.0
 11
-1816.201451
 21
-1451.962263
 31
0.0
  0
LINE
  5
159B
100
AcDbEntity
  8
0
 62
     0
100
AcDbLine
 10
-1817.909709
 20
-1453.401113
 30
0.0
 11
-1816.258384
 21
-1451.749788
 31
0.0
  0
LINE
  5
159C
100
AcDbEntity
  8
0
 62
     0
100
AcDbLine
 10
-1818.098789
 20
-1453.320785
 30
0.0
 11
-1816.315316
 21
-1451.537313
 31
0.0
  0
LINE
  5
159D
100
AcDbEntity
  8
0
 62
     0
100
AcDbLine
 10
-1818.304606
 20
-1453.257195
 30
0.0
 11
-1816.372249
 21
-1451.324837
 31
0.0
  0
LINE
  5
159E
100
AcDbEntity
  8
0
 62
     0
100
AcDbLine
 10
-1818.509449
 20
-1453.19263
 30
0.0
 11
-1816.429181
 21
-1451.112362
 31
0.0
  0
LINE
  5
159F
100
AcDbEntity
  8
0
 62
     0
100
AcDbLine
 10
-1818.706468
 20
-1453.120241
 30
0.0
 11
-1816.486114
 21
-1450.899887
 31
0.0
  0
LINE
  5
15A0
100
AcDbEntity
  8
0
 62
     0
100
AcDbLine
 10
-1818.900845
 20
-1453.045211
 30
0.0
 11
-1816.543046
 21
-1450.687412
 31
0.0
  0
LINE
  5
15A1
100
AcDbEntity
  8
0
 62
     0
100
AcDbLine
 10
-1819.09744
 20
-1452.972398
 30
0.0
 11
-1816.609609
 21
-1450.484567
 31
0.0
  0
LINE
  5
15A2
100
AcDbEntity
  8
0
 62
     0
100
AcDbLine
 10
-1819.301542
 20
-1452.907092
 30
0.0
 11
-1816.712899
 21
-1450.318449
 31
0.0
  0
LINE
  5
15A3
100
AcDbEntity
  8
0
 62
     0
100
AcDbLine
 10
-1819.520055
 20
-1452.856197
 30
0.0
 11
-1816.849328
 21
-1450.18547
 31
0.0
  0
LINE
  5
15A4
100
AcDbEntity
  8
0
 62
     0
100
AcDbLine
 10
-1819.760396
 20
-1452.827131
 30
0.0
 11
-1817.019222
 21
-1450.085957
 31
0.0
  0
LINE
  5
15A5
100
AcDbEntity
  8
0
 62
     0
100
AcDbLine
 10
-1820.020507
 20
-1452.817834
 30
0.0
 11
-1817.230381
 21
-1450.027709
 31
0.0
  0
LINE
  5
15A6
100
AcDbEntity
  8
0
 62
     0
100
AcDbLine
 10
-1820.221673
 20
-1452.749593
 30
0.0
 11
-1817.492848
 21
-1450.020768
 31
0.0
  0
LINE
  5
15A7
100
AcDbEntity
  8
0
 62
     0
100
AcDbLine
 10
-1820.221673
 20
-1452.480185
 30
0.0
 11
-1817.762256
 21
-1450.020768
 31
0.0
  0
LINE
  5
15A8
100
AcDbEntity
  8
0
 62
     0
100
AcDbLine
 10
-1820.221673
 20
-1452.210777
 30
0.0
 11
-1818.031663
 21
-1450.020768
 31
0.0
  0
LINE
  5
15A9
100
AcDbEntity
  8
0
 62
     0
100
AcDbLine
 10
-1820.221673
 20
-1451.94137
 30
0.0
 11
-1818.301071
 21
-1450.020768
 31
0.0
  0
LINE
  5
15AA
100
AcDbEntity
  8
0
 62
     0
100
AcDbLine
 10
-1820.221673
 20
-1451.671962
 30
0.0
 11
-1818.570479
 21
-1450.020768
 31
0.0
  0
LINE
  5
15AB
100
AcDbEntity
  8
0
 62
     0
100
AcDbLine
 10
-1820.221673
 20
-1451.402554
 30
0.0
 11
-1818.839887
 21
-1450.020768
 31
0.0
  0
LINE
  5
15AC
100
AcDbEntity
  8
0
 62
     0
100
AcDbLine
 10
-1820.221673
 20
-1451.133147
 30
0.0
 11
-1819.109294
 21
-1450.020768
 31
0.0
  0
LINE
  5
15AD
100
AcDbEntity
  8
0
 62
     0
100
AcDbLine
 10
-1820.221673
 20
-1450.863739
 30
0.0
 11
-1819.378702
 21
-1450.020768
 31
0.0
  0
LINE
  5
15AE
100
AcDbEntity
  8
0
 62
     0
100
AcDbLine
 10
-1820.221673
 20
-1450.594331
 30
0.0
 11
-1819.64811
 21
-1450.020768
 31
0.0
  0
LINE
  5
15AF
100
AcDbEntity
  8
0
 62
     0
100
AcDbLine
 10
-1815.290449
 20
-1456.170007
 30
0.0
 11
-1815.119733
 21
-1455.999291
 31
0.0
  0
LINE
  5
15B0
100
AcDbEntity
  8
0
 62
     0
100
AcDbLine
 10
-1815.174721
 20
-1456.323686
 30
0.0
 11
-1815.0628
 21
-1456.211766
 31
0.0
  0
LINE
  5
15B1
100
AcDbEntity
  8
0
 62
     0
100
AcDbLine
 10
-1815.059524
 20
-1456.477897
 30
0.0
 11
-1815.005868
 21
-1456.424241
 31
0.0
  0
LINE
  5
15B2
100
AcDbEntity
  8
0
 62
     0
100
AcDbLine
 10
-1808.859677
 20
-1450.547458
 30
0.0
 11
-1808.381121
 21
-1450.068902
 31
0.0
  0
LINE
  5
15B3
100
AcDbEntity
  8
0
 62
     0
100
AcDbLine
 10
-1808.962552
 20
-1450.919741
 30
0.0
 11
-1808.063579
 21
-1450.020768
 31
0.0
  0
LINE
  5
15B4
100
AcDbEntity
  8
0
 62
     0
100
AcDbLine
 10
-1809.061162
 20
-1451.287759
 30
0.0
 11
-1807.794172
 21
-1450.020768
 31
0.0
  0
LINE
  5
15B5
100
AcDbEntity
  8
0
 62
     0
100
AcDbLine
 10
-1809.159773
 20
-1451.655776
 30
0.0
 11
-1807.524764
 21
-1450.020768
 31
0.0
  0
LINE
  5
15B6
100
AcDbEntity
  8
0
 62
     0
100
AcDbLine
 10
-1809.258383
 20
-1452.023794
 30
0.0
 11
-1807.255356
 21
-1450.020768
 31
0.0
  0
LINE
  5
15B7
100
AcDbEntity
  8
0
 62
     0
100
AcDbLine
 10
-1809.356993
 20
-1452.391812
 30
0.0
 11
-1806.985948
 21
-1450.020768
 31
0.0
  0
LINE
  5
15B8
100
AcDbEntity
  8
0
 62
     0
100
AcDbLine
 10
-1809.455603
 20
-1452.75983
 30
0.0
 11
-1806.716541
 21
-1450.020768
 31
0.0
  0
LINE
  5
15B9
100
AcDbEntity
  8
0
 62
     0
100
AcDbLine
 10
-1809.554213
 20
-1453.127847
 30
0.0
 11
-1806.447133
 21
-1450.020768
 31
0.0
  0
LINE
  5
15BA
100
AcDbEntity
  8
0
 62
     0
100
AcDbLine
 10
-1809.652823
 20
-1453.495865
 30
0.0
 11
-1806.177725
 21
-1450.020768
 31
0.0
  0
LINE
  5
15BB
100
AcDbEntity
  8
0
 62
     0
100
AcDbLine
 10
-1809.751433
 20
-1453.863883
 30
0.0
 11
-1805.908318
 21
-1450.020768
 31
0.0
  0
LINE
  5
15BC
100
AcDbEntity
  8
0
 62
     0
100
AcDbLine
 10
-1809.850043
 20
-1454.231901
 30
0.0
 11
-1805.680292
 21
-1450.062149
 31
0.0
  0
LINE
  5
15BD
100
AcDbEntity
  8
0
 62
     0
100
AcDbLine
 10
-1809.948653
 20
-1454.599918
 30
0.0
 11
-1805.545588
 21
-1450.196853
 31
0.0
  0
LINE
  5
15BE
100
AcDbEntity
  8
0
 62
     0
100
AcDbLine
 10
-1810.047263
 20
-1454.967936
 30
0.0
 11
-1805.410884
 21
-1450.331557
 31
0.0
  0
LINE
  5
15BF
100
AcDbEntity
  8
0
 62
     0
100
AcDbLine
 10
-1810.145873
 20
-1455.335954
 30
0.0
 11
-1805.27618
 21
-1450.466261
 31
0.0
  0
LINE
  5
15C0
100
AcDbEntity
  8
0
 62
     0
100
AcDbLine
 10
-1810.244483
 20
-1455.703971
 30
0.0
 11
-1805.221673
 21
-1450.681162
 31
0.0
  0
LINE
  5
15C1
100
AcDbEntity
  8
0
 62
     0
100
AcDbLine
 10
-1807.797627
 20
-1453.526523
 30
0.0
 11
-1805.221673
 21
-1450.950569
 31
0.0
  0
LINE
  5
15C2
100
AcDbEntity
  8
0
 62
     0
100
AcDbLine
 10
-1807.307986
 20
-1453.306289
 30
0.0
 11
-1805.221673
 21
-1451.219977
 31
0.0
  0
LINE
  5
15C3
100
AcDbEntity
  8
0
 62
     0
100
AcDbLine
 10
-1806.920113
 20
-1453.187825
 30
0.0
 11
-1805.221673
 21
-1451.489385
 31
0.0
  0
LINE
  5
15C4
100
AcDbEntity
  8
0
 62
     0
100
AcDbLine
 10
-1806.486891
 20
-1453.02401
 30
0.0
 11
-1805.221673
 21
-1451.758792
 31
0.0
  0
LINE
  5
15C5
100
AcDbEntity
  8
0
 62
     0
100
AcDbLine
 10
-1806.085215
 20
-1452.891742
 30
0.0
 11
-1805.221673
 21
-1452.0282
 31
0.0
  0
LINE
  5
15C6
100
AcDbEntity
  8
0
 62
     0
100
AcDbLine
 10
-1805.757599
 20
-1452.833533
 30
0.0
 11
-1805.221673
 21
-1452.297608
 31
0.0
  0
LINE
  5
15C7
100
AcDbEntity
  8
0
 62
     0
100
AcDbLine
 10
-1805.47306
 20
-1452.818402
 30
0.0
 11
-1805.221673
 21
-1452.567015
 31
0.0
  0
ENDBLK
  5
15C8
100
AcDbEntity
  8
0
100
AcDbBlockEnd
  0
BLOCK
  5
1678
100
AcDbEntity
  8
0
100
AcDbBlockBegin
  2
*D39
 70
    65
 10
0.0
 20
0.0
 30
0.0
  3
*D39
  1

  0
LINE
  5
1679
100
AcDbEntity
  8
0
  6
BYBLOCK
 62
     0
100
AcDbLine
 10
-1578.170492
 20
-1448.895768
 30
0.0
 11
-1578.170492
 21
-1428.823133
 31
0.0
  0
LINE
  5
167A
100
AcDbEntity
  8
0
  6
BYBLOCK
 62
     0
100
AcDbLine
 10
-1570.730764
 20
-1448.895768
 30
0.0
 11
-1570.730764
 21
-1428.823133
 31
0.0
  0
LINE
  5
167B
100
AcDbEntity
  8
0
  6
BYBLOCK
 62
     0
100
AcDbLine
 10
-1575.670492
 20
-1430.073133
 30
0.0
 11
-1573.230764
 21
-1430.073133
 31
0.0
  0
LINE
  5
167C
100
AcDbEntity
  8
0
  6
BYBLOCK
 62
     0
100
AcDbLine
 10
-1570.730764
 20
-1430.073133
 30
0.0
 11
-1542.785785
 21
-1430.073133
 31
0.0
  0
SOLID
  5
167D
100
AcDbEntity
  8
0
  6
BYBLOCK
 62
     0
100
AcDbTrace
 10
-1575.670492
 20
-1429.656466
 30
0.0
 11
-1575.670492
 21
-1430.489799
 31
0.0
 12
-1578.170492
 22
-1430.073133
 32
0.0
 13
-1578.170492
 23
-1430.073133
 33
0.0
  0
SOLID
  5
167E
100
AcDbEntity
  8
0
  6
BYBLOCK
 62
     0
100
AcDbTrace
 10
-1573.230764
 20
-1429.656466
 30
0.0
 11
-1573.230764
 21
-1430.489799
 31
0.0
 12
-1570.730764
 22
-1430.073133
 32
0.0
 13
-1570.730764
 23
-1430.073133
 33
0.0
  0
MTEXT
  5
167F
100
AcDbEntity
  8
0
  6
BYBLOCK
 62
     0
100
AcDbMText
 10
-1551.803785
 20
-1426.320364
 30
0.0
 40
3.5
 41
0.0
 71
     5
 72
     1
  1
\A2;7.44{\H2.800000;\S-0.1^  0;}
  0
POINT
  5
1680
100
AcDbEntity
  8
DEFPOINTS
  6
BYBLOCK
 62
     0
100
AcDbPoint
 10
-1578.170492
 20
-1449.520768
 30
0.0
  0
POINT
  5
1681
100
AcDbEntity
  8
DEFPOINTS
  6
BYBLOCK
 62
     0
100
AcDbPoint
 10
-1570.730764
 20
-1449.520768
 30
0.0
  0
POINT
  5
1682
100
AcDbEntity
  8
DEFPOINTS
  6
BYBLOCK
 62
     0
100
AcDbPoint
 10
-1570.730764
 20
-1430.073133
 30
0.0
  0
ENDBLK
  5
1683
100
AcDbEntity
  8
0
100
AcDbBlockEnd
  0
BLOCK
  5
166A
100
AcDbEntity
  8
0
100
AcDbBlockBegin
  2
*D40
 70
    65
 10
0.0
 20
0.0
 30
0.0
  3
*D40
  1

  0
LINE
  5
166B
100
AcDbEntity
  8
0
  6
BYBLOCK
 62
     0
100
AcDbLine
 10
-1570.569002
 20
-1448.917064
 30
0.0
 11
-1562.487546
 21
-1418.756659
 31
0.0
  0
LINE
  5
166C
100
AcDbEntity
  8
0
  6
BYBLOCK
 62
     0
100
AcDbLine
 10
-1578.332254
 20
-1448.917064
 30
0.0
 11
-1586.41371
 21
-1418.756659
 31
0.0
  0
ARC
  5
166D
100
AcDbEntity
  8
0
  6
BYBLOCK
 62
     0
100
AcDbCircle
 10
-1574.450628
 20
-1463.40349
 30
0.0
 40
44.9718
100
AcDbArc
 50
78.185505
 51
101.814495
  0
SOLID
  5
166E
100
AcDbEntity
  8
0
  6
BYBLOCK
 62
     0
100
AcDbTrace
 10
-1565.146323
 20
-1418.979078
 30
0.0
 11
-1565.339549
 21
-1419.7897
 31
0.0
 12
-1562.81107
 22
-1419.964067
 32
0.0
 13
-1562.81107
 23
-1419.964067
 33
0.0
  0
SOLID
  5
166F
100
AcDbEntity
  8
0
  6
BYBLOCK
 62
     0
100
AcDbTrace
 10
-1583.561707
 20
-1419.7897
 30
0.0
 11
-1583.754933
 21
-1418.979078
 31
0.0
 12
-1586.090186
 22
-1419.964067
 32
0.0
 13
-1586.090186
 23
-1419.964067
 33
0.0
  0
MTEXT
  5
1670
100
AcDbEntity
  8
0
  6
BYBLOCK
 62
     0
100
AcDbMText
 10
-1574.450628
 20
-1416.05669
 30
0.0
 40
3.5
 41
0.0
 71
     5
 72
     1
  1
\A1;30°
  0
POINT
  5
1671
100
AcDbEntity
  8
DEFPOINTS
  6
BYBLOCK
 62
     0
100
AcDbPoint
 10
-1578.370179
 20
-1418.602821
 30
0.0
  0
POINT
  5
1672
100
AcDbEntity
  8
DEFPOINTS
  6
BYBLOCK
 62
     0
100
AcDbPoint
 10
-1578.170492
 20
-1449.520768
 30
0.0
  0
POINT
  5
1673
100
AcDbEntity
  8
DEFPOINTS
  6
BYBLOCK
 62
     0
100
AcDbPoint
 10
-1570.730764
 20
-1449.520768
 30
0.0
  0
POINT
  5
1674
100
AcDbEntity
  8
DEFPOINTS
  6
BYBLOCK
 62
     0
100
AcDbPoint
 10
-1573.677887
 20
-1460.519582
 30
0.0
  0
POINT
  5
1675
100
AcDbEntity
  8
DEFPOINTS
  6
BYBLOCK
 62
     0
100
AcDbPoint
 10
-1575.223369
 20
-1460.519582
 30
0.0
  0
ENDBLK
  5
1676
100
AcDbEntity
  8
0
100
AcDbBlockEnd
  0
BLOCK
  5
1901
100
AcDbEntity
  8
0
100
AcDbBlockBegin
  2
*D41
 70
    65
 10
0.0
 20
0.0
 30
0.0
  3
*D41
  1

  0
LINE
  5
1902
100
AcDbEntity
  8
0
  6
BYBLOCK
 62
     0
100
AcDbLine
 10
-1581.950628
 20
-1470.670768
 30
0.0
 11
-1581.950628
 21
-1472.55748
 31
0.0
  0
LINE
  5
1903
100
AcDbEntity
  8
0
  6
BYBLOCK
 62
     0
100
AcDbLine
 10
-1566.950628
 20
-1470.670768
 30
0.0
 11
-1566.950628
 21
-1472.55748
 31
0.0
  0
LINE
  5
1904
100
AcDbEntity
  8
0
  6
BYBLOCK
 62
     0
100
AcDbLine
 10
-1569.450628
 20
-1471.30748
 30
0.0
 11
-1579.450628
 21
-1471.30748
 31
0.0
  0
LINE
  5
1905
100
AcDbEntity
  8
0
  6
BYBLOCK
 62
     0
100
AcDbLine
 10
-1581.950628
 20
-1471.30748
 30
0.0
 11
-1599.731917
 21
-1471.30748
 31
0.0
  0
SOLID
  5
1906
100
AcDbEntity
  8
0
  6
BYBLOCK
 62
     0
100
AcDbTrace
 10
-1569.450628
 20
-1470.890814
 30
0.0
 11
-1569.450628
 21
-1471.724147
 31
0.0
 12
-1566.950628
 22
-1471.30748
 32
0.0
 13
-1566.950628
 23
-1471.30748
 33
0.0
  0
SOLID
  5
1907
100
AcDbEntity
  8
0
  6
BYBLOCK
 62
     0
100
AcDbTrace
 10
-1579.450628
 20
-1470.890814
 30
0.0
 11
-1579.450628
 21
-1471.724147
 31
0.0
 12
-1581.950628
 22
-1471.30748
 32
0.0
 13
-1581.950628
 23
-1471.30748
 33
0.0
  0
MTEXT
  5
1908
100
AcDbEntity
  8
0
  6
BYBLOCK
 62
     0
100
AcDbMText
 10
-1592.421128
 20
-1468.93248
 30
0.0
 40
3.5
 41
0.0
 71
     5
 72
     1
  1
\A2;15{\H2.800000;±0.05}
  0
POINT
  5
1909
100
AcDbEntity
  8
DEFPOINTS
  6
BYBLOCK
 62
     0
100
AcDbPoint
 10
-1581.950628
 20
-1470.045768
 30
0.0
  0
POINT
  5
190A
100
AcDbEntity
  8
DEFPOINTS
  6
BYBLOCK
 62
     0
100
AcDbPoint
 10
-1566.950628
 20
-1470.045768
 30
0.0
  0
POINT
  5
190B
100
AcDbEntity
  8
DEFPOINTS
  6
BYBLOCK
 62
     0
100
AcDbPoint
 10
-1566.950628
 20
-1471.30748
 30
0.0
  0
ENDBLK
  5
190C
100
AcDbEntity
  8
0
100
AcDbBlockEnd
  0
BLOCK
  5
1702
100
AcDbEntity
  8
0
100
AcDbBlockBegin
  2
*D42
 70
    65
 10
0.0
 20
0.0
 30
0.0
  3
*D42
  1

  0
LINE
  5
1703
100
AcDbEntity
  8
0
  6
BYBLOCK
 62
     0
100
AcDbLine
 10
-1577.748496
 20
-1460.193925
 30
0.0
 11
-1595.848516
 21
-1459.542987
 31
0.0
  0
SOLID
  5
1704
100
AcDbEntity
  8
0
  6
BYBLOCK
 62
     0
100
AcDbTrace
 10
-1577.733521
 20
-1459.777527
 30
0.0
 11
-1577.763471
 21
-1460.610322
 31
0.0
 12
-1575.250111
 22
-1460.283775
 32
0.0
 13
-1575.250111
 23
-1460.283775
 33
0.0
  0
MTEXT
  5
1705
100
AcDbEntity
  8
0
  6
BYBLOCK
 62
     0
100
AcDbMText
 10
-1590.906298
 20
-1457.344191
 30
0.0
 40
3.5
 41
0.0
 71
     5
 72
     1
  1
\A1;R0.8
 11
0.999354
 21
-0.03594
 31
0.0
  0
POINT
  5
1706
100
AcDbEntity
  8
DEFPOINTS
  6
BYBLOCK
 62
     0
100
AcDbPoint
 10
-1575.250111
 20
-1460.283775
 30
0.0
  0
POINT
  5
1707
100
AcDbEntity
  8
DEFPOINTS
  6
BYBLOCK
 62
     0
100
AcDbPoint
 10
-1574.450628
 20
-1460.312527
 30
0.0
  0
ENDBLK
  5
1708
100
AcDbEntity
  8
0
100
AcDbBlockEnd
  0
BLOCK
  5
16EA
100
AcDbEntity
  8
0
100
AcDbBlockBegin
  2
*D43
 70
    65
 10
0.0
 20
0.0
 30
0.0
  3
*D43
  1

  0
LINE
  5
16EB
100
AcDbEntity
  8
0
  6
BYBLOCK
 62
     0
100
AcDbLine
 10
-1566.875628
 20
-1449.520768
 30
0.0
 11
-1553.383151
 21
-1449.520768
 31
0.0
  0
LINE
  5
16EC
100
AcDbEntity
  8
0
  6
BYBLOCK
 62
     0
100
AcDbLine
 10
-1573.825628
 20
-1461.112527
 30
0.0
 11
-1553.383151
 21
-1461.112527
 31
0.0
  0
LINE
  5
16ED
100
AcDbEntity
  8
0
  6
BYBLOCK
 62
     0
100
AcDbLine
 10
-1554.633151
 20
-1452.020768
 30
0.0
 11
-1554.633151
 21
-1458.612527
 31
0.0
  0
LINE
  5
16EE
100
AcDbEntity
  8
0
  6
BYBLOCK
 62
     0
100
AcDbLine
 10
-1554.633151
 20
-1461.112527
 30
0.0
 11
-1554.633151
 21
-1480.17198
 31
0.0
  0
SOLID
  5
16EF
100
AcDbEntity
  8
0
  6
BYBLOCK
 62
     0
100
AcDbTrace
 10
-1555.049818
 20
-1452.020768
 30
0.0
 11
-1554.216484
 21
-1452.020768
 31
0.0
 12
-1554.633151
 22
-1449.520768
 32
0.0
 13
-1554.633151
 23
-1449.520768
 33
0.0
  0
SOLID
  5
16F0
100
AcDbEntity
  8
0
  6
BYBLOCK
 62
     0
100
AcDbTrace
 10
-1555.049818
 20
-1458.612527
 30
0.0
 11
-1554.216484
 21
-1458.612527
 31
0.0
 12
-1554.633151
 22
-1461.112527
 32
0.0
 13
-1554.633151
 23
-1461.112527
 33
0.0
  0
MTEXT
  5
16F1
100
AcDbEntity
  8
0
  6
BYBLOCK
 62
     0
100
AcDbMText
 10
-1562.138689
 20
-1470.954753
 30
0.0
 40
3.5
 41
0.0
 71
     5
 72
     1
  1
\A2;11.59{\H2.800000;\S-0.1^  0;}
 11
0.0
 21
1.0
 31
0.0
  0
POINT
  5
16F2
100
AcDbEntity
  8
DEFPOINTS
  6
BYBLOCK
 62
     0
100
AcDbPoint
 10
-1567.500628
 20
-1449.520768
 30
0.0
  0
POINT
  5
16F3
100
AcDbEntity
  8
DEFPOINTS
  6
BYBLOCK
 62
     0
100
AcDbPoint
 10
-1574.450628
 20
-1461.112527
 30
0.0
  0
POINT
  5
16F4
100
AcDbEntity
  8
DEFPOINTS
  6
BYBLOCK
 62
     0
100
AcDbPoint
 10
-1554.633151
 20
-1461.112527
 30
0.0
  0
ENDBLK
  5
16F5
100
AcDbEntity
  8
0
100
AcDbBlockEnd
  0
BLOCK
  5
1732
100
AcDbEntity
  8
0
100
AcDbBlockBegin
  2
*D44
 70
    65
 10
0.0
 20
0.0
 30
0.0
  3
*D44
  1

  0
LINE
  5
1733
100
AcDbEntity
  8
0
  6
BYBLOCK
 62
     0
100
AcDbLine
 10
-1672.269868
 20
-1425.632732
 30
0.0
 11
-1652.128208
 21
-1425.632732
 31
0.0
  0
LINE
  5
1734
100
AcDbEntity
  8
0
  6
BYBLOCK
 62
     0
100
AcDbLine
 10
-1665.319868
 20
-1426.34112
 30
0.0
 11
-1652.128208
 21
-1426.34112
 31
0.0
  0
LINE
  5
1735
100
AcDbEntity
  8
0
  6
BYBLOCK
 62
     0
100
AcDbLine
 10
-1653.378208
 20
-1423.132732
 30
0.0
 11
-1653.378208
 21
-1420.632732
 31
0.0
  0
LINE
  5
1736
100
AcDbEntity
  8
0
  6
BYBLOCK
 62
     0
100
AcDbLine
 10
-1653.378208
 20
-1428.84112
 30
0.0
 11
-1653.378208
 21
-1447.83712
 31
0.0
  0
SOLID
  5
1737
100
AcDbEntity
  8
0
  6
BYBLOCK
 62
     0
100
AcDbTrace
 10
-1653.794875
 20
-1423.132732
 30
0.0
 11
-1652.961542
 21
-1423.132732
 31
0.0
 12
-1653.378208
 22
-1425.632732
 32
0.0
 13
-1653.378208
 23
-1425.632732
 33
0.0
  0
SOLID
  5
1738
100
AcDbEntity
  8
0
  6
BYBLOCK
 62
     0
100
AcDbTrace
 10
-1653.794875
 20
-1428.84112
 30
0.0
 11
-1652.961542
 21
-1428.84112
 31
0.0
 12
-1653.378208
 22
-1426.34112
 32
0.0
 13
-1653.378208
 23
-1426.34112
 33
0.0
  0
MTEXT
  5
1739
100
AcDbEntity
  8
0
  6
BYBLOCK
 62
     0
100
AcDbMText
 10
-1657.130977
 20
-1439.58912
 30
0.0
 40
3.5
 41
0.0
 71
     5
 72
     1
  1
\A2;0.71{\H2.800000;\S+0.1^  0;}
 11
0.0
 21
1.0
 31
0.0
  0
POINT
  5
173A
100
AcDbEntity
  8
DEFPOINTS
  6
BYBLOCK
 62
     0
100
AcDbPoint
 10
-1672.894868
 20
-1425.632732
 30
0.0
  0
POINT
  5
173B
100
AcDbEntity
  8
DEFPOINTS
  6
BYBLOCK
 62
     0
100
AcDbPoint
 10
-1665.944868
 20
-1426.34112
 30
0.0
  0
POINT
  5
173C
100
AcDbEntity
  8
DEFPOINTS
  6
BYBLOCK
 62
     0
100
AcDbPoint
 10
-1653.378208
 20
-1426.34112
 30
0.0
  0
ENDBLK
  5
173D
100
AcDbEntity
  8
0
100
AcDbBlockEnd
  0
BLOCK
  5
174F
100
AcDbEntity
  8
0
100
AcDbBlockBegin
  2
*D45
 70
    65
 10
0.0
 20
0.0
 30
0.0
  3
*D45
  1

  0
LINE
  5
1750
100
AcDbEntity
  8
0
  6
BYBLOCK
 62
     0
100
AcDbLine
 10
-1668.77583
 20
-1424.988075
 30
0.0
 11
-1655.356755
 21
-1413.114442
 31
0.0
  0
SOLID
  5
1751
100
AcDbEntity
  8
0
  6
BYBLOCK
 62
     0
100
AcDbTrace
 10
-1669.051941
 20
-1424.676026
 30
0.0
 11
-1668.49972
 21
-1425.300123
 31
0.0
 12
-1670.64812
 22
-1426.644737
 32
0.0
 13
-1670.64812
 23
-1426.644737
 33
0.0
  0
MTEXT
  5
1752
100
AcDbEntity
  8
0
  6
BYBLOCK
 62
     0
100
AcDbMText
 10
-1662.703977
 20
-1416.444252
 30
0.0
 40
3.5
 41
0.0
 71
     5
 72
     1
  1
\A2;\U+22056{\H2.800000;±0.01}
 11
0.748916
 21
0.662665
 31
0.0
  0
POINT
  5
1753
100
AcDbEntity
  8
DEFPOINTS
  6
BYBLOCK
 62
     0
100
AcDbPoint
 10
-1670.64812
 20
-1426.644737
 30
0.0
  0
POINT
  5
1754
100
AcDbEntity
  8
DEFPOINTS
  6
BYBLOCK
 62
     0
100
AcDbPoint
 10
-1675.141615
 20
-1430.620727
 30
0.0
  0
ENDBLK
  5
1755
100
AcDbEntity
  8
0
100
AcDbBlockEnd
  0
BLOCK
  5
177A
100
AcDbEntity
  8
0
100
AcDbBlockBegin
  2
*D46
 70
    65
 10
0.0
 20
0.0
 30
0.0
  3
*D46
  1

  0
LINE
  5
177B
100
AcDbEntity
  8
0
  6
BYBLOCK
 62
     0
100
AcDbLine
 10
-1910.259656
 20
-1430.844441
 30
0.0
 11
-1907.682935
 21
-1429.308047
 31
0.0
  0
LINE
  5
177C
100
AcDbEntity
  8
0
  6
BYBLOCK
 62
     0
100
AcDbLine
 10
-1905.535667
 20
-1428.027718
 30
0.0
 11
-1890.145771
 21
-1418.851346
 31
0.0
  0
SOLID
  5
177D
100
AcDbEntity
  8
0
  6
BYBLOCK
 62
     0
100
AcDbTrace
 10
-1910.473044
 20
-1430.486563
 30
0.0
 11
-1910.046268
 21
-1431.202319
 31
0.0
 12
-1912.406924
 22
-1432.12477
 32
0.0
 13
-1912.406924
 23
-1432.12477
 33
0.0
  0
SOLID
  5
177E
100
AcDbEntity
  8
0
  6
BYBLOCK
 62
     0
100
AcDbTrace
 10
-1907.896323
 20
-1428.950169
 30
0.0
 11
-1907.469547
 21
-1429.665925
 31
0.0
 12
-1905.535667
 22
-1428.027718
 32
0.0
 13
-1905.535667
 23
-1428.027718
 33
0.0
  0
MTEXT
  5
177F
100
AcDbEntity
  8
0
  6
BYBLOCK
 62
     0
100
AcDbMText
 10
-1897.983397
 20
-1420.759463
 30
0.0
 40
3.5
 41
0.0
 71
     5
 72
     1
  1
\A2;\U+22058{\H2.800000;±0.01}
 11
0.858907
 21
0.512131
 31
0.0
  0
POINT
  5
1780
100
AcDbEntity
  8
DEFPOINTS
  6
BYBLOCK
 62
     0
100
AcDbPoint
 10
-1905.535667
 20
-1428.027718
 30
0.0
  0
POINT
  5
1781
100
AcDbEntity
  8
DEFPOINTS
  6
BYBLOCK
 62
     0
100
AcDbPoint
 10
-1912.406924
 20
-1432.12477
 30
0.0
  0
ENDBLK
  5
1782
100
AcDbEntity
  8
0
100
AcDbBlockEnd
  0
BLOCK
  5
1E53
100
AcDbEntity
  8
0
100
AcDbBlockBegin
  2
*D47
 70
    65
 10
0.0
 20
0.0
 30
0.0
  3
*D47
  1

  0
LINE
  5
1E54
100
AcDbEntity
  8
0
  6
BYBLOCK
 62
     0
100
AcDbLine
 10
-1909.596295
 20
-1426.076244
 30
0.0
 11
-1925.699733
 21
-1426.076244
 31
0.0
  0
LINE
  5
1E55
100
AcDbEntity
  8
0
  6
BYBLOCK
 62
     0
100
AcDbLine
 10
-1916.596295
 20
-1430.599982
 30
0.0
 11
-1925.699733
 21
-1430.599982
 31
0.0
  0
LINE
  5
1E56
100
AcDbEntity
  8
0
  6
BYBLOCK
 62
     0
100
AcDbLine
 10
-1924.449733
 20
-1423.576244
 30
0.0
 11
-1924.449733
 21
-1421.076244
 31
0.0
  0
LINE
  5
1E57
100
AcDbEntity
  8
0
  6
BYBLOCK
 62
     0
100
AcDbLine
 10
-1924.449733
 20
-1433.099982
 30
0.0
 11
-1924.449733
 21
-1455.362176
 31
0.0
  0
SOLID
  5
1E58
100
AcDbEntity
  8
0
  6
BYBLOCK
 62
     0
100
AcDbTrace
 10
-1924.8664
 20
-1423.576244
 30
0.0
 11
-1924.033066
 21
-1423.576244
 31
0.0
 12
-1924.449733
 22
-1426.076244
 32
0.0
 13
-1924.449733
 23
-1426.076244
 33
0.0
  0
SOLID
  5
1E59
100
AcDbEntity
  8
0
  6
BYBLOCK
 62
     0
100
AcDbTrace
 10
-1924.8664
 20
-1433.099982
 30
0.0
 11
-1924.033066
 21
-1433.099982
 31
0.0
 12
-1924.449733
 22
-1430.599982
 32
0.0
 13
-1924.449733
 23
-1430.599982
 33
0.0
  0
MTEXT
  5
1E5A
100
AcDbEntity
  8
0
  6
BYBLOCK
 62
     0
100
AcDbMText
 10
-1926.825078
 20
-1445.481079
 30
0.0
 40
3.5
 41
0.0
 71
     5
 72
     1
  1
\A2;4.52{\H2.800000;±0.02}
 11
0.0
 21
1.0
 31
0.0
  0
POINT
  5
1E5B
100
AcDbEntity
  8
DEFPOINTS
  6
BYBLOCK
 62
     0
100
AcDbPoint
 10
-1908.971295
 20
-1426.076244
 30
0.0
  0
POINT
  5
1E5C
100
AcDbEntity
  8
DEFPOINTS
  6
BYBLOCK
 62
     0
100
AcDbPoint
 10
-1915.971295
 20
-1430.599982
 30
0.0
  0
POINT
  5
1E5D
100
AcDbEntity
  8
DEFPOINTS
  6
BYBLOCK
 62
     0
100
AcDbPoint
 10
-1924.449733
 20
-1430.599982
 30
0.0
  0
ENDBLK
  5
1E5E
100
AcDbEntity
  8
0
100
AcDbBlockEnd
  0
BLOCK
  5
1D93
100
AcDbEntity
  8
0
100
AcDbBlockBegin
  2
*X48
 70
    65
 10
0.0
 20
0.0
 30
0.0
  3
*X48
  1

  0
LINE
  5
1D95
100
AcDbEntity
  8
0
 62
     0
100
AcDbLine
 10
-1576.794967
 20
-1456.100325
 30
0.0
 11
-1576.489385
 21
-1455.794743
 31
0.0
  0
LINE
  5
1D96
100
AcDbEntity
  8
0
 62
     0
100
AcDbLine
 10
-1570.919396
 20
-1450.224754
 30
0.0
 11
-1570.21541
 21
-1449.520768
 31
0.0
  0
LINE
  5
1D97
100
AcDbEntity
  8
0
 62
     0
100
AcDbLine
 10
-1576.922594
 20
-1455.868741
 30
0.0
 11
-1576.565295
 21
-1455.511443
 31
0.0
  0
LINE
  5
1D98
100
AcDbEntity
  8
0
 62
     0
100
AcDbLine
 10
-1570.787916
 20
-1449.734064
 30
0.0
 11
-1570.57462
 21
-1449.520768
 31
0.0
  0
LINE
  5
1D99
100
AcDbEntity
  8
0
 62
     0
100
AcDbLine
 10
-1577.050556
 20
-1455.637494
 30
0.0
 11
-1576.641205
 21
-1455.228143
 31
0.0
  0
LINE
  5
1D9A
100
AcDbEntity
  8
0
 62
     0
100
AcDbLine
 10
-1577.178916
 20
-1455.406643
 30
0.0
 11
-1576.717116
 21
-1454.944843
 31
0.0
  0
LINE
  5
1D9B
100
AcDbEntity
  8
0
 62
     0
100
AcDbLine
 10
-1577.307753
 20
-1455.17627
 30
0.0
 11
-1576.793026
 21
-1454.661542
 31
0.0
  0
LINE
  5
1D9C
100
AcDbEntity
  8
0
 62
     0
100
AcDbLine
 10
-1577.437176
 20
-1454.946482
 30
0.0
 11
-1576.868936
 21
-1454.378242
 31
0.0
  0
LINE
  5
1D9D
100
AcDbEntity
  8
0
 62
     0
100
AcDbLine
 10
-1577.567339
 20
-1454.717435
 30
0.0
 11
-1576.944846
 21
-1454.094942
 31
0.0
  0
LINE
  5
1D9E
100
AcDbEntity
  8
0
 62
     0
100
AcDbLine
 10
-1577.698477
 20
-1454.489363
 30
0.0
 11
-1577.020756
 21
-1453.811642
 31
0.0
  0
LINE
  5
1D9F
100
AcDbEntity
  8
0
 62
     0
100
AcDbLine
 10
-1577.830965
 20
-1454.262641
 30
0.0
 11
-1577.096666
 21
-1453.528342
 31
0.0
  0
LINE
  5
1DA0
100
AcDbEntity
  8
0
 62
     0
100
AcDbLine
 10
-1577.965488
 20
-1454.037953
 30
0.0
 11
-1577.172576
 21
-1453.245041
 31
0.0
  0
LINE
  5
1DA1
100
AcDbEntity
  8
0
 62
     0
100
AcDbLine
 10
-1578.103523
 20
-1453.816778
 30
0.0
 11
-1577.248486
 21
-1452.961741
 31
0.0
  0
LINE
  5
1DA2
100
AcDbEntity
  8
0
 62
     0
100
AcDbLine
 10
-1578.249711
 20
-1453.603756
 30
0.0
 11
-1577.324396
 21
-1452.678441
 31
0.0
  0
LINE
  5
1DA3
100
AcDbEntity
  8
0
 62
     0
100
AcDbLine
 10
-1578.470237
 20
-1453.465071
 30
0.0
 11
-1577.400306
 21
-1452.395141
 31
0.0
  0
LINE
  5
1DA4
100
AcDbEntity
  8
0
 62
     0
100
AcDbLine
 10
-1578.809396
 20
-1453.445021
 30
0.0
 11
-1577.476216
 21
-1452.111841
 31
0.0
  0
LINE
  5
1DA5
100
AcDbEntity
  8
0
 62
     0
100
AcDbLine
 10
-1579.141839
 20
-1453.418253
 30
0.0
 11
-1577.552126
 21
-1451.82854
 31
0.0
  0
LINE
  5
1DA6
100
AcDbEntity
  8
0
 62
     0
100
AcDbLine
 10
-1579.462303
 20
-1453.379507
 30
0.0
 11
-1577.628036
 21
-1451.54524
 31
0.0
  0
LINE
  5
1DA7
100
AcDbEntity
  8
0
 62
     0
100
AcDbLine
 10
-1579.7669
 20
-1453.324894
 30
0.0
 11
-1577.703946
 21
-1451.26194
 31
0.0
  0
LINE
  5
1DA8
100
AcDbEntity
  8
0
 62
     0
100
AcDbLine
 10
-1580.053215
 20
-1453.251999
 30
0.0
 11
-1577.779856
 21
-1450.97864
 31
0.0
  0
LINE
  5
1DA9
100
AcDbEntity
  8
0
 62
     0
100
AcDbLine
 10
-1580.321587
 20
-1453.161161
 30
0.0
 11
-1577.855766
 21
-1450.69534
 31
0.0
  0
LINE
  5
1DAA
100
AcDbEntity
  8
0
 62
     0
100
AcDbLine
 10
-1580.581392
 20
-1453.061755
 30
0.0
 11
-1577.931676
 21
-1450.41204
 31
0.0
  0
LINE
  5
1DAB
100
AcDbEntity
  8
0
 62
     0
100
AcDbLine
 10
-1580.843825
 20
-1452.964978
 30
0.0
 11
-1578.007586
 21
-1450.128739
 31
0.0
  0
LINE
  5
1DAC
100
AcDbEntity
  8
0
 62
     0
100
AcDbLine
 10
-1581.121002
 20
-1452.882945
 30
0.0
 11
-1578.083497
 21
-1449.845439
 31
0.0
  0
LINE
  5
1DAD
100
AcDbEntity
  8
0
 62
     0
100
AcDbLine
 10
-1581.429436
 20
-1452.832168
 30
0.0
 11
-1578.159407
 21
-1449.562139
 31
0.0
  0
LINE
  5
1DAE
100
AcDbEntity
  8
0
 62
     0
100
AcDbLine
 10
-1581.773625
 20
-1452.817147
 30
0.0
 11
-1578.477246
 21
-1449.520768
 31
0.0
  0
LINE
  5
1DAF
100
AcDbEntity
  8
0
 62
     0
100
AcDbLine
 10
-1581.950628
 20
-1452.63494
 30
0.0
 11
-1578.836456
 21
-1449.520768
 31
0.0
  0
LINE
  5
1DB0
100
AcDbEntity
  8
0
 62
     0
100
AcDbLine
 10
-1581.950628
 20
-1452.27573
 30
0.0
 11
-1579.195666
 21
-1449.520768
 31
0.0
  0
LINE
  5
1DB1
100
AcDbEntity
  8
0
 62
     0
100
AcDbLine
 10
-1581.950628
 20
-1451.916519
 30
0.0
 11
-1579.554876
 21
-1449.520768
 31
0.0
  0
LINE
  5
1DB2
100
AcDbEntity
  8
0
 62
     0
100
AcDbLine
 10
-1581.950628
 20
-1451.557309
 30
0.0
 11
-1579.914087
 21
-1449.520768
 31
0.0
  0
LINE
  5
1DB3
100
AcDbEntity
  8
0
 62
     0
100
AcDbLine
 10
-1581.950628
 20
-1451.198099
 30
0.0
 11
-1580.273297
 21
-1449.520768
 31
0.0
  0
LINE
  5
1DB4
100
AcDbEntity
  8
0
 62
     0
100
AcDbLine
 10
-1581.950628
 20
-1450.838889
 30
0.0
 11
-1580.632507
 21
-1449.520768
 31
0.0
  0
LINE
  5
1DB5
100
AcDbEntity
  8
0
 62
     0
100
AcDbLine
 10
-1581.950628
 20
-1450.479678
 30
0.0
 11
-1580.991717
 21
-1449.520768
 31
0.0
  0
LINE
  5
1DB6
100
AcDbEntity
  8
0
 62
     0
100
AcDbLine
 10
-1581.950628
 20
-1450.120468
 30
0.0
 11
-1581.350928
 21
-1449.520768
 31
0.0
  0
LINE
  5
1DB7
100
AcDbEntity
  8
0
 62
     0
100
AcDbLine
 10
-1576.667631
 20
-1456.332199
 30
0.0
 11
-1576.413475
 21
-1456.078043
 31
0.0
  0
LINE
  5
1DB8
100
AcDbEntity
  8
0
 62
     0
100
AcDbLine
 10
-1571.050876
 20
-1450.715444
 30
0.0
 11
-1569.8562
 21
-1449.520768
 31
0.0
  0
LINE
  5
1DB9
100
AcDbEntity
  8
0
 62
     0
100
AcDbLine
 10
-1576.540547
 20
-1456.564325
 30
0.0
 11
-1576.337565
 21
-1456.361343
 31
0.0
  0
LINE
  5
1DBA
100
AcDbEntity
  8
0
 62
     0
100
AcDbLine
 10
-1571.182357
 20
-1451.206135
 30
0.0
 11
-1569.496989
 21
-1449.520768
 31
0.0
  0
LINE
  5
1DBB
100
AcDbEntity
  8
0
 62
     0
100
AcDbLine
 10
-1576.413685
 20
-1456.796673
 30
0.0
 11
-1576.261655
 21
-1456.644644
 31
0.0
  0
LINE
  5
1DBC
100
AcDbEntity
  8
0
 62
     0
100
AcDbLine
 10
-1571.313837
 20
-1451.696825
 30
0.0
 11
-1569.137779
 21
-1449.520768
 31
0.0
  0
LINE
  5
1DBD
100
AcDbEntity
  8
0
 62
     0
100
AcDbLine
 10
-1576.28702
 20
-1457.029219
 30
0.0
 11
-1576.185745
 21
-1456.927944
 31
0.0
  0
LINE
  5
1DBE
100
AcDbEntity
  8
0
 62
     0
100
AcDbLine
 10
-1571.445317
 20
-1452.187515
 30
0.0
 11
-1568.778569
 21
-1449.520768
 31
0.0
  0
LINE
  5
1DBF
100
AcDbEntity
  8
0
 62
     0
100
AcDbLine
 10
-1576.160532
 20
-1457.261941
 30
0.0
 11
-1576.109835
 21
-1457.211244
 31
0.0
  0
LINE
  5
1DC0
100
AcDbEntity
  8
0
 62
     0
100
AcDbLine
 10
-1571.576797
 20
-1452.678206
 30
0.0
 11
-1568.419359
 21
-1449.520768
 31
0.0
  0
LINE
  5
1DC1
100
AcDbEntity
  8
0
 62
     0
100
AcDbLine
 10
-1576.034203
 20
-1457.494822
 30
0.0
 11
-1576.033925
 21
-1457.494544
 31
0.0
  0
LINE
  5
1DC2
100
AcDbEntity
  8
0
 62
     0
100
AcDbLine
 10
-1571.708277
 20
-1453.168896
 30
0.0
 11
-1568.060148
 21
-1449.520768
 31
0.0
  0
LINE
  5
1DC3
100
AcDbEntity
  8
0
 62
     0
100
AcDbLine
 10
-1571.839757
 20
-1453.659586
 30
0.0
 11
-1567.700938
 21
-1449.520768
 31
0.0
  0
LINE
  5
1DC4
100
AcDbEntity
  8
0
 62
     0
100
AcDbLine
 10
-1571.971237
 20
-1454.150277
 30
0.0
 11
-1567.421178
 21
-1449.600218
 31
0.0
  0
LINE
  5
1DC5
100
AcDbEntity
  8
0
 62
     0
100
AcDbLine
 10
-1572.102717
 20
-1454.640967
 30
0.0
 11
-1567.241573
 21
-1449.779823
 31
0.0
  0
LINE
  5
1DC6
100
AcDbEntity
  8
0
 62
     0
100
AcDbLine
 10
-1572.234197
 20
-1455.131657
 30
0.0
 11
-1567.061968
 21
-1449.959428
 31
0.0
  0
LINE
  5
1DC7
100
AcDbEntity
  8
0
 62
     0
100
AcDbLine
 10
-1572.365677
 20
-1455.622348
 30
0.0
 11
-1570.911735
 21
-1454.168405
 31
0.0
  0
LINE
  5
1DC8
100
AcDbEntity
  8
0
 62
     0
100
AcDbLine
 10
-1570.197891
 20
-1453.454561
 30
0.0
 11
-1566.950628
 21
-1450.207298
 31
0.0
  0
LINE
  5
1DC9
100
AcDbEntity
  8
0
 62
     0
100
AcDbLine
 10
-1572.497157
 20
-1456.113038
 30
0.0
 11
-1571.5482
 21
-1455.164081
 31
0.0
  0
LINE
  5
1DCA
100
AcDbEntity
  8
0
 62
     0
100
AcDbLine
 10
-1569.811828
 20
-1453.427709
 30
0.0
 11
-1566.950628
 21
-1450.566509
 31
0.0
  0
LINE
  5
1DCB
100
AcDbEntity
  8
0
 62
     0
100
AcDbLine
 10
-1572.628637
 20
-1456.603728
 30
0.0
 11
-1572.184666
 21
-1456.159757
 31
0.0
  0
LINE
  5
1DCC
100
AcDbEntity
  8
0
 62
     0
100
AcDbLine
 10
-1569.39969
 20
-1453.374781
 30
0.0
 11
-1566.950628
 21
-1450.925719
 31
0.0
  0
LINE
  5
1DCD
100
AcDbEntity
  8
0
 62
     0
100
AcDbLine
 10
-1568.941954
 20
-1453.276255
 30
0.0
 11
-1566.950628
 21
-1451.284929
 31
0.0
  0
LINE
  5
1DCE
100
AcDbEntity
  8
0
 62
     0
100
AcDbLine
 10
-1568.396858
 20
-1453.09037
 30
0.0
 11
-1566.950628
 21
-1451.644139
 31
0.0
  0
LINE
  5
1DCF
100
AcDbEntity
  8
0
 62
     0
100
AcDbLine
 10
-1567.852041
 20
-1452.904763
 30
0.0
 11
-1566.950628
 21
-1452.00335
 31
0.0
  0
LINE
  5
1DD0
100
AcDbEntity
  8
0
 62
     0
100
AcDbLine
 10
-1567.421364
 20
-1452.833296
 30
0.0
 11
-1566.950628
 21
-1452.36256
 31
0.0
  0
LINE
  5
1DD1
100
AcDbEntity
  8
0
 62
     0
100
AcDbLine
 10
-1567.049323
 20
-1452.820465
 30
0.0
 11
-1566.950628
 21
-1452.72177
 31
0.0
  0
ENDBLK
  5
1DD2
100
AcDbEntity
  8
0
100
AcDbBlockEnd
  0
BLOCK
  5
1E75
100
AcDbEntity
  8
0
100
AcDbBlockBegin
  2
*D49
 70
    65
 10
0.0
 20
0.0
 30
0.0
  3
*D49
  1

  0
LINE
  5
1E76
100
AcDbEntity
  8
0
  6
BYBLOCK
 62
     0
100
AcDbLine
 10
-1910.259656
 20
-1430.844441
 30
0.0
 11
-1907.682935
 21
-1429.308047
 31
0.0
  0
LINE
  5
1E77
100
AcDbEntity
  8
0
  6
BYBLOCK
 62
     0
100
AcDbLine
 10
-1905.535667
 20
-1428.027718
 30
0.0
 11
-1890.145771
 21
-1418.851346
 31
0.0
  0
SOLID
  5
1E78
100
AcDbEntity
  8
0
  6
BYBLOCK
 62
     0
100
AcDbTrace
 10
-1910.473044
 20
-1430.486563
 30
0.0
 11
-1910.046268
 21
-1431.202319
 31
0.0
 12
-1912.406924
 22
-1432.12477
 32
0.0
 13
-1912.406924
 23
-1432.12477
 33
0.0
  0
SOLID
  5
1E79
100
AcDbEntity
  8
0
  6
BYBLOCK
 62
     0
100
AcDbTrace
 10
-1907.896323
 20
-1428.950169
 30
0.0
 11
-1907.469547
 21
-1429.665925
 31
0.0
 12
-1905.535667
 22
-1428.027718
 32
0.0
 13
-1905.535667
 23
-1428.027718
 33
0.0
  0
MTEXT
  5
1E7A
100
AcDbEntity
  8
0
  6
BYBLOCK
 62
     0
100
AcDbMText
 10
-1897.983397
 20
-1420.759463
 30
0.0
 40
3.5
 41
0.0
 71
     5
 72
     1
  1
\A2;\U+22058{\H2.800000;±0.01}
 11
0.858907
 21
0.512131
 31
0.0
  0
POINT
  5
1E7B
100
AcDbEntity
  8
DEFPOINTS
  6
BYBLOCK
 62
     0
100
AcDbPoint
 10
-1905.535667
 20
-1428.027718
 30
0.0
  0
POINT
  5
1E7C
100
AcDbEntity
  8
DEFPOINTS
  6
BYBLOCK
 62
     0
100
AcDbPoint
 10
-1912.406924
 20
-1432.12477
 30
0.0
  0
ENDBLK
  5
1E7D
100
AcDbEntity
  8
0
100
AcDbBlockEnd
  0
BLOCK
  5
1E7F
100
AcDbEntity
  8
0
100
AcDbBlockBegin
  2
*D50
 70
    65
 10
0.0
 20
0.0
 30
0.0
  3
*D50
  1

  0
LINE
  5
1E80
100
AcDbEntity
  8
0
  6
BYBLOCK
 62
     0
100
AcDbLine
 10
-1909.596295
 20
-1426.076244
 30
0.0
 11
-1925.699733
 21
-1426.076244
 31
0.0
  0
LINE
  5
1E81
100
AcDbEntity
  8
0
  6
BYBLOCK
 62
     0
100
AcDbLine
 10
-1916.596295
 20
-1430.599982
 30
0.0
 11
-1925.699733
 21
-1430.599982
 31
0.0
  0
LINE
  5
1E82
100
AcDbEntity
  8
0
  6
BYBLOCK
 62
     0
100
AcDbLine
 10
-1924.449733
 20
-1423.576244
 30
0.0
 11
-1924.449733
 21
-1421.076244
 31
0.0
  0
LINE
  5
1E83
100
AcDbEntity
  8
0
  6
BYBLOCK
 62
     0
100
AcDbLine
 10
-1924.449733
 20
-1433.099982
 30
0.0
 11
-1924.449733
 21
-1455.362176
 31
0.0
  0
SOLID
  5
1E84
100
AcDbEntity
  8
0
  6
BYBLOCK
 62
     0
100
AcDbTrace
 10
-1924.8664
 20
-1423.576244
 30
0.0
 11
-1924.033066
 21
-1423.576244
 31
0.0
 12
-1924.449733
 22
-1426.076244
 32
0.0
 13
-1924.449733
 23
-1426.076244
 33
0.0
  0
SOLID
  5
1E85
100
AcDbEntity
  8
0
  6
BYBLOCK
 62
     0
100
AcDbTrace
 10
-1924.8664
 20
-1433.099982
 30
0.0
 11
-1924.033066
 21
-1433.099982
 31
0.0
 12
-1924.449733
 22
-1430.599982
 32
0.0
 13
-1924.449733
 23
-1430.599982
 33
0.0
  0
MTEXT
  5
1E86
100
AcDbEntity
  8
0
  6
BYBLOCK
 62
     0
100
AcDbMText
 10
-1926.825078
 20
-1445.481079
 30
0.0
 40
3.5
 41
0.0
 71
     5
 72
     1
  1
\A2;4.52{\H2.800000;±0.02}
 11
0.0
 21
1.0
 31
0.0
  0
POINT
  5
1E87
100
AcDbEntity
  8
DEFPOINTS
  6
BYBLOCK
 62
     0
100
AcDbPoint
 10
-1908.971295
 20
-1426.076244
 30
0.0
  0
POINT
  5
1E88
100
AcDbEntity
  8
DEFPOINTS
  6
BYBLOCK
 62
     0
100
AcDbPoint
 10
-1915.971295
 20
-1430.599982
 30
0.0
  0
POINT
  5
1E89
100
AcDbEntity
  8
DEFPOINTS
  6
BYBLOCK
 62
     0
100
AcDbPoint
 10
-1924.449733
 20
-1430.599982
 30
0.0
  0
ENDBLK
  5
1E8A
100
AcDbEntity
  8
0
100
AcDbBlockEnd
  0
ENDSEC
  0
SECTION
  2
ENTITIES
  0
LINE
  5
674
100
AcDbEntity
  8
DISEGNO
100
AcDbLine
 10
-1801.221673
 20
-1490.020768
 30
0.0
 11
-1800.221673
 21
-1491.020768
 31
0.0
1001
ACAD
1000
ASC_BOUNDS
1002
{
1070
    19
1002
}
  0
LINE
  5
675
100
AcDbEntity
  8
DISEGNO
100
AcDbLine
 10
-1825.221673
 20
-1491.020768
 30
0.0
 11
-1824.221673
 21
-1490.020768
 31
0.0
  0
LINE
  5
677
100
AcDbEntity
  8
DISEGNO
100
AcDbLine
 10
-1808.107812
 20
-1450.020768
 30
0.0
 11
-1805.721673
 21
-1450.020768
 31
0.0
1001
ACAD
1000
ASC_BOUNDS
1002
{
1070
    19
1002
}
  0
LINE
  5
67B
100
AcDbEntity
  8
DISEGNO
100
AcDbLine
 10
-1820.221673
 20
-1490.020768
 30
0.0
 11
-1824.221673
 21
-1490.020768
 31
0.0
  0
LINE
  5
67C
100
AcDbEntity
  8
DISEGNO
100
AcDbLine
 10
-1825.221673
 20
-1491.020768
 30
0.0
 11
-1825.221673
 21
-1495.520768
 31
0.0
1001
ACAD
1000
ASC_BOUNDS
1002
{
1070
    19
1002
}
  0
LINE
  5
67D
100
AcDbEntity
  8
DISEGNO
100
AcDbLine
 10
-1805.221673
 20
-1490.020768
 30
0.0
 11
-1805.221673
 21
-1450.520768
 31
0.0
1001
ACAD
1000
ASC_BOUNDS
1002
{
1070
    19
1002
}
  0
LINE
  5
67E
100
AcDbEntity
  8
DISEGNO
100
AcDbLine
 10
-1801.221673
 20
-1490.020768
 30
0.0
 11
-1805.221673
 21
-1490.020768
 31
0.0
  0
LINE
  5
681
100
AcDbEntity
  8
DISEGNO
100
AcDbLine
 10
-1825.221673
 20
-1504.020768
 30
0.0
 11
-1824.221673
 21
-1505.020768
 31
0.0
  0
LINE
  5
682
100
AcDbEntity
  8
DISEGNO
100
AcDbLine
 10
-1801.221673
 20
-1505.020768
 30
0.0
 11
-1800.221673
 21
-1504.020768
 31
0.0
  0
LINE
  5
683
100
AcDbEntity
  8
DISEGNO
100
AcDbLine
 10
-1807.221673
 20
-1525.020768
 30
0.0
 11
-1806.221673
 21
-1524.020768
 31
0.0
  0
LINE
  5
684
100
AcDbEntity
  8
DISEGNO
100
AcDbLine
 10
-1819.221673
 20
-1524.020768
 30
0.0
 11
-1818.221673
 21
-1525.020768
 31
0.0
  0
LINE
  5
686
100
AcDbEntity
  8
DISEGNO
100
AcDbLine
 10
-1825.221673
 20
-1498.520768
 30
0.0
 11
-1825.221673
 21
-1504.020768
 31
0.0
  0
LINE
  5
687
100
AcDbEntity
  8
DISEGNO
100
AcDbLine
 10
-1825.221673
 20
-1498.520768
 30
0.0
 11
-1823.721673
 21
-1497.020768
 31
0.0
  0
LINE
  5
688
100
AcDbEntity
  8
DISEGNO
100
AcDbLine
 10
-1825.221673
 20
-1495.520768
 30
0.0
 11
-1823.721673
 21
-1497.020768
 31
0.0
  0
LINE
  5
68A
100
AcDbEntity
  8
DISEGNO
100
AcDbLine
 10
-1807.282333
 20
-1505.374321
 30
0.0
 11
-1805.86812
 21
-1503.960107
 31
0.0
  0
LINE
  5
68B
100
AcDbEntity
  8
DISEGNO
100
AcDbLine
 10
-1804.80746
 20
-1505.020768
 30
0.0
 11
-1805.86812
 21
-1503.960107
 31
0.0
  0
LINE
  5
68C
100
AcDbEntity
  8
DISEGNO
100
AcDbLine
 10
-1806.221673
 20
-1506.434981
 30
0.0
 11
-1807.282333
 21
-1505.374321
 31
0.0
  0
LINE
  5
68D
100
AcDbEntity
  8
DISEGNO
100
AcDbLine
 10
-1818.161013
 20
-1505.374321
 30
0.0
 11
-1819.575227
 21
-1503.960107
 31
0.0
  0
LINE
  5
68E
100
AcDbEntity
  8
DISEGNO
100
AcDbLine
 10
-1819.221673
 20
-1506.434981
 30
0.0
 11
-1818.161013
 21
-1505.374321
 31
0.0
  0
LINE
  5
68F
100
AcDbEntity
  8
DISEGNO
100
AcDbLine
 10
-1820.635887
 20
-1505.020768
 30
0.0
 11
-1819.575227
 21
-1503.960107
 31
0.0
  0
LINE
  5
691
100
AcDbEntity
  8
DISEGNO
100
AcDbLine
 10
-1819.221673
 20
-1506.434981
 30
0.0
 11
-1819.221673
 21
-1524.020768
 31
0.0
  0
LINE
  5
692
100
AcDbEntity
  8
DISEGNO
100
AcDbLine
 10
-1824.221673
 20
-1505.020768
 30
0.0
 11
-1820.635887
 21
-1505.020768
 31
0.0
  0
LINE
  5
693
100
AcDbEntity
  8
DISEGNO
100
AcDbLine
 10
-1820.221673
 20
-1450.520768
 30
0.0
 11
-1820.221673
 21
-1490.020768
 31
0.0
1001
ACAD
1000
ASC_BOUNDS
1002
{
1070
    19
1002
}
  0
LINE
  5
694
100
AcDbEntity
  8
DISEGNO
100
AcDbLine
 10
-1800.221673
 20
-1504.020768
 30
0.0
 11
-1800.221673
 21
-1491.020768
 31
0.0
1001
ACAD
1000
ASC_BOUNDS
1002
{
1070
    19
1002
}
  0
LINE
  5
695
100
AcDbEntity
  8
DISEGNO
100
AcDbLine
 10
-1804.80746
 20
-1505.020768
 30
0.0
 11
-1801.221673
 21
-1505.020768
 31
0.0
  0
LINE
  5
696
100
AcDbEntity
  8
DISEGNO
100
AcDbLine
 10
-1806.221673
 20
-1524.020768
 30
0.0
 11
-1806.221673
 21
-1506.434981
 31
0.0
  0
LINE
  5
697
100
AcDbEntity
  8
DISEGNO
100
AcDbLine
 10
-1818.221673
 20
-1525.020768
 30
0.0
 11
-1807.221673
 21
-1525.020768
 31
0.0
  0
LINE
  5
1143
100
AcDbEntity
  8
DISEGNO
100
AcDbLine
 10
-1808.880552
 20
-1450.613712
 30
0.0
 11
-1811.755747
 21
-1461.344087
 31
0.0
1001
ACAD
1000
ASC_BOUNDS
1002
{
1070
    19
1002
}
  0
LINE
  5
1144
100
AcDbEntity
  8
DISEGNO
100
AcDbLine
 10
-1816.562794
 20
-1450.613712
 30
0.0
 11
-1813.687599
 21
-1461.344087
 31
0.0
1001
ACAD
1000
ASC_BOUNDS
1002
{
1070
    19
1002
}
  0
LINE
  5
14B2
100
AcDbEntity
  8
DISEGNO
100
AcDbLine
 10
-1819.721673
 20
-1450.020768
 30
0.0
 11
-1817.335535
 21
-1450.020768
 31
0.0
1001
ACAD
1000
ASC_BOUNDS
1002
{
1070
    19
1002
}
  0
LINE
  5
14B3
100
AcDbEntity
  8
DISEGNO
100
AcDbLine
 10
-1805.721673
 20
-1450.020768
 30
0.0
 11
-1805.221673
 21
-1450.520768
 31
0.0
1001
ACAD
1000
ASC_BOUNDS
1002
{
1070
    19
1002
}
  0
LINE
  5
14B4
100
AcDbEntity
  8
DISEGNO
100
AcDbLine
 10
-1819.721673
 20
-1450.020768
 30
0.0
 11
-1820.221673
 21
-1450.520768
 31
0.0
1001
ACAD
1000
ASC_BOUNDS
1002
{
1070
    19
1002
}
  0
ARC
  5
1538
100
AcDbEntity
  8
DISEGNO
100
AcDbCircle
 10
-1817.335535
 20
-1450.820768
 30
0.0
 40
0.8
100
AcDbArc
 50
15.0
 51
90.0
1001
ACAD
1000
ASC_BOUNDS
1002
{
1070
    19
1002
}
  0
ARC
  5
1539
100
AcDbEntity
  8
DISEGNO
100
AcDbCircle
 10
-1808.107812
 20
-1450.820768
 30
0.0
 40
0.8
100
AcDbArc
 50
90.0
 51
165.0
1001
ACAD
1000
ASC_BOUNDS
1002
{
1070
    19
1002
}
  0
ARC
  5
153A
100
AcDbEntity
  8
DISEGNO
100
AcDbCircle
 10
-1812.721673
 20
-1461.085268
 30
0.0
 40
1.0
100
AcDbArc
 50
195.0
 51
345.0
1001
ACAD
1000
ASC_BOUNDS
1002
{
1070
    19
1002
}
  0
ENDSEC
  0
SECTION
  2
OBJECTS
  0
DICTIONARY
  5
C
100
AcDbDictionary
  3
ACAD_GROUP
350
D
  3
ACAD_MLINESTYLE
350
E
  0
DICTIONARY
  5
D
102
{ACAD_REACTORS
330
C
102
}
100
AcDbDictionary
  0
DICTIONARY
  5
E
102
{ACAD_REACTORS
330
C
102
}
100
AcDbDictionary
  3
STANDARD
350
1C
  0
MLINESTYLE
  5
1C
102
{ACAD_REACTORS
330
E
102
}
100
AcDbMlineStyle
  2
STANDARD
 70
     0
  3

 62
     0
 51
90.0
 52
90.0
 71
     2
 49
0.5
 62
   256
  6
BYLAYER
 49
-0.5
 62
   256
  6
BYLAYER
  0
ENDSEC
  0
EOF
