  0
SECTION
  2
HEADER
  9
$ACADVER
  1
AC1012
  9
$DWGCODEPAGE
  3
iso8859-1
  9
$INSBASE
 10
0.0
 20
0.0
 30
0.0
  9
$EXTMIN
 10
-1.236818
 20
5.0
 30
0.0
  9
$EXTMAX
 10
396.038088
 20
288.0
 30
0.0
  9
$LIMMIN
 10
0.0
 20
0.0
  9
$LIMMAX
 10
210.0
 20
297.0
  9
$ORTHOMODE
 70
     0
  9
$REGENMODE
 70
     1
  9
$FILLMODE
 70
     1
  9
$QTEXTMODE
 70
     0
  9
$MIRRTEXT
 70
     1
  9
$DRAGMODE
 70
     2
  9
$LTSCALE
 40
1.0
  9
$OSMODE
 70
     0
  9
$ATTMODE
 70
     1
  9
$TEXTSIZE
 40
4.0
  9
$TRACEWID
 40
0.05
  9
$TEXTSTYLE
  7
STYLE3
  9
$CLAYER
  8
QUOTE
  9
$CELTYPE
  6
BYLAYER
  9
$CECOLOR
 62
   256
  9
$CELTSCALE
 40
1.0
  9
$DELOBJ
 70
     1
  9
$DISPSILH
 70
     0
  9
$DIMSCALE
 40
1.0
  9
$DIMASZ
 40
2.5
  9
$DIMEXO
 40
0.625
  9
$DIMDLI
 40
3.75
  9
$DIMRND
 40
0.0
  9
$DIMDLE
 40
0.0
  9
$DIMEXE
 40
1.25
  9
$DIMTP
 40
0.0
  9
$DIMTM
 40
0.0
  9
$DIMTXT
 40
3.0
  9
$DIMCEN
 40
2.5
  9
$DIMTSZ
 40
0.0
  9
$DIMTOL
 70
     0
  9
$DIMLIM
 70
     0
  9
$DIMTIH
 70
     0
  9
$DIMTOH
 70
     0
  9
$DIMSE1
 70
     0
  9
$DIMSE2
 70
     0
  9
$DIMTAD
 70
     1
  9
$DIMZIN
 70
     8
  9
$DIMBLK
  1

  9
$DIMASO
 70
     1
  9
$DIMSHO
 70
     1
  9
$DIMPOST
  1

  9
$DIMAPOST
  1

  9
$DIMALT
 70
     0
  9
$DIMALTD
 70
     2
  9
$DIMALTF
 40
0.03937
  9
$DIMLFAC
 40
1.0
  9
$DIMTOFL
 70
     0
  9
$DIMTVP
 40
0.0
  9
$DIMTIX
 70
     0
  9
$DIMSOXD
 70
     0
  9
$DIMSAH
 70
     0
  9
$DIMBLK1
  1

  9
$DIMBLK2
  1

  9
$DIMSTYLE
  2
STANDARD
  9
$DIMCLRD
 70
     0
  9
$DIMCLRE
 70
     0
  9
$DIMCLRT
 70
     0
  9
$DIMTFAC
 40
1.0
  9
$DIMGAP
 40
0.625
  9
$DIMJUST
 70
     0
  9
$DIMSD1
 70
     0
  9
$DIMSD2
 70
     0
  9
$DIMTOLJ
 70
     1
  9
$DIMTZIN
 70
     8
  9
$DIMALTZ
 70
     0
  9
$DIMALTTZ
 70
     0
  9
$DIMFIT
 70
     3
  9
$DIMUPT
 70
     0
  9
$DIMUNIT
 70
     2
  9
$DIMDEC
 70
     2
  9
$DIMTDEC
 70
     2
  9
$DIMALTU
 70
     2
  9
$DIMALTTD
 70
     2
  9
$DIMTXSTY
  7
STANDARD
  9
$DIMAUNIT
 70
     0
  9
$LUNITS
 70
     2
  9
$LUPREC
 70
     4
  9
$SKETCHINC
 40
0.1
  9
$FILLETRAD
 40
8.0
  9
$AUNITS
 70
     0
  9
$AUPREC
 70
     0
  9
$MENU
  1
acad
  9
$ELEVATION
 40
0.0
  9
$PELEVATION
 40
0.0
  9
$THICKNESS
 40
0.0
  9
$LIMCHECK
 70
     0
  9
$BLIPMODE
 70
     1
  9
$CHAMFERA
 40
1.0
  9
$CHAMFERB
 40
1.0
  9
$CHAMFERC
 40
20.0
  9
$CHAMFERD
 40
0.0
  9
$SKPOLY
 70
     0
  9
$TDCREATE
 40
2451646.321312153
  9
$TDUPDATE
 40
2452628.425603240
  9
$TDINDWG
 40
0.1342127315
  9
$TDUSRTIMER
 40
0.1342127315
  9
$USRTIMER
 70
     1
  9
$ANGBASE
 50
0.0
  9
$ANGDIR
 70
     0
  9
$PDMODE
 70
     0
  9
$PDSIZE
 40
0.0
  9
$PLINEWID
 40
0.0
  9
$COORDS
 70
     1
  9
$SPLFRAME
 70
     0
  9
$SPLINETYPE
 70
     6
  9
$SPLINESEGS
 70
     8
  9
$ATTDIA
 70
     0
  9
$ATTREQ
 70
     1
  9
$HANDLING
 70
     1
  9
$HANDSEED
  5
6D2
  9
$SURFTAB1
 70
     6
  9
$SURFTAB2
 70
     6
  9
$SURFTYPE
 70
     6
  9
$SURFU
 70
     6
  9
$SURFV
 70
     6
  9
$UCSNAME
  2

  9
$UCSORG
 10
0.0
 20
0.0
 30
0.0
  9
$UCSXDIR
 10
1.0
 20
0.0
 30
0.0
  9
$UCSYDIR
 10
0.0
 20
1.0
 30
0.0
  9
$PUCSNAME
  2

  9
$PUCSORG
 10
0.0
 20
0.0
 30
0.0
  9
$PUCSXDIR
 10
1.0
 20
0.0
 30
0.0
  9
$PUCSYDIR
 10
0.0
 20
1.0
 30
0.0
  9
$USERI1
 70
     0
  9
$USERI2
 70
     0
  9
$USERI3
 70
     0
  9
$USERI4
 70
     0
  9
$USERI5
 70
     0
  9
$USERR1
 40
0.0
  9
$USERR2
 40
0.0
  9
$USERR3
 40
0.0
  9
$USERR4
 40
0.0
  9
$USERR5
 40
0.0
  9
$WORLDVIEW
 70
     1
  9
$SHADEDGE
 70
     3
  9
$SHADEDIF
 70
    70
  9
$TILEMODE
 70
     1
  9
$MAXACTVP
 70
    16
  9
$PINSBASE
 10
0.0
 20
0.0
 30
0.0
  9
$PLIMCHECK
 70
     0
  9
$PEXTMIN
 10
1.000000E+20
 20
1.000000E+20
 30
1.000000E+20
  9
$PEXTMAX
 10
-1.000000E+20
 20
-1.000000E+20
 30
-1.000000E+20
  9
$PLIMMIN
 10
0.0
 20
0.0
  9
$PLIMMAX
 10
12.0
 20
9.0
  9
$UNITMODE
 70
     0
  9
$VISRETAIN
 70
     0
  9
$PLINEGEN
 70
     0
  9
$PSLTSCALE
 70
     1
  9
$TREEDEPTH
 70
  3020
  9
$PICKSTYLE
 70
     1
  9
$CMLSTYLE
  2
STANDARD
  9
$CMLJUST
 70
     0
  9
$CMLSCALE
 40
20.0
  9
$SAVEIMAGES
 70
     0
  0
ENDSEC
  0
SECTION
  2
CLASSES
  0
ENDSEC
  0
SECTION
  2
TABLES
  0
TABLE
  2
VPORT
  5
8
100
AcDbSymbolTable
 70
     2
  0
VPORT
  5
6D1
100
AcDbSymbolTableRecord
100
AcDbViewportTableRecord
  2
*ACTIVE
 70
     0
 10
0.0
 20
0.0
 11
1.0
 21
1.0
 12
168.606894
 22
172.292748
 13
0.0
 23
0.0
 14
10.0
 24
10.0
 15
10.0
 25
10.0
 16
0.0
 26
0.0
 36
1.0
 17
0.0
 27
0.0
 37
0.0
 40
695.993887
 41
1.650113
 42
50.0
 43
0.0
 44
0.0
 50
0.0
 51
0.0
 71
     0
 72
   100
 73
     1
 74
     0
 75
     0
 76
     0
 77
     0
 78
     0
  0
ENDTAB
  0
TABLE
  2
LTYPE
  5
5
100
AcDbSymbolTable
 70
     4
  0
LTYPE
  5
13
100
AcDbSymbolTableRecord
100
AcDbLinetypeTableRecord
  2
BYBLOCK
 70
     0
  3

 72
    65
 73
     0
 40
0.0
  0
LTYPE
  5
14
100
AcDbSymbolTableRecord
100
AcDbLinetypeTableRecord
  2
BYLAYER
 70
     0
  3

 72
    65
 73
     0
 40
0.0
  0
LTYPE
  5
15
100
AcDbSymbolTableRecord
100
AcDbLinetypeTableRecord
  2
CONTINUOUS
 70
    64
  3
Solid line
 72
    65
 73
     0
 40
0.0
  0
LTYPE
  5
94
100
AcDbSymbolTableRecord
100
AcDbLinetypeTableRecord
  2
ACAD_ISO04W100
 70
    64
  3
____ . ____ . ____ . ____ . ____ . ____ . ____ 
 72
    65
 73
     4
 40
30.5
 49
24.0
 74
     0
 49
-3.0
 74
     0
 49
0.5
 74
     0
 49
-3.0
 74
     0
  0
LTYPE
  5
225
100
AcDbSymbolTableRecord
100
AcDbLinetypeTableRecord
  2
TRATTEGGIATAX2
 70
    64
  3
____  ____  ____  ____  ____  ____  ____  ____ 
 72
    65
 73
     2
 40
1.5
 49
1.0
 74
     0
 49
-0.5
 74
     0
  0
LTYPE
  5
226
100
AcDbSymbolTableRecord
100
AcDbLinetypeTableRecord
  2
NASCOSTA
 70
    64
  3
__ __ __ __ __ __ __ __ __ __ __ __ __ __ __ __
 72
    65
 73
     2
 40
0.375
 49
0.25
 74
     0
 49
-0.125
 74
     0
  0
ENDTAB
  0
TABLE
  2
LAYER
  5
2
100
AcDbSymbolTable
 70
    10
  0
LAYER
  5
F
100
AcDbSymbolTableRecord
100
AcDbLayerTableRecord
  2
0
 70
     0
 62
     7
  6
CONTINUOUS
  0
LAYER
  5
95
100
AcDbSymbolTableRecord
100
AcDbLayerTableRecord
  2
DISEGNO
 70
    64
 62
     7
  6
CONTINUOUS
  0
LAYER
  5
96
100
AcDbSymbolTableRecord
100
AcDbLayerTableRecord
  2
ASSI
 70
    64
 62
     1
  6
ACAD_ISO04W100
  0
LAYER
  5
97
100
AcDbSymbolTableRecord
100
AcDbLayerTableRecord
  2
SEZIONE
 70
    64
 62
     3
  6
CONTINUOUS
  0
LAYER
  5
98
100
AcDbSymbolTableRecord
100
AcDbLayerTableRecord
  2
TEMPRA
 70
    64
 62
     2
  6
CONTINUOUS
  0
LAYER
  5
99
100
AcDbSymbolTableRecord
100
AcDbLayerTableRecord
  2
QUOTE
 70
    64
 62
     5
  6
CONTINUOUS
  0
LAYER
  5
9A
100
AcDbSymbolTableRecord
100
AcDbLayerTableRecord
  2
FOGLIO
 70
    64
 62
     8
  6
CONTINUOUS
  0
LAYER
  5
1A3
100
AcDbSymbolTableRecord
100
AcDbLayerTableRecord
  2
TRATTO
 70
    64
 62
     6
  6
NASCOSTA
  0
LAYER
  5
279
100
AcDbSymbolTableRecord
100
AcDbLayerTableRecord
  2
DEFPOINTS
 70
    64
 62
     7
  6
CONTINUOUS
  0
LAYER
  5
576
100
AcDbSymbolTableRecord
100
AcDbLayerTableRecord
  2
TESTO
 70
    64
 62
     6
  6
CONTINUOUS
  0
ENDTAB
  0
TABLE
  2
STYLE
  5
3
100
AcDbSymbolTable
 70
     2
  0
STYLE
  5
10
100
AcDbSymbolTableRecord
100
AcDbTextStyleTableRecord
  2
STANDARD
 70
    64
 40
0.0
 41
1.1
 50
0.0
 71
     0
 42
2.5
  3
C:\Programmi\AutoCAD LT\isocp.shx
  4

  0
STYLE
  5
B0
100
AcDbSymbolTableRecord
100
AcDbTextStyleTableRecord
  2
STYLE3
 70
    64
 40
0.0
 41
1.5
 50
0.0
 71
     0
 42
4.0
  3
C:\Programmi\AutoCAD LT\isocp.shx
  4

  0
ENDTAB
  0
TABLE
  2
VIEW
  5
6
100
AcDbSymbolTable
 70
     0
  0
ENDTAB
  0
TABLE
  2
UCS
  5
7
100
AcDbSymbolTable
 70
     0
  0
ENDTAB
  0
TABLE
  2
APPID
  5
9
100
AcDbSymbolTable
 70
     1
  0
APPID
  5
11
100
AcDbSymbolTableRecord
100
AcDbRegAppTableRecord
  2
ACAD
 70
     0
  0
ENDTAB
  0
TABLE
  2
DIMSTYLE
  5
A
100
AcDbSymbolTable
 70
    10
  0
DIMSTYLE
105
1D
100
AcDbSymbolTableRecord
100
AcDbDimStyleTableRecord
  2
STANDARD
 70
     0
  3

  4

  5

  6

  7

 40
1.0
 41
2.5
 42
0.625
 43
3.75
 44
1.25
 45
0.0
 46
0.0
 47
0.0
 48
0.0
140
3.0
141
2.5
142
0.0
143
0.03937
144
1.0
145
0.0
146
1.0
147
0.625
 71
     0
 72
     0
 73
     0
 74
     0
 75
     0
 76
     0
 77
     1
 78
     8
170
     0
171
     2
172
     0
173
     0
174
     0
175
     0
176
     0
177
     0
178
     0
270
     2
271
     2
272
     2
273
     2
274
     2
340
10
275
     0
280
     0
281
     0
282
     0
283
     1
284
     8
285
     0
286
     0
287
     3
288
     0
  0
DIMSTYLE
105
198
100
AcDbSymbolTableRecord
100
AcDbDimStyleTableRecord
  2
TOLL-06
 70
     0
  3

  4

  5

  6

  7

 40
1.0
 41
2.5
 42
0.625
 43
3.75
 44
1.25
 45
0.0
 46
0.0
 47
0.1
 48
0.1
140
3.0
141
2.5
142
0.0
143
0.03937
144
1.0
145
0.0
146
0.8
147
0.625
 71
     1
 72
     0
 73
     0
 74
     0
 75
     0
 76
     0
 77
     1
 78
     8
170
     0
171
     2
172
     0
173
     0
174
     0
175
     0
176
     0
177
     0
178
     0
270
     2
271
     2
272
     2
273
     2
274
     2
340
10
275
     0
280
     0
281
     0
282
     0
283
     2
284
     8
285
     0
286
     0
287
     3
288
     0
  0
DIMSTYLE
105
20B
100
AcDbSymbolTableRecord
100
AcDbDimStyleTableRecord
  2
TOLL-01
 70
     0
  3

  4

  5

  6

  7

 40
1.0
 41
2.5
 42
0.625
 43
3.75
 44
1.25
 45
0.0
 46
0.0
 47
0.02
 48
0.0
140
3.0
141
2.5
142
0.0
143
0.03937
144
1.0
145
0.0
146
0.8
147
0.625
 71
     1
 72
     0
 73
     0
 74
     0
 75
     0
 76
     0
 77
     1
 78
     8
170
     0
171
     2
172
     0
173
     0
174
     0
175
     0
176
     0
177
     0
178
     0
270
     2
271
     2
272
     2
273
     2
274
     2
340
10
275
     0
280
     0
281
     0
282
     0
283
     2
284
     8
285
     0
286
     0
287
     3
288
     0
  0
DIMSTYLE
105
232
100
AcDbSymbolTableRecord
100
AcDbDimStyleTableRecord
  2
TOLL-02
 70
     0
  3

  4

  5

  6

  7

 40
1.0
 41
2.5
 42
0.625
 43
3.75
 44
1.25
 45
0.0
 46
0.0
 47
0.0
 48
-0.02
140
3.0
141
2.5
142
0.0
143
0.03937
144
1.0
145
0.0
146
0.8
147
0.625
 71
     1
 72
     0
 73
     0
 74
     0
 75
     0
 76
     0
 77
     1
 78
     8
170
     0
171
     2
172
     0
173
     0
174
     0
175
     0
176
     0
177
     0
178
     0
270
     2
271
     2
272
     2
273
     2
274
     2
340
10
275
     0
280
     0
281
     0
282
     0
283
     2
284
     8
285
     0
286
     0
287
     3
288
     0
  0
DIMSTYLE
105
233
100
AcDbSymbolTableRecord
100
AcDbDimStyleTableRecord
  2
TOLL-03
 70
     0
  3

  4

  5

  6

  7

 40
1.0
 41
2.5
 42
0.625
 43
3.75
 44
1.25
 45
0.0
 46
0.0
 47
0.01
 48
0.01
140
3.0
141
2.5
142
0.0
143
0.03937
144
1.0
145
0.0
146
0.8
147
0.625
 71
     1
 72
     0
 73
     0
 74
     0
 75
     0
 76
     0
 77
     1
 78
     8
170
     0
171
     2
172
     0
173
     0
174
     0
175
     0
176
     0
177
     0
178
     0
270
     2
271
     2
272
     2
273
     2
274
     2
340
10
275
     0
280
     0
281
     0
282
     0
283
     2
284
     8
285
     0
286
     0
287
     3
288
     0
  0
DIMSTYLE
105
234
100
AcDbSymbolTableRecord
100
AcDbDimStyleTableRecord
  2
TOLL-04
 70
     0
  3

  4

  5

  6

  7

 40
1.0
 41
2.5
 42
0.625
 43
3.75
 44
1.25
 45
0.0
 46
0.0
 47
0.05
 48
0.05
140
3.0
141
2.5
142
0.0
143
0.03937
144
1.0
145
0.0
146
0.8
147
0.625
 71
     1
 72
     0
 73
     0
 74
     0
 75
     0
 76
     0
 77
     1
 78
     8
170
     0
171
     2
172
     0
173
     0
174
     0
175
     0
176
     0
177
     0
178
     0
270
     2
271
     2
272
     2
273
     2
274
     2
340
10
275
     0
280
     0
281
     0
282
     0
283
     2
284
     8
285
     0
286
     0
287
     3
288
     0
  0
DIMSTYLE
105
235
100
AcDbSymbolTableRecord
100
AcDbDimStyleTableRecord
  2
TOLL-05
 70
     0
  3

  4

  5

  6

  7

 40
1.0
 41
2.5
 42
0.625
 43
3.75
 44
1.25
 45
0.0
 46
0.0
 47
0.1
 48
0.0
140
3.0
141
2.5
142
0.0
143
0.03937
144
1.0
145
0.0
146
0.8
147
0.625
 71
     1
 72
     0
 73
     0
 74
     0
 75
     0
 76
     0
 77
     1
 78
     8
170
     0
171
     2
172
     0
173
     0
174
     0
175
     0
176
     0
177
     0
178
     0
270
     2
271
     2
272
     2
273
     2
274
     2
340
10
275
     0
280
     0
281
     0
282
     0
283
     2
284
     8
285
     0
286
     0
287
     3
288
     0
  0
DIMSTYLE
105
247
100
AcDbSymbolTableRecord
100
AcDbDimStyleTableRecord
  2
TOLL-07
 70
     0
  3

  4

  5

  6

  7

 40
1.0
 41
2.5
 42
0.625
 43
3.75
 44
1.25
 45
0.0
 46
0.0
 47
-0.1
 48
0.0
140
3.0
141
2.5
142
0.0
143
0.03937
144
1.0
145
0.0
146
1.0
147
0.625
 71
     1
 72
     0
 73
     0
 74
     0
 75
     0
 76
     0
 77
     1
 78
     8
170
     0
171
     2
172
     0
173
     0
174
     0
175
     0
176
     0
177
     0
178
     0
270
     2
271
     2
272
     2
273
     2
274
     2
340
10
275
     0
280
     0
281
     0
282
     0
283
     1
284
     8
285
     0
286
     0
287
     3
288
     0
  0
DIMSTYLE
105
251
100
AcDbSymbolTableRecord
100
AcDbDimStyleTableRecord
  2
TOLL-08
 70
     0
  3

  4

  5

  6

  7

 40
1.0
 41
2.5
 42
0.625
 43
3.75
 44
1.25
 45
0.0
 46
0.0
 47
0.05
 48
0.0
140
3.0
141
2.5
142
0.0
143
0.03937
144
1.0
145
0.0
146
1.0
147
0.625
 71
     1
 72
     0
 73
     0
 74
     0
 75
     0
 76
     0
 77
     1
 78
     8
170
     0
171
     2
172
     0
173
     0
174
     0
175
     0
176
     0
177
     0
178
     0
270
     2
271
     2
272
     2
273
     2
274
     2
340
10
275
     0
280
     0
281
     0
282
     0
283
     1
284
     8
285
     0
286
     0
287
     3
288
     0
  0
DIMSTYLE
105
577
100
AcDbSymbolTableRecord
100
AcDbDimStyleTableRecord
  2
ISO-25
 70
     0
  3

  4

  5

  6

  7

 40
1.0
 41
2.5
 42
0.625
 43
3.75
 44
1.25
 45
0.0
 46
0.0
 47
0.0
 48
0.0
140
2.5
141
2.5
142
0.0
143
0.0394
144
1.0
145
1.0
146
1.0
147
0.625
 71
     0
 72
     0
 73
     1
 74
     0
 75
     0
 76
     0
 77
     1
 78
     8
170
     0
171
     2
172
     1
173
     0
174
     0
175
     0
176
     0
177
     0
178
     0
270
     2
271
     4
272
     4
273
     2
274
     2
340
10
275
     0
280
     0
281
     0
282
     0
283
     1
284
     0
285
     0
286
     0
287
     3
288
     0
  0
ENDTAB
  0
TABLE
  2
BLOCK_RECORD
  5
1
100
AcDbSymbolTable
 70
    22
  0
BLOCK_RECORD
  5
19
100
AcDbSymbolTableRecord
100
AcDbBlockTableRecord
  2
*MODEL_SPACE
  0
BLOCK_RECORD
  5
16
100
AcDbSymbolTableRecord
100
AcDbBlockTableRecord
  2
*PAPER_SPACE
  0
BLOCK_RECORD
  5
271
100
AcDbSymbolTableRecord
100
AcDbBlockTableRecord
  2
*D0
  0
BLOCK_RECORD
  5
285
100
AcDbSymbolTableRecord
100
AcDbBlockTableRecord
  2
*D1
  0
BLOCK_RECORD
  5
292
100
AcDbSymbolTableRecord
100
AcDbBlockTableRecord
  2
*D2
  0
BLOCK_RECORD
  5
2AA
100
AcDbSymbolTableRecord
100
AcDbBlockTableRecord
  2
*D3
  0
BLOCK_RECORD
  5
2B7
100
AcDbSymbolTableRecord
100
AcDbBlockTableRecord
  2
*D4
  0
BLOCK_RECORD
  5
31E
100
AcDbSymbolTableRecord
100
AcDbBlockTableRecord
  2
*D5
  0
BLOCK_RECORD
  5
35E
100
AcDbSymbolTableRecord
100
AcDbBlockTableRecord
  2
*D6
  0
BLOCK_RECORD
  5
376
100
AcDbSymbolTableRecord
100
AcDbBlockTableRecord
  2
*D7
  0
BLOCK_RECORD
  5
386
100
AcDbSymbolTableRecord
100
AcDbBlockTableRecord
  2
*D8
  0
BLOCK_RECORD
  5
3A0
100
AcDbSymbolTableRecord
100
AcDbBlockTableRecord
  2
*D9
  0
BLOCK_RECORD
  5
3D7
100
AcDbSymbolTableRecord
100
AcDbBlockTableRecord
  2
*X10
  0
BLOCK_RECORD
  5
467
100
AcDbSymbolTableRecord
100
AcDbBlockTableRecord
  2
*D11
  0
BLOCK_RECORD
  5
48A
100
AcDbSymbolTableRecord
100
AcDbBlockTableRecord
  2
*D12
  0
BLOCK_RECORD
  5
4B3
100
AcDbSymbolTableRecord
100
AcDbBlockTableRecord
  2
RUGOSITA
  0
BLOCK_RECORD
  5
503
100
AcDbSymbolTableRecord
100
AcDbBlockTableRecord
  2
*D14
  0
BLOCK_RECORD
  5
578
100
AcDbSymbolTableRecord
100
AcDbBlockTableRecord
  2
A$C1072
  0
BLOCK_RECORD
  5
59E
100
AcDbSymbolTableRecord
100
AcDbBlockTableRecord
  2
A$CC223
  0
BLOCK_RECORD
  5
5CB
100
AcDbSymbolTableRecord
100
AcDbBlockTableRecord
  2
*D17
  0
BLOCK_RECORD
  5
5D8
100
AcDbSymbolTableRecord
100
AcDbBlockTableRecord
  2
*D18
  0
BLOCK_RECORD
  5
5E7
100
AcDbSymbolTableRecord
100
AcDbBlockTableRecord
  2
*D19
  0
BLOCK_RECORD
  5
5F9
100
AcDbSymbolTableRecord
100
AcDbBlockTableRecord
  2
*D20
  0
BLOCK_RECORD
  5
6BD
100
AcDbSymbolTableRecord
100
AcDbBlockTableRecord
  2
A$C7221
  0
ENDTAB
  0
ENDSEC
  0
SECTION
  2
BLOCKS
  0
BLOCK
  5
1A
100
AcDbEntity
  8
0
100
AcDbBlockBegin
  2
*MODEL_SPACE
 70
     0
 10
0.0
 20
0.0
 30
0.0
  3
*MODEL_SPACE
  1

  0
ENDBLK
  5
1B
100
AcDbEntity
  8
0
100
AcDbBlockEnd
  0
BLOCK
  5
17
100
AcDbEntity
 67
     1
  8
0
100
AcDbBlockBegin
  2
*PAPER_SPACE
 70
     0
 10
0.0
 20
0.0
 30
0.0
  3
*PAPER_SPACE
  1

  0
ENDBLK
  5
18
100
AcDbEntity
 67
     1
  8
0
100
AcDbBlockEnd
  0
BLOCK
  5
4DF
100
AcDbEntity
  8
0
100
AcDbBlockBegin
  2
*D0
 70
    65
 10
0.0
 20
0.0
 30
0.0
  3
*D0
  1

  0
LINE
  5
4E0
100
AcDbEntity
  8
0
  6
BYBLOCK
 62
     0
100
AcDbLine
 10
71.623004
 20
116.864352
 30
0.0
 11
71.623004
 21
103.944926
 31
0.0
  0
LINE
  5
4E1
100
AcDbEntity
  8
0
  6
BYBLOCK
 62
     0
100
AcDbLine
 10
131.623004
 20
116.864352
 30
0.0
 11
131.623004
 21
103.944926
 31
0.0
  0
LINE
  5
4E2
100
AcDbEntity
  8
0
  6
BYBLOCK
 62
     0
100
AcDbLine
 10
74.123004
 20
105.194926
 30
0.0
 11
129.123004
 21
105.194926
 31
0.0
  0
SOLID
  5
4E3
100
AcDbEntity
  8
0
  6
BYBLOCK
 62
     0
100
AcDbTrace
 10
74.123004
 20
105.611592
 30
0.0
 11
74.123004
 21
104.778259
 31
0.0
 12
71.623004
 22
105.194926
 32
0.0
 13
71.623004
 23
105.194926
 33
0.0
  0
SOLID
  5
4E4
100
AcDbEntity
  8
0
  6
BYBLOCK
 62
     0
100
AcDbTrace
 10
129.123004
 20
105.611592
 30
0.0
 11
129.123004
 21
104.778259
 31
0.0
 12
131.623004
 22
105.194926
 32
0.0
 13
131.623004
 23
105.194926
 33
0.0
  0
MTEXT
  5
4E5
100
AcDbEntity
  8
0
  6
BYBLOCK
 62
     0
100
AcDbMText
 10
101.623004
 20
109.171107
 30
0.0
 40
3.0
 41
0.0
 71
     5
 72
     1
  1
\A1;60\S+0.05^  0;
  0
POINT
  5
4E6
100
AcDbEntity
  8
DEFPOINTS
  6
BYBLOCK
 62
     0
100
AcDbPoint
 10
71.623004
 20
117.489352
 30
0.0
  0
POINT
  5
4E7
100
AcDbEntity
  8
DEFPOINTS
  6
BYBLOCK
 62
     0
100
AcDbPoint
 10
131.623004
 20
117.489352
 30
0.0
  0
POINT
  5
4E8
100
AcDbEntity
  8
DEFPOINTS
  6
BYBLOCK
 62
     0
100
AcDbPoint
 10
131.623004
 20
105.194926
 30
0.0
  0
ENDBLK
  5
4E9
100
AcDbEntity
  8
0
100
AcDbBlockEnd
  0
BLOCK
  5
29F
100
AcDbEntity
  8
0
100
AcDbBlockBegin
  2
*D1
 70
    65
 10
0.0
 20
0.0
 30
0.0
  3
*D1
  1

  0
LINE
  5
2A0
100
AcDbEntity
  8
0
  6
BYBLOCK
 62
     0
100
AcDbLine
 10
131.248004
 20
109.90766
 30
0.0
 11
167.766655
 21
109.90766
 31
0.0
  0
LINE
  5
2A1
100
AcDbEntity
  8
0
  6
BYBLOCK
 62
     0
100
AcDbLine
 10
148.748004
 20
129.90766
 30
0.0
 11
167.766655
 21
129.90766
 31
0.0
  0
LINE
  5
2A2
100
AcDbEntity
  8
0
  6
BYBLOCK
 62
     0
100
AcDbLine
 10
166.516655
 20
112.40766
 30
0.0
 11
166.516655
 21
127.40766
 31
0.0
  0
SOLID
  5
2A3
100
AcDbEntity
  8
0
  6
BYBLOCK
 62
     0
100
AcDbTrace
 10
166.099989
 20
112.40766
 30
0.0
 11
166.933322
 21
112.40766
 31
0.0
 12
166.516655
 22
109.90766
 32
0.0
 13
166.516655
 23
109.90766
 33
0.0
  0
SOLID
  5
2A4
100
AcDbEntity
  8
0
  6
BYBLOCK
 62
     0
100
AcDbTrace
 10
166.099989
 20
127.40766
 30
0.0
 11
166.933322
 21
127.40766
 31
0.0
 12
166.516655
 22
129.90766
 32
0.0
 13
166.516655
 23
129.90766
 33
0.0
  0
MTEXT
  5
2A5
100
AcDbEntity
  8
0
  6
BYBLOCK
 62
     0
100
AcDbMText
 10
164.391655
 20
119.90766
 30
0.0
 40
3.0
 41
0.0
 71
     5
 72
     1
  1
\A1;20
 11
0.0
 21
1.0
 31
0.0
  0
POINT
  5
2A6
100
AcDbEntity
  8
DEFPOINTS
  6
BYBLOCK
 62
     0
100
AcDbPoint
 10
130.623004
 20
109.90766
 30
0.0
  0
POINT
  5
2A7
100
AcDbEntity
  8
DEFPOINTS
  6
BYBLOCK
 62
     0
100
AcDbPoint
 10
148.123004
 20
129.90766
 30
0.0
  0
POINT
  5
2A8
100
AcDbEntity
  8
DEFPOINTS
  6
BYBLOCK
 62
     0
100
AcDbPoint
 10
166.516655
 20
129.90766
 30
0.0
  0
ENDBLK
  5
2A9
100
AcDbEntity
  8
0
100
AcDbBlockEnd
  0
BLOCK
  5
495
100
AcDbEntity
  8
0
100
AcDbBlockBegin
  2
*D2
 70
    65
 10
0.0
 20
0.0
 30
0.0
  3
*D2
  1

  0
LINE
  5
496
100
AcDbEntity
  8
0
  6
BYBLOCK
 62
     0
100
AcDbLine
 10
131.248004
 20
116.489352
 30
0.0
 11
176.699208
 21
116.489352
 31
0.0
  0
LINE
  5
497
100
AcDbEntity
  8
0
  6
BYBLOCK
 62
     0
100
AcDbLine
 10
148.748004
 20
196.489352
 30
0.0
 11
176.699208
 21
196.489352
 31
0.0
  0
LINE
  5
498
100
AcDbEntity
  8
0
  6
BYBLOCK
 62
     0
100
AcDbLine
 10
175.449208
 20
118.989352
 30
0.0
 11
175.449208
 21
193.989352
 31
0.0
  0
SOLID
  5
499
100
AcDbEntity
  8
0
  6
BYBLOCK
 62
     0
100
AcDbTrace
 10
175.032541
 20
118.989352
 30
0.0
 11
175.865874
 21
118.989352
 31
0.0
 12
175.449208
 22
116.489352
 32
0.0
 13
175.449208
 23
116.489352
 33
0.0
  0
SOLID
  5
49A
100
AcDbEntity
  8
0
  6
BYBLOCK
 62
     0
100
AcDbTrace
 10
175.032541
 20
193.989352
 30
0.0
 11
175.865874
 21
193.989352
 31
0.0
 12
175.449208
 22
196.489352
 32
0.0
 13
175.449208
 23
196.489352
 33
0.0
  0
MTEXT
  5
49B
100
AcDbEntity
  8
0
  6
BYBLOCK
 62
     0
100
AcDbMText
 10
171.473027
 20
156.489352
 30
0.0
 40
3.0
 41
0.0
 71
     5
 72
     1
  1
\A1;80\S+0.05^  0;
 11
0.0
 21
1.0
 31
0.0
  0
POINT
  5
49C
100
AcDbEntity
  8
DEFPOINTS
  6
BYBLOCK
 62
     0
100
AcDbPoint
 10
130.623004
 20
116.489352
 30
0.0
  0
POINT
  5
49D
100
AcDbEntity
  8
DEFPOINTS
  6
BYBLOCK
 62
     0
100
AcDbPoint
 10
148.123004
 20
196.489352
 30
0.0
  0
POINT
  5
49E
100
AcDbEntity
  8
DEFPOINTS
  6
BYBLOCK
 62
     0
100
AcDbPoint
 10
175.449208
 20
196.489352
 30
0.0
  0
ENDBLK
  5
49F
100
AcDbEntity
  8
0
100
AcDbBlockEnd
  0
BLOCK
  5
4EA
100
AcDbEntity
  8
0
100
AcDbBlockBegin
  2
*D3
 70
    65
 10
0.0
 20
0.0
 30
0.0
  3
*D3
  1

  0
LINE
  5
4EB
100
AcDbEntity
  8
0
  6
BYBLOCK
 62
     0
100
AcDbLine
 10
54.123004
 20
136.864352
 30
0.0
 11
54.123004
 21
92.936408
 31
0.0
  0
LINE
  5
4EC
100
AcDbEntity
  8
0
  6
BYBLOCK
 62
     0
100
AcDbLine
 10
149.123004
 20
136.864352
 30
0.0
 11
149.123004
 21
92.936408
 31
0.0
  0
LINE
  5
4ED
100
AcDbEntity
  8
0
  6
BYBLOCK
 62
     0
100
AcDbLine
 10
56.623004
 20
94.186408
 30
0.0
 11
146.623004
 21
94.186408
 31
0.0
  0
SOLID
  5
4EE
100
AcDbEntity
  8
0
  6
BYBLOCK
 62
     0
100
AcDbTrace
 10
56.623004
 20
94.603075
 30
0.0
 11
56.623004
 21
93.769742
 31
0.0
 12
54.123004
 22
94.186408
 32
0.0
 13
54.123004
 23
94.186408
 33
0.0
  0
SOLID
  5
4EF
100
AcDbEntity
  8
0
  6
BYBLOCK
 62
     0
100
AcDbTrace
 10
146.623004
 20
94.603075
 30
0.0
 11
146.623004
 21
93.769742
 31
0.0
 12
149.123004
 22
94.186408
 32
0.0
 13
149.123004
 23
94.186408
 33
0.0
  0
MTEXT
  5
4F0
100
AcDbEntity
  8
0
  6
BYBLOCK
 62
     0
100
AcDbMText
 10
101.623004
 20
98.162589
 30
0.0
 40
3.0
 41
0.0
 71
     5
 72
     1
  1
\A1;95\S+0.05^  0;
  0
POINT
  5
4F1
100
AcDbEntity
  8
DEFPOINTS
  6
BYBLOCK
 62
     0
100
AcDbPoint
 10
54.123004
 20
137.489352
 30
0.0
  0
POINT
  5
4F2
100
AcDbEntity
  8
DEFPOINTS
  6
BYBLOCK
 62
     0
100
AcDbPoint
 10
149.123004
 20
137.489352
 30
0.0
  0
POINT
  5
4F3
100
AcDbEntity
  8
DEFPOINTS
  6
BYBLOCK
 62
     0
100
AcDbPoint
 10
149.123004
 20
94.186408
 30
0.0
  0
ENDBLK
  5
4F4
100
AcDbEntity
  8
0
100
AcDbBlockEnd
  0
BLOCK
  5
2B8
100
AcDbEntity
  8
0
100
AcDbBlockBegin
  2
*D4
 70
    65
 10
0.0
 20
0.0
 30
0.0
  3
*D4
  1

  0
LINE
  5
2B9
100
AcDbEntity
  8
0
  6
BYBLOCK
 62
     0
100
AcDbLine
 10
61.623004
 20
190.53266
 30
0.0
 11
61.623004
 21
212.175892
 31
0.0
  0
LINE
  5
2BA
100
AcDbEntity
  8
0
  6
BYBLOCK
 62
     0
100
AcDbLine
 10
141.623004
 20
190.53266
 30
0.0
 11
141.623004
 21
212.175892
 31
0.0
  0
LINE
  5
2BB
100
AcDbEntity
  8
0
  6
BYBLOCK
 62
     0
100
AcDbLine
 10
64.123004
 20
210.925892
 30
0.0
 11
139.123004
 21
210.925892
 31
0.0
  0
SOLID
  5
2BC
100
AcDbEntity
  8
0
  6
BYBLOCK
 62
     0
100
AcDbTrace
 10
64.123004
 20
211.342558
 30
0.0
 11
64.123004
 21
210.509225
 31
0.0
 12
61.623004
 22
210.925892
 32
0.0
 13
61.623004
 23
210.925892
 33
0.0
  0
SOLID
  5
2BD
100
AcDbEntity
  8
0
  6
BYBLOCK
 62
     0
100
AcDbTrace
 10
139.123004
 20
211.342558
 30
0.0
 11
139.123004
 21
210.509225
 31
0.0
 12
141.623004
 22
210.925892
 32
0.0
 13
141.623004
 23
210.925892
 33
0.0
  0
MTEXT
  5
2BE
100
AcDbEntity
  8
0
  6
BYBLOCK
 62
     0
100
AcDbMText
 10
101.623004
 20
213.050892
 30
0.0
 40
3.0
 41
0.0
 71
     5
 72
     1
  1
\A1;80
  0
POINT
  5
2BF
100
AcDbEntity
  8
DEFPOINTS
  6
BYBLOCK
 62
     0
100
AcDbPoint
 10
61.623004
 20
189.90766
 30
0.0
  0
POINT
  5
2C0
100
AcDbEntity
  8
DEFPOINTS
  6
BYBLOCK
 62
     0
100
AcDbPoint
 10
141.623004
 20
189.90766
 30
0.0
  0
POINT
  5
2C1
100
AcDbEntity
  8
DEFPOINTS
  6
BYBLOCK
 62
     0
100
AcDbPoint
 10
141.623004
 20
210.925892
 30
0.0
  0
ENDBLK
  5
2C2
100
AcDbEntity
  8
0
100
AcDbBlockEnd
  0
BLOCK
  5
32B
100
AcDbEntity
  8
0
100
AcDbBlockBegin
  2
*D5
 70
    65
 10
0.0
 20
0.0
 30
0.0
  3
*D5
  1

  0
ARC
  5
32C
100
AcDbEntity
  8
0
  6
BYBLOCK
 62
     0
100
AcDbCircle
 10
101.623004
 20
152.837012
 30
0.0
 40
51.860061
100
AcDbArc
 50
50.262305
 51
129.737695
  0
SOLID
  5
32D
100
AcDbEntity
  8
0
  6
BYBLOCK
 62
     0
100
AcDbTrace
 10
135.049795
 20
193.030212
 30
0.0
 11
134.501776
 21
192.402422
 31
0.0
 12
136.659154
 22
191.072259
 32
0.0
 13
136.659154
 23
191.072259
 33
0.0
  0
SOLID
  5
32E
100
AcDbEntity
  8
0
  6
BYBLOCK
 62
     0
100
AcDbTrace
 10
68.744232
 20
192.402422
 30
0.0
 11
68.196213
 21
193.030212
 31
0.0
 12
66.586855
 22
191.072259
 32
0.0
 13
66.586855
 23
191.072259
 33
0.0
  0
MTEXT
  5
32F
100
AcDbEntity
  8
0
  6
BYBLOCK
 62
     0
100
AcDbMText
 10
101.623004
 20
206.822073
 30
0.0
 40
3.0
 41
0.0
 71
     5
 72
     1
  1
\A1;85°
  0
POINT
  5
330
100
AcDbEntity
  8
DEFPOINTS
  6
BYBLOCK
 62
     0
100
AcDbPoint
 10
114.315409
 20
203.119899
 30
0.0
  0
POINT
  5
331
100
AcDbEntity
  8
DEFPOINTS
  6
BYBLOCK
 62
     0
100
AcDbPoint
 10
63.406605
 20
194.542893
 30
0.0
  0
POINT
  5
332
100
AcDbEntity
  8
DEFPOINTS
  6
BYBLOCK
 62
     0
100
AcDbPoint
 10
139.839403
 20
194.542893
 30
0.0
  0
POINT
  5
333
100
AcDbEntity
  8
DEFPOINTS
  6
BYBLOCK
 62
     0
100
AcDbPoint
 10
101.087592
 20
152.252712
 30
0.0
  0
POINT
  5
334
100
AcDbEntity
  8
DEFPOINTS
  6
BYBLOCK
 62
     0
100
AcDbPoint
 10
101.623004
 20
152.837012
 30
0.0
  0
ENDBLK
  5
335
100
AcDbEntity
  8
0
100
AcDbBlockEnd
  0
BLOCK
  5
36B
100
AcDbEntity
  8
0
100
AcDbBlockBegin
  2
*D6
 70
    65
 10
0.0
 20
0.0
 30
0.0
  3
*D6
  1

  0
ARC
  5
36C
100
AcDbEntity
  8
0
  6
BYBLOCK
 62
     0
100
AcDbCircle
 10
101.623004
 20
153.627786
 30
0.0
 40
28.761125
100
AcDbArc
 50
49.981884
 51
130.018116
  0
SOLID
  5
36D
100
AcDbEntity
  8
0
  6
BYBLOCK
 62
     0
100
AcDbTrace
 10
120.398809
 20
175.961393
 30
0.0
 11
119.83572
 21
175.347085
 31
0.0
 12
121.96019
 22
173.964972
 32
0.0
 13
121.96019
 23
173.964972
 33
0.0
  0
SOLID
  5
36E
100
AcDbEntity
  8
0
  6
BYBLOCK
 62
     0
100
AcDbTrace
 10
83.410289
 20
175.347085
 30
0.0
 11
82.8472
 21
175.961393
 31
0.0
 12
81.285818
 22
173.964972
 32
0.0
 13
81.285818
 23
173.964972
 33
0.0
  0
MTEXT
  5
36F
100
AcDbEntity
  8
0
  6
BYBLOCK
 62
     0
100
AcDbMText
 10
101.623004
 20
184.51391
 30
0.0
 40
3.0
 41
0.0
 71
     5
 72
     1
  1
\A1;90°
  0
POINT
  5
370
100
AcDbEntity
  8
DEFPOINTS
  6
BYBLOCK
 62
     0
100
AcDbPoint
 10
109.066931
 20
181.408899
 30
0.0
  0
POINT
  5
371
100
AcDbEntity
  8
DEFPOINTS
  6
BYBLOCK
 62
     0
100
AcDbPoint
 10
68.669427
 20
186.581364
 30
0.0
  0
POINT
  5
372
100
AcDbEntity
  8
DEFPOINTS
  6
BYBLOCK
 62
     0
100
AcDbPoint
 10
134.576582
 20
186.581364
 30
0.0
  0
POINT
  5
373
100
AcDbEntity
  8
DEFPOINTS
  6
BYBLOCK
 62
     0
100
AcDbPoint
 10
107.279858
 20
159.28464
 30
0.0
  0
POINT
  5
374
100
AcDbEntity
  8
DEFPOINTS
  6
BYBLOCK
 62
     0
100
AcDbPoint
 10
95.96615
 20
159.28464
 30
0.0
  0
ENDBLK
  5
375
100
AcDbEntity
  8
0
100
AcDbBlockEnd
  0
BLOCK
  5
37F
100
AcDbEntity
  8
0
100
AcDbBlockBegin
  2
*D7
 70
    65
 10
0.0
 20
0.0
 30
0.0
  3
*D7
  1

  0
LINE
  5
380
100
AcDbEntity
  8
0
  6
BYBLOCK
 62
     0
100
AcDbLine
 10
101.623004
 20
164.941494
 30
0.0
 11
98.995623
 21
160.109635
 31
0.0
  0
SOLID
  5
381
100
AcDbEntity
  8
0
  6
BYBLOCK
 62
     0
100
AcDbTrace
 10
98.629573
 20
160.308679
 30
0.0
 11
99.361673
 21
159.910591
 31
0.0
 12
97.801359
 22
157.913335
 32
0.0
 13
97.801359
 23
157.913335
 33
0.0
  0
MTEXT
  5
382
100
AcDbEntity
  8
0
  6
BYBLOCK
 62
     0
100
AcDbMText
 10
97.845327
 20
162.442539
 30
0.0
 40
3.0
 41
0.0
 71
     5
 72
     1
  1
\A1;R8
 11
0.477706
 21
0.87852
 31
0.0
  0
POINT
  5
383
100
AcDbEntity
  8
DEFPOINTS
  6
BYBLOCK
 62
     0
100
AcDbPoint
 10
97.801359
 20
157.913335
 30
0.0
  0
POINT
  5
384
100
AcDbEntity
  8
DEFPOINTS
  6
BYBLOCK
 62
     0
100
AcDbPoint
 10
101.623004
 20
164.941494
 30
0.0
  0
ENDBLK
  5
385
100
AcDbEntity
  8
0
100
AcDbBlockEnd
  0
BLOCK
  5
394
100
AcDbEntity
  8
0
100
AcDbBlockBegin
  2
*D8
 70
    65
 10
0.0
 20
0.0
 30
0.0
  3
*D8
  1

  0
LINE
  5
395
100
AcDbEntity
  8
0
  6
BYBLOCK
 62
     0
100
AcDbLine
 10
133.07398
 20
187.200082
 30
0.0
 11
132.107319
 21
186.233421
 31
0.0
  0
LINE
  5
396
100
AcDbEntity
  8
0
  6
BYBLOCK
 62
     0
100
AcDbLine
 10
134.13464
 20
186.139422
 30
0.0
 11
133.167979
 21
185.172761
 31
0.0
  0
LINE
  5
397
100
AcDbEntity
  8
0
  6
BYBLOCK
 62
     0
100
AcDbLine
 10
131.223436
 20
188.885072
 30
0.0
 11
129.455669
 21
190.652839
 31
0.0
  0
LINE
  5
398
100
AcDbEntity
  8
0
  6
BYBLOCK
 62
     0
100
AcDbLine
 10
135.81963
 20
184.288878
 30
0.0
 11
141.368078
 21
178.74043
 31
0.0
  0
SOLID
  5
399
100
AcDbEntity
  8
0
  6
BYBLOCK
 62
     0
100
AcDbTrace
 10
131.518064
 20
189.1797
 30
0.0
 11
130.928808
 21
188.590444
 31
0.0
 12
132.991203
 22
187.117305
 32
0.0
 13
132.991203
 23
187.117305
 33
0.0
  0
SOLID
  5
39A
100
AcDbEntity
  8
0
  6
BYBLOCK
 62
     0
100
AcDbTrace
 10
136.114258
 20
184.583505
 30
0.0
 11
135.525002
 21
183.99425
 31
0.0
 12
134.051863
 22
186.056645
 32
0.0
 13
134.051863
 23
186.056645
 33
0.0
  0
MTEXT
  5
39B
100
AcDbEntity
  8
0
  6
BYBLOCK
 62
     0
100
AcDbMText
 10
140.980339
 20
182.133372
 30
0.0
 40
3.0
 41
0.0
 71
     5
 72
     1
  1
\A1;1.5
 11
0.707107
 21
-0.707107
 31
0.0
  0
POINT
  5
39C
100
AcDbEntity
  8
DEFPOINTS
  6
BYBLOCK
 62
     0
100
AcDbPoint
 10
133.515922
 20
187.642024
 30
0.0
  0
POINT
  5
39D
100
AcDbEntity
  8
DEFPOINTS
  6
BYBLOCK
 62
     0
100
AcDbPoint
 10
134.576582
 20
186.581364
 30
0.0
  0
POINT
  5
39E
100
AcDbEntity
  8
DEFPOINTS
  6
BYBLOCK
 62
     0
100
AcDbPoint
 10
134.051863
 20
186.056645
 30
0.0
  0
ENDBLK
  5
39F
100
AcDbEntity
  8
0
100
AcDbBlockEnd
  0
BLOCK
  5
3B1
100
AcDbEntity
  8
0
100
AcDbBlockBegin
  2
*D9
 70
    65
 10
0.0
 20
0.0
 30
0.0
  3
*D9
  1

  0
LINE
  5
3B2
100
AcDbEntity
  8
0
  6
BYBLOCK
 62
     0
100
AcDbLine
 10
58.982941
 20
190.489352
 30
0.0
 11
60.908199
 21
193.412258
 31
0.0
  0
LINE
  5
3B3
100
AcDbEntity
  8
0
  6
BYBLOCK
 62
     0
100
AcDbLine
 10
62.283384
 20
195.500048
 30
0.0
 11
69.370686
 21
206.259913
 31
0.0
  0
SOLID
  5
3B4
100
AcDbEntity
  8
0
  6
BYBLOCK
 62
     0
100
AcDbTrace
 10
60.560234
 20
193.641455
 30
0.0
 11
61.256164
 21
193.183061
 31
0.0
 12
62.283384
 22
195.500048
 32
0.0
 13
62.283384
 23
195.500048
 33
0.0
  0
MTEXT
  5
3B5
100
AcDbEntity
  8
0
  6
BYBLOCK
 62
     0
100
AcDbMText
 10
66.063784
 20
205.102529
 30
0.0
 40
3.0
 41
0.0
 71
     5
 72
     1
  1
\A1;R6
 11
0.550074
 21
0.835116
 31
0.0
  0
POINT
  5
3B6
100
AcDbEntity
  8
DEFPOINTS
  6
BYBLOCK
 62
     0
100
AcDbPoint
 10
62.283384
 20
195.500048
 30
0.0
  0
POINT
  5
3B7
100
AcDbEntity
  8
DEFPOINTS
  6
BYBLOCK
 62
     0
100
AcDbPoint
 10
58.982941
 20
190.489352
 30
0.0
  0
ENDBLK
  5
3B8
100
AcDbEntity
  8
0
100
AcDbBlockEnd
  0
BLOCK
  5
3D8
100
AcDbEntity
  8
0
100
AcDbBlockBegin
  2
*X10
 70
    65
 10
0.0
 20
0.0
 30
0.0
  3
*X10
  1

  0
LINE
  5
3DA
100
AcDbEntity
  8
0
 62
     0
100
AcDbLine
 10
68.19487
 20
189.203822
 30
0.0
 11
68.249189
 21
189.25814
 31
0.0
  0
LINE
  5
3DB
100
AcDbEntity
  8
0
 62
     0
100
AcDbLine
 10
68.009115
 20
189.242572
 30
0.0
 11
68.141837
 21
189.375294
 31
0.0
  0
LINE
  5
3DC
100
AcDbEntity
  8
0
 62
     0
100
AcDbLine
 10
67.823359
 20
189.281323
 30
0.0
 11
68.034485
 21
189.492449
 31
0.0
  0
LINE
  5
3DD
100
AcDbEntity
  8
0
 62
     0
100
AcDbLine
 10
67.637604
 20
189.320074
 30
0.0
 11
67.927133
 21
189.609603
 31
0.0
  0
LINE
  5
3DE
100
AcDbEntity
  8
0
 62
     0
100
AcDbLine
 10
67.451848
 20
189.358825
 30
0.0
 11
67.81978
 21
189.726757
 31
0.0
  0
LINE
  5
3DF
100
AcDbEntity
  8
0
 62
     0
100
AcDbLine
 10
67.266093
 20
189.397576
 30
0.0
 11
67.712428
 21
189.843912
 31
0.0
  0
LINE
  5
3E0
100
AcDbEntity
  8
0
 62
     0
100
AcDbLine
 10
67.080338
 20
189.436327
 30
0.0
 11
67.605076
 21
189.961066
 31
0.0
  0
LINE
  5
3E1
100
AcDbEntity
  8
0
 62
     0
100
AcDbLine
 10
66.894582
 20
189.475078
 30
0.0
 11
67.497724
 21
190.07822
 31
0.0
  0
LINE
  5
3E2
100
AcDbEntity
  8
0
 62
     0
100
AcDbLine
 10
66.708827
 20
189.513829
 30
0.0
 11
67.390372
 21
190.195374
 31
0.0
  0
LINE
  5
3E3
100
AcDbEntity
  8
0
 62
     0
100
AcDbLine
 10
66.523071
 20
189.55258
 30
0.0
 11
67.28302
 21
190.312529
 31
0.0
  0
LINE
  5
3E4
100
AcDbEntity
  8
0
 62
     0
100
AcDbLine
 10
66.337316
 20
189.591331
 30
0.0
 11
67.175668
 21
190.429683
 31
0.0
  0
LINE
  5
3E5
100
AcDbEntity
  8
0
 62
     0
100
AcDbLine
 10
66.15156
 20
189.630082
 30
0.0
 11
67.068316
 21
190.546837
 31
0.0
  0
LINE
  5
3E6
100
AcDbEntity
  8
0
 62
     0
100
AcDbLine
 10
65.965805
 20
189.668833
 30
0.0
 11
66.960963
 21
190.663991
 31
0.0
  0
LINE
  5
3E7
100
AcDbEntity
  8
0
 62
     0
100
AcDbLine
 10
65.780049
 20
189.707584
 30
0.0
 11
66.853611
 21
190.781146
 31
0.0
  0
LINE
  5
3E8
100
AcDbEntity
  8
0
 62
     0
100
AcDbLine
 10
65.594294
 20
189.746335
 30
0.0
 11
66.746259
 21
190.8983
 31
0.0
  0
LINE
  5
3E9
100
AcDbEntity
  8
0
 62
     0
100
AcDbLine
 10
65.408538
 20
189.785086
 30
0.0
 11
66.638907
 21
191.015454
 31
0.0
  0
LINE
  5
3EA
100
AcDbEntity
  8
0
 62
     0
100
AcDbLine
 10
65.222783
 20
189.823837
 30
0.0
 11
66.531555
 21
191.132609
 31
0.0
  0
LINE
  5
3EB
100
AcDbEntity
  8
0
 62
     0
100
AcDbLine
 10
65.037028
 20
189.862588
 30
0.0
 11
66.424203
 21
191.249763
 31
0.0
  0
LINE
  5
3EC
100
AcDbEntity
  8
0
 62
     0
100
AcDbLine
 10
64.851272
 20
189.901339
 30
0.0
 11
66.316851
 21
191.366917
 31
0.0
  0
LINE
  5
3ED
100
AcDbEntity
  8
0
 62
     0
100
AcDbLine
 10
64.665517
 20
189.94009
 30
0.0
 11
66.209499
 21
191.484071
 31
0.0
  0
LINE
  5
3EE
100
AcDbEntity
  8
0
 62
     0
100
AcDbLine
 10
64.479761
 20
189.97884
 30
0.0
 11
66.102146
 21
191.601226
 31
0.0
  0
LINE
  5
3EF
100
AcDbEntity
  8
0
 62
     0
100
AcDbLine
 10
64.294006
 20
190.017591
 30
0.0
 11
65.994794
 21
191.71838
 31
0.0
  0
LINE
  5
3F0
100
AcDbEntity
  8
0
 62
     0
100
AcDbLine
 10
64.10825
 20
190.056342
 30
0.0
 11
65.887442
 21
191.835534
 31
0.0
  0
LINE
  5
3F1
100
AcDbEntity
  8
0
 62
     0
100
AcDbLine
 10
63.922495
 20
190.095093
 30
0.0
 11
65.78009
 21
191.952689
 31
0.0
  0
LINE
  5
3F2
100
AcDbEntity
  8
0
 62
     0
100
AcDbLine
 10
63.736739
 20
190.133844
 30
0.0
 11
65.672738
 21
192.069843
 31
0.0
  0
LINE
  5
3F3
100
AcDbEntity
  8
0
 62
     0
100
AcDbLine
 10
63.550984
 20
190.172595
 30
0.0
 11
65.565386
 21
192.186997
 31
0.0
  0
LINE
  5
3F4
100
AcDbEntity
  8
0
 62
     0
100
AcDbLine
 10
63.365228
 20
190.211346
 30
0.0
 11
65.458034
 21
192.304151
 31
0.0
  0
LINE
  5
3F5
100
AcDbEntity
  8
0
 62
     0
100
AcDbLine
 10
63.179473
 20
190.250097
 30
0.0
 11
65.350682
 21
192.421306
 31
0.0
  0
LINE
  5
3F6
100
AcDbEntity
  8
0
 62
     0
100
AcDbLine
 10
62.993718
 20
190.288848
 30
0.0
 11
65.243329
 21
192.53846
 31
0.0
  0
LINE
  5
3F7
100
AcDbEntity
  8
0
 62
     0
100
AcDbLine
 10
62.807962
 20
190.327599
 30
0.0
 11
65.135977
 21
192.655614
 31
0.0
  0
LINE
  5
3F8
100
AcDbEntity
  8
0
 62
     0
100
AcDbLine
 10
62.622207
 20
190.36635
 30
0.0
 11
65.028625
 21
192.772769
 31
0.0
  0
LINE
  5
3F9
100
AcDbEntity
  8
0
 62
     0
100
AcDbLine
 10
62.436451
 20
190.405101
 30
0.0
 11
64.921273
 21
192.889923
 31
0.0
  0
LINE
  5
3FA
100
AcDbEntity
  8
0
 62
     0
100
AcDbLine
 10
62.250696
 20
190.443852
 30
0.0
 11
64.813921
 21
193.007077
 31
0.0
  0
LINE
  5
3FB
100
AcDbEntity
  8
0
 62
     0
100
AcDbLine
 10
62.06494
 20
190.482603
 30
0.0
 11
64.706569
 21
193.124231
 31
0.0
  0
LINE
  5
3FC
100
AcDbEntity
  8
0
 62
     0
100
AcDbLine
 10
61.879185
 20
190.521354
 30
0.0
 11
64.599217
 21
193.241386
 31
0.0
  0
LINE
  5
3FD
100
AcDbEntity
  8
0
 62
     0
100
AcDbLine
 10
61.693429
 20
190.560105
 30
0.0
 11
64.491865
 21
193.35854
 31
0.0
  0
LINE
  5
3FE
100
AcDbEntity
  8
0
 62
     0
100
AcDbLine
 10
61.507674
 20
190.598856
 30
0.0
 11
64.384513
 21
193.475694
 31
0.0
  0
LINE
  5
3FF
100
AcDbEntity
  8
0
 62
     0
100
AcDbLine
 10
61.321918
 20
190.637607
 30
0.0
 11
64.27716
 21
193.592849
 31
0.0
  0
LINE
  5
400
100
AcDbEntity
  8
0
 62
     0
100
AcDbLine
 10
61.136163
 20
190.676358
 30
0.0
 11
64.169808
 21
193.710003
 31
0.0
  0
LINE
  5
401
100
AcDbEntity
  8
0
 62
     0
100
AcDbLine
 10
60.950408
 20
190.715108
 30
0.0
 11
64.062456
 21
193.827157
 31
0.0
  0
LINE
  5
402
100
AcDbEntity
  8
0
 62
     0
100
AcDbLine
 10
60.764652
 20
190.753859
 30
0.0
 11
63.955104
 21
193.944311
 31
0.0
  0
LINE
  5
403
100
AcDbEntity
  8
0
 62
     0
100
AcDbLine
 10
60.578897
 20
190.79261
 30
0.0
 11
63.847752
 21
194.061466
 31
0.0
  0
LINE
  5
404
100
AcDbEntity
  8
0
 62
     0
100
AcDbLine
 10
60.393141
 20
190.831361
 30
0.0
 11
63.7404
 21
194.17862
 31
0.0
  0
LINE
  5
405
100
AcDbEntity
  8
0
 62
     0
100
AcDbLine
 10
60.207386
 20
190.870112
 30
0.0
 11
63.633048
 21
194.295774
 31
0.0
  0
LINE
  5
406
100
AcDbEntity
  8
0
 62
     0
100
AcDbLine
 10
60.02163
 20
190.908863
 30
0.0
 11
63.525696
 21
194.412929
 31
0.0
  0
LINE
  5
407
100
AcDbEntity
  8
0
 62
     0
100
AcDbLine
 10
59.835875
 20
190.947614
 30
0.0
 11
63.418343
 21
194.530083
 31
0.0
  0
LINE
  5
408
100
AcDbEntity
  8
0
 62
     0
100
AcDbLine
 10
59.650119
 20
190.986365
 30
0.0
 11
63.309811
 21
194.646057
 31
0.0
  0
LINE
  5
409
100
AcDbEntity
  8
0
 62
     0
100
AcDbLine
 10
59.464364
 20
191.025116
 30
0.0
 11
63.198324
 21
194.759076
 31
0.0
  0
LINE
  5
40A
100
AcDbEntity
  8
0
 62
     0
100
AcDbLine
 10
59.278608
 20
191.063867
 30
0.0
 11
63.083866
 21
194.869125
 31
0.0
  0
LINE
  5
40B
100
AcDbEntity
  8
0
 62
     0
100
AcDbLine
 10
59.092853
 20
191.102618
 30
0.0
 11
62.966433
 21
194.976198
 31
0.0
  0
LINE
  5
40C
100
AcDbEntity
  8
0
 62
     0
100
AcDbLine
 10
58.907098
 20
191.141369
 30
0.0
 11
62.846014
 21
195.080285
 31
0.0
  0
LINE
  5
40D
100
AcDbEntity
  8
0
 62
     0
100
AcDbLine
 10
58.721342
 20
191.18012
 30
0.0
 11
62.722591
 21
195.181368
 31
0.0
  0
LINE
  5
40E
100
AcDbEntity
  8
0
 62
     0
100
AcDbLine
 10
58.535587
 20
191.218871
 30
0.0
 11
62.59614
 21
195.279424
 31
0.0
  0
LINE
  5
40F
100
AcDbEntity
  8
0
 62
     0
100
AcDbLine
 10
58.349831
 20
191.257622
 30
0.0
 11
62.466631
 21
195.374421
 31
0.0
  0
LINE
  5
410
100
AcDbEntity
  8
0
 62
     0
100
AcDbLine
 10
58.164076
 20
191.296373
 30
0.0
 11
62.334025
 21
195.466322
 31
0.0
  0
LINE
  5
411
100
AcDbEntity
  8
0
 62
     0
100
AcDbLine
 10
57.97832
 20
191.335124
 30
0.0
 11
62.198277
 21
195.555081
 31
0.0
  0
LINE
  5
412
100
AcDbEntity
  8
0
 62
     0
100
AcDbLine
 10
57.792565
 20
191.373875
 30
0.0
 11
62.059334
 21
195.640644
 31
0.0
  0
LINE
  5
413
100
AcDbEntity
  8
0
 62
     0
100
AcDbLine
 10
57.606809
 20
191.412626
 30
0.0
 11
61.917131
 21
195.722948
 31
0.0
  0
LINE
  5
414
100
AcDbEntity
  8
0
 62
     0
100
AcDbLine
 10
57.421054
 20
191.451376
 30
0.0
 11
61.771598
 21
195.801921
 31
0.0
  0
LINE
  5
415
100
AcDbEntity
  8
0
 62
     0
100
AcDbLine
 10
57.235298
 20
191.490127
 30
0.0
 11
61.622651
 21
195.87748
 31
0.0
  0
LINE
  5
416
100
AcDbEntity
  8
0
 62
     0
100
AcDbLine
 10
57.049543
 20
191.528878
 30
0.0
 11
61.470196
 21
195.949531
 31
0.0
  0
LINE
  5
417
100
AcDbEntity
  8
0
 62
     0
100
AcDbLine
 10
56.863788
 20
191.567629
 30
0.0
 11
61.314125
 21
196.017967
 31
0.0
  0
LINE
  5
418
100
AcDbEntity
  8
0
 62
     0
100
AcDbLine
 10
56.678032
 20
191.60638
 30
0.0
 11
61.154315
 21
196.082663
 31
0.0
  0
LINE
  5
419
100
AcDbEntity
  8
0
 62
     0
100
AcDbLine
 10
56.492277
 20
191.645131
 30
0.0
 11
60.990628
 21
196.143482
 31
0.0
  0
LINE
  5
41A
100
AcDbEntity
  8
0
 62
     0
100
AcDbLine
 10
56.306521
 20
191.683882
 30
0.0
 11
60.822904
 21
196.200265
 31
0.0
  0
LINE
  5
41B
100
AcDbEntity
  8
0
 62
     0
100
AcDbLine
 10
56.120766
 20
191.722633
 30
0.0
 11
60.650964
 21
196.252832
 31
0.0
  0
LINE
  5
41C
100
AcDbEntity
  8
0
 62
     0
100
AcDbLine
 10
55.93501
 20
191.761384
 30
0.0
 11
60.4746
 21
196.300974
 31
0.0
  0
LINE
  5
41D
100
AcDbEntity
  8
0
 62
     0
100
AcDbLine
 10
55.749255
 20
191.800135
 30
0.0
 11
60.293575
 21
196.344455
 31
0.0
  0
LINE
  5
41E
100
AcDbEntity
  8
0
 62
     0
100
AcDbLine
 10
55.563499
 20
191.838886
 30
0.0
 11
60.107615
 21
196.383002
 31
0.0
  0
LINE
  5
41F
100
AcDbEntity
  8
0
 62
     0
100
AcDbLine
 10
55.377744
 20
191.877637
 30
0.0
 11
59.916402
 21
196.416295
 31
0.0
  0
LINE
  5
420
100
AcDbEntity
  8
0
 62
     0
100
AcDbLine
 10
55.191988
 20
191.916388
 30
0.0
 11
59.719563
 21
196.443962
 31
0.0
  0
LINE
  5
421
100
AcDbEntity
  8
0
 62
     0
100
AcDbLine
 10
55.006233
 20
191.955139
 30
0.0
 11
59.516661
 21
196.465567
 31
0.0
  0
LINE
  5
422
100
AcDbEntity
  8
0
 62
     0
100
AcDbLine
 10
54.820478
 20
191.99389
 30
0.0
 11
59.307173
 21
196.480585
 31
0.0
  0
LINE
  5
423
100
AcDbEntity
  8
0
 62
     0
100
AcDbLine
 10
54.634722
 20
192.032641
 30
0.0
 11
59.090469
 21
196.488388
 31
0.0
  0
LINE
  5
424
100
AcDbEntity
  8
0
 62
     0
100
AcDbLine
 10
54.448967
 20
192.071392
 30
0.0
 11
58.866927
 21
196.489352
 31
0.0
  0
LINE
  5
425
100
AcDbEntity
  8
0
 62
     0
100
AcDbLine
 10
54.263211
 20
192.110143
 30
0.0
 11
58.64242
 21
196.489352
 31
0.0
  0
LINE
  5
426
100
AcDbEntity
  8
0
 62
     0
100
AcDbLine
 10
54.123004
 20
192.194442
 30
0.0
 11
58.417914
 21
196.489352
 31
0.0
  0
LINE
  5
427
100
AcDbEntity
  8
0
 62
     0
100
AcDbLine
 10
54.123004
 20
192.418948
 30
0.0
 11
58.193407
 21
196.489352
 31
0.0
  0
LINE
  5
428
100
AcDbEntity
  8
0
 62
     0
100
AcDbLine
 10
54.123004
 20
192.643455
 30
0.0
 11
57.968901
 21
196.489352
 31
0.0
  0
LINE
  5
429
100
AcDbEntity
  8
0
 62
     0
100
AcDbLine
 10
54.123004
 20
192.867961
 30
0.0
 11
57.744395
 21
196.489352
 31
0.0
  0
LINE
  5
42A
100
AcDbEntity
  8
0
 62
     0
100
AcDbLine
 10
54.123004
 20
193.092468
 30
0.0
 11
57.519888
 21
196.489352
 31
0.0
  0
LINE
  5
42B
100
AcDbEntity
  8
0
 62
     0
100
AcDbLine
 10
54.123004
 20
193.316974
 30
0.0
 11
57.295382
 21
196.489352
 31
0.0
  0
LINE
  5
42C
100
AcDbEntity
  8
0
 62
     0
100
AcDbLine
 10
54.123004
 20
193.541481
 30
0.0
 11
57.070875
 21
196.489352
 31
0.0
  0
LINE
  5
42D
100
AcDbEntity
  8
0
 62
     0
100
AcDbLine
 10
54.123004
 20
193.765987
 30
0.0
 11
56.846369
 21
196.489352
 31
0.0
  0
LINE
  5
42E
100
AcDbEntity
  8
0
 62
     0
100
AcDbLine
 10
54.123004
 20
193.990493
 30
0.0
 11
56.621863
 21
196.489352
 31
0.0
  0
LINE
  5
42F
100
AcDbEntity
  8
0
 62
     0
100
AcDbLine
 10
54.123004
 20
194.215
 30
0.0
 11
56.397356
 21
196.489352
 31
0.0
  0
LINE
  5
430
100
AcDbEntity
  8
0
 62
     0
100
AcDbLine
 10
54.123004
 20
194.439506
 30
0.0
 11
56.17285
 21
196.489352
 31
0.0
  0
LINE
  5
431
100
AcDbEntity
  8
0
 62
     0
100
AcDbLine
 10
54.123004
 20
194.664013
 30
0.0
 11
55.948343
 21
196.489352
 31
0.0
  0
LINE
  5
432
100
AcDbEntity
  8
0
 62
     0
100
AcDbLine
 10
54.123004
 20
194.888519
 30
0.0
 11
55.723837
 21
196.489352
 31
0.0
  0
LINE
  5
433
100
AcDbEntity
  8
0
 62
     0
100
AcDbLine
 10
54.123004
 20
195.113025
 30
0.0
 11
55.499331
 21
196.489352
 31
0.0
  0
LINE
  5
434
100
AcDbEntity
  8
0
 62
     0
100
AcDbLine
 10
54.123004
 20
195.337532
 30
0.0
 11
55.274824
 21
196.489352
 31
0.0
  0
LINE
  5
435
100
AcDbEntity
  8
0
 62
     0
100
AcDbLine
 10
138.213775
 20
192.768831
 30
0.0
 11
140.909786
 21
195.464842
 31
0.0
  0
LINE
  5
436
100
AcDbEntity
  8
0
 62
     0
100
AcDbLine
 10
135.755008
 20
190.085557
 30
0.0
 11
141.468003
 21
195.798553
 31
0.0
  0
LINE
  5
437
100
AcDbEntity
  8
0
 62
     0
100
AcDbLine
 10
135.163054
 20
189.269097
 30
0.0
 11
141.897148
 21
196.003191
 31
0.0
  0
LINE
  5
438
100
AcDbEntity
  8
0
 62
     0
100
AcDbLine
 10
135.48162
 20
189.363157
 30
0.0
 11
142.265544
 21
196.147081
 31
0.0
  0
LINE
  5
439
100
AcDbEntity
  8
0
 62
     0
100
AcDbLine
 10
135.800187
 20
189.457217
 30
0.0
 11
142.596109
 21
196.25314
 31
0.0
  0
LINE
  5
43A
100
AcDbEntity
  8
0
 62
     0
100
AcDbLine
 10
136.118753
 20
189.551277
 30
0.0
 11
142.899931
 21
196.332455
 31
0.0
  0
LINE
  5
43B
100
AcDbEntity
  8
0
 62
     0
100
AcDbLine
 10
136.437319
 20
189.645336
 30
0.0
 11
143.183394
 21
196.391411
 31
0.0
  0
LINE
  5
43C
100
AcDbEntity
  8
0
 62
     0
100
AcDbLine
 10
136.755885
 20
189.739396
 30
0.0
 11
143.450574
 21
196.434085
 31
0.0
  0
LINE
  5
43D
100
AcDbEntity
  8
0
 62
     0
100
AcDbLine
 10
137.074451
 20
189.833456
 30
0.0
 11
143.704269
 21
196.463274
 31
0.0
  0
LINE
  5
43E
100
AcDbEntity
  8
0
 62
     0
100
AcDbLine
 10
137.393017
 20
189.927516
 30
0.0
 11
143.946496
 21
196.480994
 31
0.0
  0
LINE
  5
43F
100
AcDbEntity
  8
0
 62
     0
100
AcDbLine
 10
137.711584
 20
190.021575
 30
0.0
 11
144.178768
 21
196.48876
 31
0.0
  0
LINE
  5
440
100
AcDbEntity
  8
0
 62
     0
100
AcDbLine
 10
138.03015
 20
190.115635
 30
0.0
 11
144.403866
 21
196.489352
 31
0.0
  0
LINE
  5
441
100
AcDbEntity
  8
0
 62
     0
100
AcDbLine
 10
138.348716
 20
190.209695
 30
0.0
 11
144.628373
 21
196.489352
 31
0.0
  0
LINE
  5
442
100
AcDbEntity
  8
0
 62
     0
100
AcDbLine
 10
138.667282
 20
190.303755
 30
0.0
 11
144.852879
 21
196.489352
 31
0.0
  0
LINE
  5
443
100
AcDbEntity
  8
0
 62
     0
100
AcDbLine
 10
138.985848
 20
190.397815
 30
0.0
 11
145.077385
 21
196.489352
 31
0.0
  0
LINE
  5
444
100
AcDbEntity
  8
0
 62
     0
100
AcDbLine
 10
139.304414
 20
190.491874
 30
0.0
 11
145.301892
 21
196.489352
 31
0.0
  0
LINE
  5
445
100
AcDbEntity
  8
0
 62
     0
100
AcDbLine
 10
139.622981
 20
190.585934
 30
0.0
 11
145.526398
 21
196.489352
 31
0.0
  0
LINE
  5
446
100
AcDbEntity
  8
0
 62
     0
100
AcDbLine
 10
139.941547
 20
190.679994
 30
0.0
 11
145.750905
 21
196.489352
 31
0.0
  0
LINE
  5
447
100
AcDbEntity
  8
0
 62
     0
100
AcDbLine
 10
140.260113
 20
190.774054
 30
0.0
 11
145.975411
 21
196.489352
 31
0.0
  0
LINE
  5
448
100
AcDbEntity
  8
0
 62
     0
100
AcDbLine
 10
140.578679
 20
190.868113
 30
0.0
 11
146.199917
 21
196.489352
 31
0.0
  0
LINE
  5
449
100
AcDbEntity
  8
0
 62
     0
100
AcDbLine
 10
140.897245
 20
190.962173
 30
0.0
 11
146.424424
 21
196.489352
 31
0.0
  0
LINE
  5
44A
100
AcDbEntity
  8
0
 62
     0
100
AcDbLine
 10
141.215811
 20
191.056233
 30
0.0
 11
146.64893
 21
196.489352
 31
0.0
  0
LINE
  5
44B
100
AcDbEntity
  8
0
 62
     0
100
AcDbLine
 10
141.534378
 20
191.150293
 30
0.0
 11
146.873437
 21
196.489352
 31
0.0
  0
LINE
  5
44C
100
AcDbEntity
  8
0
 62
     0
100
AcDbLine
 10
141.852944
 20
191.244353
 30
0.0
 11
147.097943
 21
196.489352
 31
0.0
  0
LINE
  5
44D
100
AcDbEntity
  8
0
 62
     0
100
AcDbLine
 10
142.17151
 20
191.338412
 30
0.0
 11
147.322449
 21
196.489352
 31
0.0
  0
LINE
  5
44E
100
AcDbEntity
  8
0
 62
     0
100
AcDbLine
 10
142.490076
 20
191.432472
 30
0.0
 11
147.546956
 21
196.489352
 31
0.0
  0
LINE
  5
44F
100
AcDbEntity
  8
0
 62
     0
100
AcDbLine
 10
142.808642
 20
191.526532
 30
0.0
 11
147.771462
 21
196.489352
 31
0.0
  0
LINE
  5
450
100
AcDbEntity
  8
0
 62
     0
100
AcDbLine
 10
143.127209
 20
191.620592
 30
0.0
 11
147.995969
 21
196.489352
 31
0.0
  0
LINE
  5
451
100
AcDbEntity
  8
0
 62
     0
100
AcDbLine
 10
143.445775
 20
191.714651
 30
0.0
 11
148.17174
 21
196.440616
 31
0.0
  0
LINE
  5
452
100
AcDbEntity
  8
0
 62
     0
100
AcDbLine
 10
143.764341
 20
191.808711
 30
0.0
 11
148.283993
 21
196.328363
 31
0.0
  0
LINE
  5
453
100
AcDbEntity
  8
0
 62
     0
100
AcDbLine
 10
144.082907
 20
191.902771
 30
0.0
 11
148.396246
 21
196.21611
 31
0.0
  0
LINE
  5
454
100
AcDbEntity
  8
0
 62
     0
100
AcDbLine
 10
144.401473
 20
191.996831
 30
0.0
 11
148.508499
 21
196.103857
 31
0.0
  0
LINE
  5
455
100
AcDbEntity
  8
0
 62
     0
100
AcDbLine
 10
144.720039
 20
192.09089
 30
0.0
 11
148.620752
 21
195.991604
 31
0.0
  0
LINE
  5
456
100
AcDbEntity
  8
0
 62
     0
100
AcDbLine
 10
145.038606
 20
192.18495
 30
0.0
 11
148.733006
 21
195.87935
 31
0.0
  0
LINE
  5
457
100
AcDbEntity
  8
0
 62
     0
100
AcDbLine
 10
145.357172
 20
192.27901
 30
0.0
 11
148.845259
 21
195.767097
 31
0.0
  0
LINE
  5
458
100
AcDbEntity
  8
0
 62
     0
100
AcDbLine
 10
145.675738
 20
192.37307
 30
0.0
 11
148.957512
 21
195.654844
 31
0.0
  0
LINE
  5
459
100
AcDbEntity
  8
0
 62
     0
100
AcDbLine
 10
145.994304
 20
192.46713
 30
0.0
 11
149.069765
 21
195.542591
 31
0.0
  0
LINE
  5
45A
100
AcDbEntity
  8
0
 62
     0
100
AcDbLine
 10
146.31287
 20
192.561189
 30
0.0
 11
149.123004
 21
195.371323
 31
0.0
  0
LINE
  5
45B
100
AcDbEntity
  8
0
 62
     0
100
AcDbLine
 10
146.631436
 20
192.655249
 30
0.0
 11
149.123004
 21
195.146817
 31
0.0
  0
LINE
  5
45C
100
AcDbEntity
  8
0
 62
     0
100
AcDbLine
 10
146.950003
 20
192.749309
 30
0.0
 11
149.123004
 21
194.92231
 31
0.0
  0
LINE
  5
45D
100
AcDbEntity
  8
0
 62
     0
100
AcDbLine
 10
147.268569
 20
192.843369
 30
0.0
 11
149.123004
 21
194.697804
 31
0.0
  0
LINE
  5
45E
100
AcDbEntity
  8
0
 62
     0
100
AcDbLine
 10
147.587135
 20
192.937428
 30
0.0
 11
149.123004
 21
194.473298
 31
0.0
  0
LINE
  5
45F
100
AcDbEntity
  8
0
 62
     0
100
AcDbLine
 10
147.905701
 20
193.031488
 30
0.0
 11
149.123004
 21
194.248791
 31
0.0
  0
LINE
  5
460
100
AcDbEntity
  8
0
 62
     0
100
AcDbLine
 10
148.224267
 20
193.125548
 30
0.0
 11
149.123004
 21
194.024285
 31
0.0
  0
LINE
  5
461
100
AcDbEntity
  8
0
 62
     0
100
AcDbLine
 10
148.542834
 20
193.219608
 30
0.0
 11
149.123004
 21
193.799778
 31
0.0
  0
LINE
  5
462
100
AcDbEntity
  8
0
 62
     0
100
AcDbLine
 10
148.8614
 20
193.313667
 30
0.0
 11
149.123004
 21
193.575272
 31
0.0
  0
ENDBLK
  5
463
100
AcDbEntity
  8
0
100
AcDbBlockEnd
  0
BLOCK
  5
5B5
100
AcDbEntity
  8
0
100
AcDbBlockBegin
  2
*D11
 70
    65
 10
0.0
 20
0.0
 30
0.0
  3
*D11
  1

  0
LINE
  5
5B6
100
AcDbEntity
  8
0
  6
BYBLOCK
 62
     0
100
AcDbLine
 10
102.223651
 20
276.819797
 30
0.0
 11
184.076793
 21
276.819797
 31
0.0
  0
LINE
  5
5B7
100
AcDbEntity
  8
0
  6
BYBLOCK
 62
     0
100
AcDbLine
 10
73.248004
 20
116.489352
 30
0.0
 11
184.076793
 21
116.489352
 31
0.0
  0
LINE
  5
5B8
100
AcDbEntity
  8
0
  6
BYBLOCK
 62
     0
100
AcDbLine
 10
182.826793
 20
274.319797
 30
0.0
 11
182.826793
 21
118.989352
 31
0.0
  0
SOLID
  5
5B9
100
AcDbEntity
  8
0
  6
BYBLOCK
 62
     0
100
AcDbTrace
 10
182.410126
 20
274.319797
 30
0.0
 11
183.243459
 21
274.319797
 31
0.0
 12
182.826793
 22
276.819797
 32
0.0
 13
182.826793
 23
276.819797
 33
0.0
  0
SOLID
  5
5BA
100
AcDbEntity
  8
0
  6
BYBLOCK
 62
     0
100
AcDbTrace
 10
182.410126
 20
118.989352
 30
0.0
 11
183.243459
 21
118.989352
 31
0.0
 12
182.826793
 22
116.489352
 32
0.0
 13
182.826793
 23
116.489352
 33
0.0
  0
MTEXT
  5
5BB
100
AcDbEntity
  8
0
  6
BYBLOCK
 62
     0
100
AcDbMText
 10
178.850611
 20
198.253057
 30
0.0
 40
3.0
 41
0.0
 71
     5
 72
     1
  1
\A1;160.33\S+0.05^  0;
 11
0.0
 21
1.0
 31
0.0
  0
POINT
  5
5BC
100
AcDbEntity
  8
DEFPOINTS
  6
BYBLOCK
 62
     0
100
AcDbPoint
 10
101.598651
 20
276.819797
 30
0.0
  0
POINT
  5
5BD
100
AcDbEntity
  8
DEFPOINTS
  6
BYBLOCK
 62
     0
100
AcDbPoint
 10
72.623004
 20
116.489352
 30
0.0
  0
POINT
  5
5BE
100
AcDbEntity
  8
DEFPOINTS
  6
BYBLOCK
 62
     0
100
AcDbPoint
 10
182.826793
 20
116.489352
 30
0.0
  0
ENDBLK
  5
5BF
100
AcDbEntity
  8
0
100
AcDbBlockEnd
  0
BLOCK
  5
4A1
100
AcDbEntity
  8
0
100
AcDbBlockBegin
  2
*D12
 70
    65
 10
0.0
 20
0.0
 30
0.0
  3
*D12
  1

  0
LINE
  5
4A2
100
AcDbEntity
  8
0
  6
BYBLOCK
 62
     0
100
AcDbLine
 10
148.579775
 20
219.818082
 30
0.0
 11
54.617528
 21
233.821512
 31
0.0
  0
SOLID
  5
4A3
100
AcDbEntity
  8
0
  6
BYBLOCK
 62
     0
100
AcDbTrace
 10
148.641194
 20
220.230197
 30
0.0
 11
148.518357
 21
219.405967
 31
0.0
 12
151.052466
 22
219.449571
 32
0.0
 13
151.052466
 23
219.449571
 33
0.0
  0
SOLID
  5
4A4
100
AcDbEntity
  8
0
  6
BYBLOCK
 62
     0
100
AcDbTrace
 10
54.678946
 20
234.233627
 30
0.0
 11
54.556109
 21
233.409396
 31
0.0
 12
52.144837
 22
234.190023
 32
0.0
 13
52.144837
 23
234.190023
 33
0.0
  0
MTEXT
  5
4A5
100
AcDbEntity
  8
0
  6
BYBLOCK
 62
     0
100
AcDbMText
 10
93.825769
 20
230.126678
 30
0.0
 40
3.0
 41
0.0
 71
     5
 72
     1
  1
\A1;\U+2205100
 11
0.989076
 21
-0.147405
 31
0.0
  0
POINT
  5
4A6
100
AcDbEntity
  8
DEFPOINTS
  6
BYBLOCK
 62
     0
100
AcDbPoint
 10
52.144837
 20
234.190023
 30
0.0
  0
POINT
  5
4A7
100
AcDbEntity
  8
DEFPOINTS
  6
BYBLOCK
 62
     0
100
AcDbPoint
 10
151.052466
 20
219.449571
 30
0.0
  0
ENDBLK
  5
4A8
100
AcDbEntity
  8
0
100
AcDbBlockEnd
  0
BLOCK
  5
4B8
100
AcDbEntity
  8
QUOTE
100
AcDbBlockBegin
  2
RUGOSITA
 70
     2
 10
0.0
 20
0.0
 30
0.0
  3
RUGOSITA
  1

  0
ATTDEF
  5
4B4
100
AcDbEntity
  8
QUOTE
100
AcDbText
 10
-1.071886
 20
3.214106
 30
0.0
 40
1.5
  1
0.8
100
AcDbAttributeDefinition
  3
CHE RUGOSITA ?
  2
RUGOSITA
 70
     0
  0
LINE
  5
4B5
100
AcDbEntity
  8
QUOTE
100
AcDbLine
 10
0.0
 20
0.0
 30
0.0
 11
4.0
 21
6.928203
 31
0.0
  0
LINE
  5
4B6
100
AcDbEntity
  8
QUOTE
100
AcDbLine
 10
0.0
 20
0.0
 30
0.0
 11
-1.75
 21
3.031089
 31
0.0
  0
LINE
  5
4B7
100
AcDbEntity
  8
QUOTE
100
AcDbLine
 10
-1.75
 20
3.031089
 30
0.0
 11
1.75
 21
3.031089
 31
0.0
  0
ENDBLK
  5
4B9
100
AcDbEntity
  8
QUOTE
100
AcDbBlockEnd
  0
BLOCK
  5
535
100
AcDbEntity
  8
0
100
AcDbBlockBegin
  2
*D14
 70
    65
 10
0.0
 20
0.0
 30
0.0
  3
*D14
  1

  0
LINE
  5
536
100
AcDbEntity
  8
0
  6
BYBLOCK
 62
     0
100
AcDbLine
 10
127.69328
 20
78.811845
 30
0.0
 11
127.69328
 21
85.742316
 31
0.0
  0
LINE
  5
537
100
AcDbEntity
  8
0
  6
BYBLOCK
 62
     0
100
AcDbLine
 10
135.69328
 20
73.811845
 30
0.0
 11
135.69328
 21
85.742316
 31
0.0
  0
LINE
  5
538
100
AcDbEntity
  8
0
  6
BYBLOCK
 62
     0
100
AcDbLine
 10
125.19328
 20
84.492316
 30
0.0
 11
122.69328
 21
84.492316
 31
0.0
  0
LINE
  5
539
100
AcDbEntity
  8
0
  6
BYBLOCK
 62
     0
100
AcDbLine
 10
138.19328
 20
84.492316
 30
0.0
 11
140.69328
 21
84.492316
 31
0.0
  0
SOLID
  5
53A
100
AcDbEntity
  8
0
  6
BYBLOCK
 62
     0
100
AcDbTrace
 10
125.19328
 20
84.908982
 30
0.0
 11
125.19328
 21
84.075649
 31
0.0
 12
127.69328
 22
84.492316
 32
0.0
 13
127.69328
 23
84.492316
 33
0.0
  0
SOLID
  5
53B
100
AcDbEntity
  8
0
  6
BYBLOCK
 62
     0
100
AcDbTrace
 10
138.19328
 20
84.908982
 30
0.0
 11
138.19328
 21
84.075649
 31
0.0
 12
135.69328
 22
84.492316
 32
0.0
 13
135.69328
 23
84.492316
 33
0.0
  0
MTEXT
  5
53C
100
AcDbEntity
  8
0
  6
BYBLOCK
 62
     0
100
AcDbMText
 10
131.69328
 20
86.617316
 30
0.0
 40
3.0
 41
0.0
 71
     5
 72
     1
  1
\A1;{50}
  0
POINT
  5
53D
100
AcDbEntity
  8
DEFPOINTS
  6
BYBLOCK
 62
     0
100
AcDbPoint
 10
127.69328
 20
78.186845
 30
0.0
  0
POINT
  5
53E
100
AcDbEntity
  8
DEFPOINTS
  6
BYBLOCK
 62
     0
100
AcDbPoint
 10
135.69328
 20
73.186845
 30
0.0
  0
POINT
  5
53F
100
AcDbEntity
  8
DEFPOINTS
  6
BYBLOCK
 62
     0
100
AcDbPoint
 10
135.69328
 20
84.492316
 30
0.0
  0
ENDBLK
  5
540
100
AcDbEntity
  8
0
100
AcDbBlockEnd
  0
BLOCK
  5
582
100
AcDbEntity
  8
QUOTE
100
AcDbBlockBegin
  2
A$C1072
 70
     0
 10
0.0
 20
0.0
 30
0.0
  3
A$C1072
  1

  0
TEXT
  5
579
100
AcDbEntity
  8
TESTO
100
AcDbText
 10
48.49321
 20
6.556848
 30
0.0
 40
2.5
  1
TOLLERANZE AL METRO
 41
1.1
100
AcDbText
  0
TOLERANCE
  5
57A
100
AcDbEntity
  8
TESTO
  6
CONTINUOUS
100
AcDbFcf
  3
ISO-25
 10
67.255723
 20
2.620916
 30
0.0
  1
{\Fgdt;u}%%v0.02%%v%%v%%v%%v
1001
ACAD
1000
DSTYLE
1002
{
1070
   140
1040
2.6
1070
    47
1040
0.02
1070
    73
1070
     0
1070
   272
1070
     2
1070
   147
1040
0.53
1070
    42
1040
0.5261
1070
    44
1040
1.0522
1070
    43
1040
3.1566
1070
   271
1070
     2
1070
   141
1040
2.1044
1070
    41
1040
2.6
1002
}
  0
POLYLINE
  5
57B
100
AcDbEntity
  8
TESTO
100
AcDb2dPolyline
 66
     1
 10
0.0
 20
0.0
 30
0.0
 70
     1
  0
VERTEX
  5
57C
100
AcDbEntity
  8
TESTO
100
AcDbVertex
100
AcDb2dVertex
 10
47.899626
 20
11.020808
 30
0.0
  0
VERTEX
  5
57D
100
AcDbEntity
  8
TESTO
100
AcDbVertex
100
AcDb2dVertex
 10
47.899626
 20
-1.6938
 30
0.0
  0
VERTEX
  5
57E
100
AcDbEntity
  8
TESTO
100
AcDbVertex
100
AcDb2dVertex
 10
89.018665
 20
-1.6938
 30
0.0
  0
VERTEX
  5
57F
100
AcDbEntity
  8
TESTO
100
AcDbVertex
100
AcDb2dVertex
 10
89.018665
 20
11.020808
 30
0.0
  0
SEQEND
  5
580
100
AcDbEntity
  8
TESTO
  0
TOLERANCE
  5
581
100
AcDbEntity
  8
TESTO
  6
CONTINUOUS
100
AcDbFcf
  3
ISO-25
 10
51.697765
 20
2.620916
 30
0.0
  1
{\Fgdt;b}%%v0.02%%v%%v%%v%%v
1001
ACAD
1000
DSTYLE
1002
{
1070
   140
1040
2.6
1070
    47
1040
0.02
1070
    73
1070
     0
1070
   272
1070
     2
1070
   147
1040
0.53
1070
    42
1040
0.5261
1070
    44
1040
1.0522
1070
    43
1040
3.1566
1070
   271
1070
     2
1070
   141
1040
2.1044
1070
    41
1040
2.6
1002
}
  0
ENDBLK
  5
583
100
AcDbEntity
  8
QUOTE
100
AcDbBlockEnd
  0
BLOCK
  5
5A2
100
AcDbEntity
  8
QUOTE
100
AcDbBlockBegin
  2
A$CC223
 70
     0
 10
0.0
 20
0.0
 30
0.0
  3
A$CC223
  1

  0
TEXT
  5
59F
100
AcDbEntity
  8
DISEGNO
100
AcDbText
 10
-0.421349
 20
5.594786
 30
0.0
 40
3.0
  1
E SI RIFERISCONO AGLI SCOSTAMENTI RSPETTO
 41
1.1
100
AcDbText
  0
TEXT
  5
5A0
100
AcDbEntity
  8
DISEGNO
100
AcDbText
 10
-0.421349
 20
11.294786
 30
0.0
 40
3.0
  1
LE TOLLERANZE DEI PROFILI SONO INDICATIVE
 41
1.1
100
AcDbText
  0
TEXT
  5
5A1
100
AcDbEntity
  8
DISEGNO
100
AcDbText
 10
-0.421349
 20
-0.105214
 30
0.0
 40
3.0
  1
AL MASTER: P.116.35.R08
 41
1.1
100
AcDbText
  0
ENDBLK
  5
5A3
100
AcDbEntity
  8
QUOTE
100
AcDbBlockEnd
  0
BLOCK
  5
5CC
100
AcDbEntity
  8
0
100
AcDbBlockBegin
  2
*D17
 70
    65
 10
0.0
 20
0.0
 30
0.0
  3
*D17
  1

  0
LINE
  5
5CD
100
AcDbEntity
  8
0
  6
BYBLOCK
 62
     0
100
AcDbLine
 10
148.748004
 20
196.489352
 30
0.0
 11
162.862027
 21
196.489352
 31
0.0
  0
LINE
  5
5CE
100
AcDbEntity
  8
0
  6
BYBLOCK
 62
     0
100
AcDbLine
 10
148.748004
 20
166.489352
 30
0.0
 11
162.862027
 21
166.489352
 31
0.0
  0
LINE
  5
5CF
100
AcDbEntity
  8
0
  6
BYBLOCK
 62
     0
100
AcDbLine
 10
161.612027
 20
193.989352
 30
0.0
 11
161.612027
 21
168.989352
 31
0.0
  0
SOLID
  5
5D0
100
AcDbEntity
  8
0
  6
BYBLOCK
 62
     0
100
AcDbTrace
 10
161.19536
 20
193.989352
 30
0.0
 11
162.028693
 21
193.989352
 31
0.0
 12
161.612027
 22
196.489352
 32
0.0
 13
161.612027
 23
196.489352
 33
0.0
  0
SOLID
  5
5D1
100
AcDbEntity
  8
0
  6
BYBLOCK
 62
     0
100
AcDbTrace
 10
161.19536
 20
168.989352
 30
0.0
 11
162.028693
 21
168.989352
 31
0.0
 12
161.612027
 22
166.489352
 32
0.0
 13
161.612027
 23
166.489352
 33
0.0
  0
MTEXT
  5
5D2
100
AcDbEntity
  8
0
  6
BYBLOCK
 62
     0
100
AcDbMText
 10
159.487027
 20
181.489352
 30
0.0
 40
3.0
 41
0.0
 71
     5
 72
     1
  1
\A1;30
 11
0.0
 21
1.0
 31
0.0
  0
POINT
  5
5D3
100
AcDbEntity
  8
DEFPOINTS
  6
BYBLOCK
 62
     0
100
AcDbPoint
 10
148.123004
 20
196.489352
 30
0.0
  0
POINT
  5
5D4
100
AcDbEntity
  8
DEFPOINTS
  6
BYBLOCK
 62
     0
100
AcDbPoint
 10
148.123004
 20
166.489352
 30
0.0
  0
POINT
  5
5D5
100
AcDbEntity
  8
DEFPOINTS
  6
BYBLOCK
 62
     0
100
AcDbPoint
 10
161.612027
 20
166.489352
 30
0.0
  0
ENDBLK
  5
5D6
100
AcDbEntity
  8
0
100
AcDbBlockEnd
  0
BLOCK
  5
5D9
100
AcDbEntity
  8
0
100
AcDbBlockBegin
  2
*D18
 70
    65
 10
0.0
 20
0.0
 30
0.0
  3
*D18
  1

  0
LINE
  5
5DA
100
AcDbEntity
  8
0
  6
BYBLOCK
 62
     0
100
AcDbLine
 10
147.681062
 20
166.931293
 30
0.0
 11
140.595951
 21
174.016404
 31
0.0
  0
LINE
  5
5DB
100
AcDbEntity
  8
0
  6
BYBLOCK
 62
     0
100
AcDbLine
 10
147.681062
 20
166.04741
 30
0.0
 11
140.595951
 21
158.962299
 31
0.0
  0
ARC
  5
5DC
100
AcDbEntity
  8
0
  6
BYBLOCK
 62
     0
100
AcDbCircle
 10
148.123004
 20
166.489352
 30
0.0
 40
9.39486
100
AcDbArc
 50
150.291922
 51
209.708078
  0
SOLID
  5
5DD
100
AcDbEntity
  8
0
  6
BYBLOCK
 62
     0
100
AcDbTrace
 10
139.63178
 20
171.398075
 30
0.0
 11
140.294198
 21
170.892459
 31
0.0
 12
141.479835
 22
173.132521
 32
0.0
 13
141.479835
 23
173.132521
 33
0.0
  0
SOLID
  5
5DE
100
AcDbEntity
  8
0
  6
BYBLOCK
 62
     0
100
AcDbTrace
 10
140.294198
 20
162.086244
 30
0.0
 11
139.63178
 21
161.580629
 31
0.0
 12
141.479835
 22
159.846182
 32
0.0
 13
141.479835
 23
159.846182
 33
0.0
  0
MTEXT
  5
5DF
100
AcDbEntity
  8
0
  6
BYBLOCK
 62
     0
100
AcDbMText
 10
136.603144
 20
166.489352
 30
0.0
 40
3.0
 41
0.0
 71
     5
 72
     1
  1
\A1;90°
 11
0.0
 21
1.0
 31
0.0
  0
POINT
  5
5E0
100
AcDbEntity
  8
DEFPOINTS
  6
BYBLOCK
 62
     0
100
AcDbPoint
 10
139.048266
 20
168.92092
 30
0.0
  0
POINT
  5
5E1
100
AcDbEntity
  8
DEFPOINTS
  6
BYBLOCK
 62
     0
100
AcDbPoint
 10
149.123004
 20
167.489352
 30
0.0
  0
POINT
  5
5E2
100
AcDbEntity
  8
DEFPOINTS
  6
BYBLOCK
 62
     0
100
AcDbPoint
 10
149.123004
 20
165.489352
 30
0.0
  0
POINT
  5
5E3
100
AcDbEntity
  8
DEFPOINTS
  6
BYBLOCK
 62
     0
100
AcDbPoint
 10
148.123004
 20
166.489352
 30
0.0
  0
POINT
  5
5E4
100
AcDbEntity
  8
DEFPOINTS
  6
BYBLOCK
 62
     0
100
AcDbPoint
 10
148.123004
 20
166.489352
 30
0.0
  0
ENDBLK
  5
5E5
100
AcDbEntity
  8
0
100
AcDbBlockEnd
  0
BLOCK
  5
5E8
100
AcDbEntity
  8
0
100
AcDbBlockBegin
  2
*D19
 70
    65
 10
0.0
 20
0.0
 30
0.0
  3
*D19
  1

  0
LINE
  5
5E9
100
AcDbEntity
  8
0
  6
BYBLOCK
 62
     0
100
AcDbLine
 10
149.748004
 20
167.489352
 30
0.0
 11
155.613945
 21
167.489352
 31
0.0
  0
LINE
  5
5EA
100
AcDbEntity
  8
0
  6
BYBLOCK
 62
     0
100
AcDbLine
 10
149.748004
 20
165.489352
 30
0.0
 11
155.613945
 21
165.489352
 31
0.0
  0
LINE
  5
5EB
100
AcDbEntity
  8
0
  6
BYBLOCK
 62
     0
100
AcDbLine
 10
154.363945
 20
169.989352
 30
0.0
 11
154.363945
 21
172.489352
 31
0.0
  0
LINE
  5
5EC
100
AcDbEntity
  8
0
  6
BYBLOCK
 62
     0
100
AcDbLine
 10
154.363945
 20
162.989352
 30
0.0
 11
154.363945
 21
157.637358
 31
0.0
  0
SOLID
  5
5ED
100
AcDbEntity
  8
0
  6
BYBLOCK
 62
     0
100
AcDbTrace
 10
153.947278
 20
169.989352
 30
0.0
 11
154.780611
 21
169.989352
 31
0.0
 12
154.363945
 22
167.489352
 32
0.0
 13
154.363945
 23
167.489352
 33
0.0
  0
SOLID
  5
5EE
100
AcDbEntity
  8
0
  6
BYBLOCK
 62
     0
100
AcDbTrace
 10
153.947278
 20
162.989352
 30
0.0
 11
154.780611
 21
162.989352
 31
0.0
 12
154.363945
 22
165.489352
 32
0.0
 13
154.363945
 23
165.489352
 33
0.0
  0
MTEXT
  5
5EF
100
AcDbEntity
  8
0
  6
BYBLOCK
 62
     0
100
AcDbMText
 10
152.238649
 20
159.063355
 30
0.0
 40
3.0
 41
0.0
 71
     5
 72
     1
  1
\A1;2
 11
0.0
 21
1.0
 31
0.0
  0
POINT
  5
5F0
100
AcDbEntity
  8
DEFPOINTS
  6
BYBLOCK
 62
     0
100
AcDbPoint
 10
149.123004
 20
167.489352
 30
0.0
  0
POINT
  5
5F1
100
AcDbEntity
  8
DEFPOINTS
  6
BYBLOCK
 62
     0
100
AcDbPoint
 10
149.123004
 20
165.489352
 30
0.0
  0
POINT
  5
5F2
100
AcDbEntity
  8
DEFPOINTS
  6
BYBLOCK
 62
     0
100
AcDbPoint
 10
154.363945
 20
165.489352
 30
0.0
  0
ENDBLK
  5
5F3
100
AcDbEntity
  8
0
100
AcDbBlockEnd
  0
BLOCK
  5
64F
100
AcDbEntity
  8
0
100
AcDbBlockBegin
  2
*D20
 70
    65
 10
0.0
 20
0.0
 30
0.0
  3
*D20
  1

  0
LINE
  5
650
100
AcDbEntity
  8
0
  6
BYBLOCK
 62
     0
100
AcDbLine
 10
136.44619
 20
75.105002
 30
0.0
 11
143.074523
 21
75.105002
 31
0.0
  0
LINE
  5
651
100
AcDbEntity
  8
0
  6
BYBLOCK
 62
     0
100
AcDbLine
 10
136.44619
 20
77.803213
 30
0.0
 11
143.074523
 21
77.803213
 31
0.0
  0
LINE
  5
652
100
AcDbEntity
  8
0
  6
BYBLOCK
 62
     0
100
AcDbLine
 10
141.824523
 20
72.605002
 30
0.0
 11
141.824523
 21
70.105002
 31
0.0
  0
LINE
  5
653
100
AcDbEntity
  8
0
  6
BYBLOCK
 62
     0
100
AcDbLine
 10
141.824523
 20
80.303213
 30
0.0
 11
141.824523
 21
85.975811
 31
0.0
  0
SOLID
  5
654
100
AcDbEntity
  8
0
  6
BYBLOCK
 62
     0
100
AcDbTrace
 10
141.407856
 20
72.605002
 30
0.0
 11
142.24119
 21
72.605002
 31
0.0
 12
141.824523
 22
75.105002
 32
0.0
 13
141.824523
 23
75.105002
 33
0.0
  0
SOLID
  5
655
100
AcDbEntity
  8
0
  6
BYBLOCK
 62
     0
100
AcDbTrace
 10
141.407856
 20
80.303213
 30
0.0
 11
142.24119
 21
80.303213
 31
0.0
 12
141.824523
 22
77.803213
 32
0.0
 13
141.824523
 23
77.803213
 33
0.0
  0
MTEXT
  5
656
100
AcDbEntity
  8
0
  6
BYBLOCK
 62
     0
100
AcDbMText
 10
139.699523
 20
83.863213
 30
0.0
 40
3.0
 41
0.0
 71
     5
 72
     1
  1
\A1;{10}
 11
0.0
 21
1.0
 31
0.0
  0
POINT
  5
657
100
AcDbEntity
  8
DEFPOINTS
  6
BYBLOCK
 62
     0
100
AcDbPoint
 10
135.82119
 20
75.105002
 30
0.0
  0
POINT
  5
658
100
AcDbEntity
  8
DEFPOINTS
  6
BYBLOCK
 62
     0
100
AcDbPoint
 10
135.82119
 20
77.803213
 30
0.0
  0
POINT
  5
659
100
AcDbEntity
  8
DEFPOINTS
  6
BYBLOCK
 62
     0
100
AcDbPoint
 10
141.824523
 20
77.803213
 30
0.0
  0
ENDBLK
  5
65A
100
AcDbEntity
  8
0
100
AcDbBlockEnd
  0
BLOCK
  5
6C0
100
AcDbEntity
  8
QUOTE
100
AcDbBlockBegin
  2
A$C7221
 70
     0
 10
0.0
 20
0.0
 30
0.0
  3
A$C7221
  1

  0
TEXT
  5
6BE
100
AcDbEntity
  8
QUOTE
100
AcDbText
 10
2.290415
 20
-50.585041
 30
0.0
 40
2.0
  1
02        AGGIUNTO QUOTA 17,50 + 0,05/-0
 50
90.0
 41
1.1
100
AcDbText
  0
TEXT
  5
6BF
100
AcDbEntity
  8
QUOTE
100
AcDbText
 10
1.971253
 20
34.049819
 30
0.0
 40
2.0
  1
15-11-02       PS.             MR.
 50
90.0
 41
1.1
100
AcDbText
  0
ENDBLK
  5
6C1
100
AcDbEntity
  8
QUOTE
100
AcDbBlockEnd
  0
ENDSEC
  0
SECTION
  2
ENTITIES
  0
LINE
  5
258
100
AcDbEntity
  8
DISEGNO
100
AcDbLine
 10
101.623004
 20
116.489352
 30
0.0
 11
130.623004
 21
116.489352
 31
0.0
  0
LINE
  5
259
100
AcDbEntity
  8
DISEGNO
100
AcDbLine
 10
131.623004
 20
117.489352
 30
0.0
 11
131.623004
 21
136.489352
 31
0.0
  0
LINE
  5
25A
100
AcDbEntity
  8
DISEGNO
100
AcDbLine
 10
131.623004
 20
136.489352
 30
0.0
 11
148.123004
 21
136.489352
 31
0.0
  0
LINE
  5
25C
100
AcDbEntity
  8
DISEGNO
100
AcDbLine
 10
148.123004
 20
196.489352
 30
0.0
 11
144.263067
 21
196.489352
 31
0.0
1001
ACAD
1000
ASC_BOUNDS
1002
{
1070
    19
1002
}
  0
LINE
  5
25E
100
AcDbEntity
  8
DISEGNO
100
AcDbLine
 10
55.123004
 20
136.489352
 30
0.0
 11
71.623004
 21
136.489352
 31
0.0
  0
LINE
  5
25F
100
AcDbEntity
  8
DISEGNO
100
AcDbLine
 10
71.623004
 20
136.489352
 30
0.0
 11
71.623004
 21
117.489352
 31
0.0
  0
LINE
  5
260
100
AcDbEntity
  8
DISEGNO
100
AcDbLine
 10
72.623004
 20
116.489352
 30
0.0
 11
101.623004
 21
116.489352
 31
0.0
  0
LINE
  5
261
100
AcDbEntity
  8
DISEGNO
100
AcDbLine
 10
139.839403
 20
194.542893
 30
0.0
 11
133.515922
 21
187.642024
 31
0.0
1001
ACAD
1000
ASC_BOUNDS
1002
{
1070
    19
1002
}
  0
LINE
  5
263
100
AcDbEntity
  8
DISEGNO
100
AcDbLine
 10
63.406605
 20
194.542893
 30
0.0
 11
69.730087
 21
187.642024
 31
0.0
1001
ACAD
1000
ASC_BOUNDS
1002
{
1070
    19
1002
}
  0
LINE
  5
264
100
AcDbEntity
  8
DISEGNO
100
AcDbLine
 10
58.982941
 20
196.489352
 30
0.0
 11
55.123004
 21
196.489352
 31
0.0
1001
ACAD
1000
ASC_BOUNDS
1002
{
1070
    19
1002
}
  0
LINE
  5
26E
100
AcDbEntity
  8
DISEGNO
100
AcDbLine
 10
71.623004
 20
117.489352
 30
0.0
 11
72.623004
 21
116.489352
 31
0.0
  0
LINE
  5
26F
100
AcDbEntity
  8
DISEGNO
100
AcDbLine
 10
131.623004
 20
117.489352
 30
0.0
 11
130.623004
 21
116.489352
 31
0.0
  0
LINE
  5
27F
100
AcDbEntity
  8
DISEGNO
100
AcDbLine
 10
149.123004
 20
137.489352
 30
0.0
 11
149.123004
 21
165.489352
 31
0.0
1001
ACAD
1000
ASC_BOUNDS
1002
{
1070
    19
1002
}
  0
LINE
  5
280
100
AcDbEntity
  8
DISEGNO
100
AcDbLine
 10
54.123004
 20
195.489352
 30
0.0
 11
54.123004
 21
137.489352
 31
0.0
1001
ACAD
1000
ASC_BOUNDS
1002
{
1070
    19
1002
}
  0
LINE
  5
281
100
AcDbEntity
  8
DISEGNO
100
AcDbLine
 10
148.123004
 20
196.489352
 30
0.0
 11
149.123004
 21
195.489352
 31
0.0
1001
ACAD
1000
ASC_BOUNDS
1002
{
1070
    19
1002
}
  0
LINE
  5
282
100
AcDbEntity
  8
DISEGNO
100
AcDbLine
 10
149.123004
 20
137.489352
 30
0.0
 11
148.123004
 21
136.489352
 31
0.0
  0
LINE
  5
283
100
AcDbEntity
  8
DISEGNO
100
AcDbLine
 10
55.123004
 20
196.489352
 30
0.0
 11
54.123004
 21
195.489352
 31
0.0
1001
ACAD
1000
ASC_BOUNDS
1002
{
1070
    19
1002
}
  0
LINE
  5
284
100
AcDbEntity
  8
DISEGNO
100
AcDbLine
 10
55.123004
 20
136.489352
 30
0.0
 11
54.123004
 21
137.489352
 31
0.0
  0
ARC
  5
31C
100
AcDbEntity
  8
DISEGNO
100
AcDbCircle
 10
144.263067
 20
190.489352
 30
0.0
 40
6.0
100
AcDbArc
 50
90.0
 51
137.5
1001
ACAD
1000
ASC_BOUNDS
1002
{
1070
    19
1002
}
  0
ARC
  5
31D
100
AcDbEntity
  8
DISEGNO
100
AcDbCircle
 10
58.982941
 20
190.489352
 30
0.0
 40
6.0
100
AcDbArc
 50
42.5
 51
90.0
1001
ACAD
1000
ASC_BOUNDS
1002
{
1070
    19
1002
}
  0
LINE
  5
35B
100
AcDbEntity
  8
DISEGNO
100
AcDbLine
 10
133.515922
 20
185.520703
 30
0.0
 11
107.279858
 21
159.28464
 31
0.0
  0
LINE
  5
35C
100
AcDbEntity
  8
DISEGNO
100
AcDbLine
 10
69.730087
 20
185.520703
 30
0.0
 11
95.96615
 21
159.28464
 31
0.0
  0
ARC
  5
35D
100
AcDbEntity
  8
DISEGNO
100
AcDbCircle
 10
101.623004
 20
164.941494
 30
0.0
 40
8.0
100
AcDbArc
 50
225.0
 51
315.0
  0
LINE
  5
5C2
100
AcDbEntity
  8
DISEGNO
100
AcDbLine
 10
133.515922
 20
187.642024
 30
0.0
 11
133.515922
 21
185.520703
 31
0.0
  0
LINE
  5
5C3
100
AcDbEntity
  8
DISEGNO
100
AcDbLine
 10
69.730087
 20
187.642024
 30
0.0
 11
69.730087
 21
185.520703
 31
0.0
  0
LINE
  5
5C8
100
AcDbEntity
  8
DISEGNO
100
AcDbLine
 10
149.123004
 20
167.489352
 30
0.0
 11
148.123004
 21
166.489352
 31
0.0
  0
LINE
  5
5C9
100
AcDbEntity
  8
DISEGNO
100
AcDbLine
 10
149.123004
 20
165.489352
 30
0.0
 11
148.123004
 21
166.489352
 31
0.0
  0
LINE
  5
5CA
100
AcDbEntity
  8
DISEGNO
100
AcDbLine
 10
149.123004
 20
167.489352
 30
0.0
 11
149.123004
 21
195.489352
 31
0.0
1001
ACAD
1000
ASC_BOUNDS
1002
{
1070
    19
1002
}
  0
ENDSEC
  0
SECTION
  2
OBJECTS
  0
DICTIONARY
  5
C
100
AcDbDictionary
  3
ACAD_GROUP
350
D
  3
ACAD_MLINESTYLE
350
E
  0
DICTIONARY
  5
D
102
{ACAD_REACTORS
330
C
102
}
100
AcDbDictionary
  0
DICTIONARY
  5
E
102
{ACAD_REACTORS
330
C
102
}
100
AcDbDictionary
  3
STANDARD
350
1C
  0
MLINESTYLE
  5
1C
102
{ACAD_REACTORS
330
E
102
}
100
AcDbMlineStyle
  2
STANDARD
 70
     0
  3

 62
     0
 51
90.0
 52
90.0
 71
     2
 49
0.5
 62
   256
  6
BYLAYER
 49
-0.5
 62
   256
  6
BYLAYER
  0
ENDSEC
  0
EOF
