  0
SECTION
  2
HEADER
  9
$ACADVER
  1
AC1012
  9
$DWGCODEPAGE
  3
iso8859-1
  9
$INSBASE
 10
0.0
 20
0.0
 30
0.0
  9
$EXTMIN
 10
-1940.234365
 20
-1659.251698
 30
0.0
  9
$EXTMAX
 10
-1495.966715
 20
-1372.037392
 30
0.0
  9
$LIMMIN
 10
0.0
 20
0.0
  9
$LIMMAX
 10
210.0
 20
297.0
  9
$ORTHOMODE
 70
     1
  9
$REGENMODE
 70
     1
  9
$FILLMODE
 70
     1
  9
$QTEXTMODE
 70
     0
  9
$MIRRTEXT
 70
     1
  9
$DRAGMODE
 70
     2
  9
$LTSCALE
 40
1.0
  9
$OSMODE
 70
     0
  9
$ATTMODE
 70
     1
  9
$TEXTSIZE
 40
3.0
  9
$TRACEWID
 40
0.05
  9
$TEXTSTYLE
  7
STANDARD
  9
$CLAYER
  8
TEMPRA
  9
$CELTYPE
  6
BYLAYER
  9
$CECOLOR
 62
   256
  9
$CELTSCALE
 40
1.0
  9
$DELOBJ
 70
     1
  9
$DISPSILH
 70
     0
  9
$DIMSCALE
 40
1.0
  9
$DIMASZ
 40
2.5
  9
$DIMEXO
 40
0.625
  9
$DIMDLI
 40
3.75
  9
$DIMRND
 40
0.0
  9
$DIMDLE
 40
0.0
  9
$DIMEXE
 40
1.25
  9
$DIMTP
 40
0.0
  9
$DIMTM
 40
0.0
  9
$DIMTXT
 40
3.5
  9
$DIMCEN
 40
0.0
  9
$DIMTSZ
 40
0.0
  9
$DIMTOL
 70
     0
  9
$DIMLIM
 70
     0
  9
$DIMTIH
 70
     0
  9
$DIMTOH
 70
     0
  9
$DIMSE1
 70
     0
  9
$DIMSE2
 70
     0
  9
$DIMTAD
 70
     1
  9
$DIMZIN
 70
     8
  9
$DIMBLK
  1

  9
$DIMASO
 70
     1
  9
$DIMSHO
 70
     1
  9
$DIMPOST
  1

  9
$DIMAPOST
  1

  9
$DIMALT
 70
     0
  9
$DIMALTD
 70
     2
  9
$DIMALTF
 40
0.03937
  9
$DIMLFAC
 40
1.0
  9
$DIMTOFL
 70
     0
  9
$DIMTVP
 40
0.0
  9
$DIMTIX
 70
     0
  9
$DIMSOXD
 70
     0
  9
$DIMSAH
 70
     0
  9
$DIMBLK1
  1

  9
$DIMBLK2
  1

  9
$DIMSTYLE
  2
STANDARD
  9
$DIMCLRD
 70
     0
  9
$DIMCLRE
 70
     0
  9
$DIMCLRT
 70
     0
  9
$DIMTFAC
 40
1.0
  9
$DIMGAP
 40
0.625
  9
$DIMJUST
 70
     0
  9
$DIMSD1
 70
     0
  9
$DIMSD2
 70
     0
  9
$DIMTOLJ
 70
     1
  9
$DIMTZIN
 70
     8
  9
$DIMALTZ
 70
     0
  9
$DIMALTTZ
 70
     0
  9
$DIMFIT
 70
     3
  9
$DIMUPT
 70
     0
  9
$DIMUNIT
 70
     2
  9
$DIMDEC
 70
     2
  9
$DIMTDEC
 70
     2
  9
$DIMALTU
 70
     2
  9
$DIMALTTD
 70
     2
  9
$DIMTXSTY
  7
STANDARD
  9
$DIMAUNIT
 70
     0
  9
$LUNITS
 70
     2
  9
$LUPREC
 70
     4
  9
$SKETCHINC
 40
0.1
  9
$FILLETRAD
 40
2.0
  9
$AUNITS
 70
     0
  9
$AUPREC
 70
     0
  9
$MENU
  1
acad
  9
$ELEVATION
 40
0.0
  9
$PELEVATION
 40
0.0
  9
$THICKNESS
 40
0.0
  9
$LIMCHECK
 70
     0
  9
$BLIPMODE
 70
     1
  9
$CHAMFERA
 40
0.0
  9
$CHAMFERB
 40
0.0
  9
$CHAMFERC
 40
20.0
  9
$CHAMFERD
 40
0.0
  9
$SKPOLY
 70
     0
  9
$TDCREATE
 40
2452319.455830671
  9
$TDUPDATE
 40
2452591.684842013
  9
$TDINDWG
 40
0.0761974537
  9
$TDUSRTIMER
 40
0.0761974537
  9
$USRTIMER
 70
     1
  9
$ANGBASE
 50
0.0
  9
$ANGDIR
 70
     0
  9
$PDMODE
 70
     0
  9
$PDSIZE
 40
0.0
  9
$PLINEWID
 40
0.0
  9
$COORDS
 70
     1
  9
$SPLFRAME
 70
     0
  9
$SPLINETYPE
 70
     6
  9
$SPLINESEGS
 70
     8
  9
$ATTDIA
 70
     0
  9
$ATTREQ
 70
     1
  9
$HANDLING
 70
     1
  9
$HANDSEED
  5
13FA
  9
$SURFTAB1
 70
     6
  9
$SURFTAB2
 70
     6
  9
$SURFTYPE
 70
     6
  9
$SURFU
 70
     6
  9
$SURFV
 70
     6
  9
$UCSNAME
  2

  9
$UCSORG
 10
0.0
 20
0.0
 30
0.0
  9
$UCSXDIR
 10
1.0
 20
0.0
 30
0.0
  9
$UCSYDIR
 10
0.0
 20
1.0
 30
0.0
  9
$PUCSNAME
  2

  9
$PUCSORG
 10
0.0
 20
0.0
 30
0.0
  9
$PUCSXDIR
 10
1.0
 20
0.0
 30
0.0
  9
$PUCSYDIR
 10
0.0
 20
1.0
 30
0.0
  9
$USERI1
 70
     0
  9
$USERI2
 70
     0
  9
$USERI3
 70
     0
  9
$USERI4
 70
     0
  9
$USERI5
 70
     0
  9
$USERR1
 40
0.0
  9
$USERR2
 40
0.0
  9
$USERR3
 40
0.0
  9
$USERR4
 40
0.0
  9
$USERR5
 40
0.0
  9
$WORLDVIEW
 70
     1
  9
$SHADEDGE
 70
     3
  9
$SHADEDIF
 70
    70
  9
$TILEMODE
 70
     1
  9
$MAXACTVP
 70
    16
  9
$PINSBASE
 10
0.0
 20
0.0
 30
0.0
  9
$PLIMCHECK
 70
     0
  9
$PEXTMIN
 10
1.000000E+20
 20
1.000000E+20
 30
1.000000E+20
  9
$PEXTMAX
 10
-1.000000E+20
 20
-1.000000E+20
 30
-1.000000E+20
  9
$PLIMMIN
 10
0.0
 20
0.0
  9
$PLIMMAX
 10
12.0
 20
9.0
  9
$UNITMODE
 70
     0
  9
$VISRETAIN
 70
     0
  9
$PLINEGEN
 70
     0
  9
$PSLTSCALE
 70
     1
  9
$TREEDEPTH
 70
  3020
  9
$PICKSTYLE
 70
     1
  9
$CMLSTYLE
  2
STANDARD
  9
$CMLJUST
 70
     0
  9
$CMLSCALE
 40
20.0
  9
$SAVEIMAGES
 70
     0
  0
ENDSEC
  0
SECTION
  2
CLASSES
  0
ENDSEC
  0
SECTION
  2
TABLES
  0
TABLE
  2
VPORT
  5
8
100
AcDbSymbolTable
 70
    10
  0
VPORT
  5
13F9
100
AcDbSymbolTableRecord
100
AcDbViewportTableRecord
  2
*ACTIVE
 70
     0
 10
0.0
 20
0.0
 11
1.0
 21
1.0
 12
-1859.087714
 22
-1459.92747
 13
0.0
 23
0.0
 14
10.0
 24
10.0
 15
10.0
 25
10.0
 16
0.0
 26
0.0
 36
1.0
 17
0.0
 27
0.0
 37
0.0
 40
140.968421
 41
1.8523
 42
50.0
 43
0.0
 44
0.0
 50
0.0
 51
0.0
 71
     0
 72
   100
 73
     1
 74
     0
 75
     0
 76
     0
 77
     0
 78
     0
  0
ENDTAB
  0
TABLE
  2
LTYPE
  5
5
100
AcDbSymbolTable
 70
     4
  0
LTYPE
  5
13
100
AcDbSymbolTableRecord
100
AcDbLinetypeTableRecord
  2
BYBLOCK
 70
     0
  3

 72
    65
 73
     0
 40
0.0
  0
LTYPE
  5
14
100
AcDbSymbolTableRecord
100
AcDbLinetypeTableRecord
  2
BYLAYER
 70
     0
  3

 72
    65
 73
     0
 40
0.0
  0
LTYPE
  5
15
100
AcDbSymbolTableRecord
100
AcDbLinetypeTableRecord
  2
CONTINUOUS
 70
    64
  3
Solid line
 72
    65
 73
     0
 40
0.0
  0
LTYPE
  5
94
100
AcDbSymbolTableRecord
100
AcDbLinetypeTableRecord
  2
ACAD_ISO04W100
 70
    64
  3
____ . ____ . ____ . ____ . ____ . ____ . ____ 
 72
    65
 73
     4
 40
30.5
 49
24.0
 74
     0
 49
-3.0
 74
     0
 49
0.5
 74
     0
 49
-3.0
 74
     0
  0
LTYPE
  5
225
100
AcDbSymbolTableRecord
100
AcDbLinetypeTableRecord
  2
TRATTEGGIATAX2
 70
    64
  3
____  ____  ____  ____  ____  ____  ____  ____ 
 72
    65
 73
     2
 40
1.5
 49
1.0
 74
     0
 49
-0.5
 74
     0
  0
LTYPE
  5
226
100
AcDbSymbolTableRecord
100
AcDbLinetypeTableRecord
  2
NASCOSTA
 70
    64
  3
__ __ __ __ __ __ __ __ __ __ __ __ __ __ __ __
 72
    65
 73
     2
 40
0.375
 49
0.25
 74
     0
 49
-0.125
 74
     0
  0
ENDTAB
  0
TABLE
  2
LAYER
  5
2
100
AcDbSymbolTable
 70
    11
  0
LAYER
  5
F
100
AcDbSymbolTableRecord
100
AcDbLayerTableRecord
  2
0
 70
     0
 62
     7
  6
CONTINUOUS
  0
LAYER
  5
95
100
AcDbSymbolTableRecord
100
AcDbLayerTableRecord
  2
DISEGNO
 70
    64
 62
     7
  6
CONTINUOUS
  0
LAYER
  5
96
100
AcDbSymbolTableRecord
100
AcDbLayerTableRecord
  2
ASSI
 70
    64
 62
     1
  6
ACAD_ISO04W100
  0
LAYER
  5
97
100
AcDbSymbolTableRecord
100
AcDbLayerTableRecord
  2
SEZIONE
 70
    64
 62
     3
  6
CONTINUOUS
  0
LAYER
  5
98
100
AcDbSymbolTableRecord
100
AcDbLayerTableRecord
  2
TEMPRA
 70
    64
 62
     2
  6
CONTINUOUS
  0
LAYER
  5
99
100
AcDbSymbolTableRecord
100
AcDbLayerTableRecord
  2
QUOTE
 70
    64
 62
     5
  6
CONTINUOUS
  0
LAYER
  5
1A3
100
AcDbSymbolTableRecord
100
AcDbLayerTableRecord
  2
TRATTO
 70
    64
 62
     6
  6
NASCOSTA
  0
LAYER
  5
28A
100
AcDbSymbolTableRecord
100
AcDbLayerTableRecord
  2
DEFPOINTS
 70
    64
 62
     7
  6
CONTINUOUS
  0
LAYER
  5
4A6
100
AcDbSymbolTableRecord
100
AcDbLayerTableRecord
  2
TABELLA
 70
    64
 62
     8
  6
CONTINUOUS
  0
LAYER
  5
55B
100
AcDbSymbolTableRecord
100
AcDbLayerTableRecord
  2
MARCATURA
 70
    64
 62
   136
  6
CONTINUOUS
  0
LAYER
  5
55C
100
AcDbSymbolTableRecord
100
AcDbLayerTableRecord
  2
TESTO
 70
    64
 62
   140
  6
CONTINUOUS
  0
ENDTAB
  0
TABLE
  2
STYLE
  5
3
100
AcDbSymbolTable
 70
     2
  0
STYLE
  5
10
100
AcDbSymbolTableRecord
100
AcDbTextStyleTableRecord
  2
STANDARD
 70
    64
 40
0.0
 41
1.1
 50
0.0
 71
     0
 42
3.0
  3
C:\Programmi\AutoCAD LT\isocp.shx
  4

  0
STYLE
  5
B0
100
AcDbSymbolTableRecord
100
AcDbTextStyleTableRecord
  2
STYLE3
 70
    64
 40
0.0
 41
1.1
 50
0.0
 71
     0
 42
2.0
  3
C:\Programmi\AutoCAD LT\isocp.shx
  4

  0
ENDTAB
  0
TABLE
  2
VIEW
  5
6
100
AcDbSymbolTable
 70
     0
  0
ENDTAB
  0
TABLE
  2
UCS
  5
7
100
AcDbSymbolTable
 70
     0
  0
ENDTAB
  0
TABLE
  2
APPID
  5
9
100
AcDbSymbolTable
 70
     1
  0
APPID
  5
11
100
AcDbSymbolTableRecord
100
AcDbRegAppTableRecord
  2
ACAD
 70
     0
  0
ENDTAB
  0
TABLE
  2
DIMSTYLE
  5
A
100
AcDbSymbolTable
 70
    24
  0
DIMSTYLE
105
1D
100
AcDbSymbolTableRecord
100
AcDbDimStyleTableRecord
  2
STANDARD
 70
     0
  3

  4

  5

  6

  7

 40
1.0
 41
2.5
 42
0.625
 43
3.75
 44
1.25
 45
0.0
 46
0.0
 47
0.0
 48
0.0
140
3.5
141
2.5
142
0.0
143
0.03937
144
1.0
145
0.0
146
1.0
147
0.625
 71
     0
 72
     0
 73
     0
 74
     0
 75
     0
 76
     0
 77
     1
 78
     8
170
     0
171
     2
172
     0
173
     0
174
     0
175
     0
176
     0
177
     0
178
     0
270
     2
271
     2
272
     2
273
     2
274
     2
340
10
275
     0
280
     0
281
     0
282
     0
283
     1
284
     8
285
     0
286
     0
287
     3
288
     0
  0
DIMSTYLE
105
234
100
AcDbSymbolTableRecord
100
AcDbDimStyleTableRecord
  2
TOLL-04
 70
     0
  3

  4

  5

  6

  7

 40
1.0
 41
2.5
 42
0.625
 43
3.75
 44
1.25
 45
0.0
 46
0.0
 47
0.02
 48
0.02
140
3.5
141
2.5
142
0.0
143
0.03937
144
1.0
145
0.0
146
0.8
147
0.625
 71
     1
 72
     0
 73
     0
 74
     0
 75
     0
 76
     0
 77
     1
 78
     8
170
     0
171
     2
172
     0
173
     0
174
     0
175
     0
176
     0
177
     0
178
     0
270
     2
271
     2
272
     2
273
     2
274
     2
340
10
275
     0
280
     0
281
     0
282
     0
283
     2
284
     8
285
     0
286
     0
287
     3
288
     0
  0
DIMSTYLE
105
4A7
100
AcDbSymbolTableRecord
100
AcDbDimStyleTableRecord
  2
ISO-25
 70
     0
  3

  4

  5

  6

  7

 40
1.0
 41
2.5
 42
0.625
 43
3.75
 44
1.25
 45
0.0
 46
0.0
 47
0.0
 48
0.0
140
2.5
141
2.5
142
0.0
143
0.0394
144
1.0
145
1.0
146
1.0
147
0.625
 71
     0
 72
     0
 73
     1
 74
     0
 75
     0
 76
     0
 77
     1
 78
     8
170
     0
171
     2
172
     1
173
     0
174
     0
175
     0
176
     0
177
     0
178
     0
270
     2
271
     4
272
     4
273
     2
274
     2
340
10
275
     0
280
     0
281
     0
282
     0
283
     1
284
     0
285
     0
286
     0
287
     3
288
     0
  0
DIMSTYLE
105
574
100
AcDbSymbolTableRecord
100
AcDbDimStyleTableRecord
  2
TOLL-01
 70
     0
  3

  4

  5

  6

  7

 40
1.0
 41
2.5
 42
0.625
 43
3.75
 44
1.25
 45
0.0
 46
0.0
 47
0.01
 48
0.01
140
3.5
141
2.5
142
0.0
143
0.03937
144
1.0
145
0.0
146
0.8
147
0.625
 71
     1
 72
     0
 73
     0
 74
     0
 75
     0
 76
     0
 77
     1
 78
     8
170
     0
171
     2
172
     0
173
     0
174
     0
175
     0
176
     0
177
     0
178
     0
270
     2
271
     2
272
     2
273
     2
274
     2
340
10
275
     0
280
     0
281
     0
282
     0
283
     2
284
     8
285
     0
286
     0
287
     3
288
     0
  0
DIMSTYLE
105
575
100
AcDbSymbolTableRecord
100
AcDbDimStyleTableRecord
  2
TOLL-02
 70
     0
  3

  4

  5

  6

  7

 40
1.0
 41
2.5
 42
0.625
 43
3.75
 44
1.25
 45
0.0
 46
0.0
 47
0.01
 48
0.0
140
3.5
141
2.5
142
0.0
143
0.03937
144
1.0
145
0.0
146
0.8
147
0.625
 71
     1
 72
     0
 73
     0
 74
     0
 75
     0
 76
     0
 77
     1
 78
     8
170
     0
171
     2
172
     0
173
     0
174
     0
175
     0
176
     0
177
     0
178
     0
270
     2
271
     2
272
     2
273
     2
274
     2
340
10
275
     0
280
     0
281
     0
282
     0
283
     2
284
     8
285
     0
286
     0
287
     3
288
     0
  0
DIMSTYLE
105
576
100
AcDbSymbolTableRecord
100
AcDbDimStyleTableRecord
  2
TOLL-03
 70
     0
  3

  4

  5

  6

  7

 40
1.0
 41
2.5
 42
0.625
 43
3.75
 44
1.25
 45
0.0
 46
0.0
 47
-0.01
 48
0.0
140
3.5
141
2.5
142
0.0
143
0.03937
144
1.0
145
0.0
146
0.8
147
0.625
 71
     1
 72
     0
 73
     0
 74
     0
 75
     0
 76
     0
 77
     1
 78
     8
170
     0
171
     2
172
     0
173
     0
174
     0
175
     0
176
     0
177
     0
178
     0
270
     2
271
     2
272
     2
273
     2
274
     2
340
10
275
     0
280
     0
281
     0
282
     0
283
     2
284
     8
285
     0
286
     0
287
     3
288
     0
  0
DIMSTYLE
105
577
100
AcDbSymbolTableRecord
100
AcDbDimStyleTableRecord
  2
TOLL-05
 70
     0
  3

  4

  5

  6

  7

 40
1.0
 41
2.5
 42
0.625
 43
3.75
 44
1.25
 45
0.0
 46
0.0
 47
0.02
 48
0.0
140
3.5
141
2.5
142
0.0
143
0.03937
144
1.0
145
0.0
146
0.8
147
0.625
 71
     1
 72
     0
 73
     0
 74
     0
 75
     0
 76
     0
 77
     1
 78
     8
170
     0
171
     2
172
     0
173
     0
174
     0
175
     0
176
     0
177
     0
178
     0
270
     2
271
     2
272
     2
273
     2
274
     2
340
10
275
     0
280
     0
281
     0
282
     0
283
     2
284
     8
285
     0
286
     0
287
     3
288
     0
  0
DIMSTYLE
105
578
100
AcDbSymbolTableRecord
100
AcDbDimStyleTableRecord
  2
TOLL-06
 70
     0
  3

  4

  5

  6

  7

 40
1.0
 41
2.5
 42
0.625
 43
3.75
 44
1.25
 45
0.0
 46
0.0
 47
-0.02
 48
0.0
140
3.5
141
2.5
142
0.0
143
0.03937
144
1.0
145
0.0
146
0.8
147
0.625
 71
     1
 72
     0
 73
     0
 74
     0
 75
     0
 76
     0
 77
     1
 78
     8
170
     0
171
     2
172
     0
173
     0
174
     0
175
     0
176
     0
177
     0
178
     0
270
     2
271
     2
272
     2
273
     2
274
     2
340
10
275
     0
280
     0
281
     0
282
     0
283
     2
284
     8
285
     0
286
     0
287
     3
288
     0
  0
DIMSTYLE
105
579
100
AcDbSymbolTableRecord
100
AcDbDimStyleTableRecord
  2
TOLL-07
 70
     0
  3

  4

  5

  6

  7

 40
1.0
 41
2.5
 42
0.625
 43
3.75
 44
1.25
 45
0.0
 46
0.0
 47
0.05
 48
0.05
140
3.5
141
2.5
142
0.0
143
0.03937
144
1.0
145
0.0
146
0.8
147
0.625
 71
     1
 72
     0
 73
     0
 74
     0
 75
     0
 76
     0
 77
     1
 78
     8
170
     0
171
     2
172
     0
173
     0
174
     0
175
     0
176
     0
177
     0
178
     0
270
     2
271
     2
272
     2
273
     2
274
     2
340
10
275
     0
280
     0
281
     0
282
     0
283
     2
284
     8
285
     0
286
     0
287
     3
288
     0
  0
DIMSTYLE
105
57A
100
AcDbSymbolTableRecord
100
AcDbDimStyleTableRecord
  2
TOLL-08
 70
     0
  3

  4

  5

  6

  7

 40
1.0
 41
2.5
 42
0.625
 43
3.75
 44
1.25
 45
0.0
 46
0.0
 47
0.05
 48
0.0
140
3.5
141
2.5
142
0.0
143
0.03937
144
1.0
145
0.0
146
0.8
147
0.625
 71
     1
 72
     0
 73
     0
 74
     0
 75
     0
 76
     0
 77
     1
 78
     8
170
     0
171
     2
172
     0
173
     0
174
     0
175
     0
176
     0
177
     0
178
     0
270
     2
271
     2
272
     2
273
     2
274
     2
340
10
275
     0
280
     0
281
     0
282
     0
283
     2
284
     8
285
     0
286
     0
287
     3
288
     0
  0
DIMSTYLE
105
57B
100
AcDbSymbolTableRecord
100
AcDbDimStyleTableRecord
  2
TOLL-09
 70
     0
  3

  4

  5

  6

  7

 40
1.0
 41
2.5
 42
0.625
 43
3.75
 44
1.25
 45
0.0
 46
0.0
 47
-0.05
 48
0.0
140
3.5
141
2.5
142
0.0
143
0.03937
144
1.0
145
0.0
146
0.8
147
0.625
 71
     1
 72
     0
 73
     0
 74
     0
 75
     0
 76
     0
 77
     1
 78
     8
170
     0
171
     2
172
     0
173
     0
174
     0
175
     0
176
     0
177
     0
178
     0
270
     2
271
     2
272
     2
273
     2
274
     2
340
10
275
     0
280
     0
281
     0
282
     0
283
     2
284
     8
285
     0
286
     0
287
     3
288
     0
  0
DIMSTYLE
105
57C
100
AcDbSymbolTableRecord
100
AcDbDimStyleTableRecord
  2
TOLL-10
 70
     0
  3

  4

  5

  6

  7

 40
1.0
 41
2.5
 42
0.625
 43
3.75
 44
1.25
 45
0.0
 46
0.0
 47
0.1
 48
0.1
140
3.5
141
2.5
142
0.0
143
0.03937
144
1.0
145
0.0
146
0.8
147
0.625
 71
     1
 72
     0
 73
     0
 74
     0
 75
     0
 76
     0
 77
     1
 78
     8
170
     0
171
     2
172
     0
173
     0
174
     0
175
     0
176
     0
177
     0
178
     0
270
     2
271
     2
272
     2
273
     2
274
     2
340
10
275
     0
280
     0
281
     0
282
     0
283
     2
284
     8
285
     0
286
     0
287
     3
288
     0
  0
DIMSTYLE
105
57D
100
AcDbSymbolTableRecord
100
AcDbDimStyleTableRecord
  2
TOLL-11
 70
     0
  3

  4

  5

  6

  7

 40
1.0
 41
2.5
 42
0.625
 43
3.75
 44
1.25
 45
0.0
 46
0.0
 47
0.1
 48
0.0
140
3.5
141
2.5
142
0.0
143
0.03937
144
1.0
145
0.0
146
0.8
147
0.625
 71
     1
 72
     0
 73
     0
 74
     0
 75
     0
 76
     0
 77
     1
 78
     8
170
     0
171
     2
172
     0
173
     0
174
     0
175
     0
176
     0
177
     0
178
     0
270
     2
271
     2
272
     2
273
     2
274
     2
340
10
275
     0
280
     0
281
     0
282
     0
283
     2
284
     8
285
     0
286
     0
287
     3
288
     0
  0
DIMSTYLE
105
57E
100
AcDbSymbolTableRecord
100
AcDbDimStyleTableRecord
  2
TOLL-12
 70
     0
  3

  4

  5

  6

  7

 40
1.0
 41
2.5
 42
0.625
 43
3.75
 44
1.25
 45
0.0
 46
0.0
 47
-0.1
 48
0.0
140
3.5
141
2.5
142
0.0
143
0.03937
144
1.0
145
0.0
146
0.8
147
0.625
 71
     1
 72
     0
 73
     0
 74
     0
 75
     0
 76
     0
 77
     1
 78
     8
170
     0
171
     2
172
     0
173
     0
174
     0
175
     0
176
     0
177
     0
178
     0
270
     2
271
     2
272
     2
273
     2
274
     2
340
10
275
     0
280
     0
281
     0
282
     0
283
     2
284
     8
285
     0
286
     0
287
     3
288
     0
  0
DIMSTYLE
105
57F
100
AcDbSymbolTableRecord
100
AcDbDimStyleTableRecord
  2
TOLL-13
 70
     0
  3

  4

  5

  6

  7

 40
1.0
 41
2.5
 42
0.625
 43
3.75
 44
1.25
 45
0.0
 46
0.0
 47
0.2
 48
0.2
140
3.5
141
2.5
142
0.0
143
0.03937
144
1.0
145
0.0
146
0.8
147
0.625
 71
     1
 72
     0
 73
     0
 74
     0
 75
     0
 76
     0
 77
     1
 78
     8
170
     0
171
     2
172
     0
173
     0
174
     0
175
     0
176
     0
177
     0
178
     0
270
     2
271
     2
272
     2
273
     2
274
     2
340
10
275
     0
280
     0
281
     0
282
     0
283
     2
284
     8
285
     0
286
     0
287
     3
288
     0
  0
DIMSTYLE
105
580
100
AcDbSymbolTableRecord
100
AcDbDimStyleTableRecord
  2
TOLL-14
 70
     0
  3

  4

  5

  6

  7

 40
1.0
 41
2.5
 42
0.625
 43
3.75
 44
1.25
 45
0.0
 46
0.0
 47
0.2
 48
0.0
140
3.5
141
2.5
142
0.0
143
0.03937
144
1.0
145
0.0
146
0.8
147
0.625
 71
     1
 72
     0
 73
     0
 74
     0
 75
     0
 76
     0
 77
     1
 78
     8
170
     0
171
     2
172
     0
173
     0
174
     0
175
     0
176
     0
177
     0
178
     0
270
     2
271
     2
272
     2
273
     2
274
     2
340
10
275
     0
280
     0
281
     0
282
     0
283
     2
284
     8
285
     0
286
     0
287
     3
288
     0
  0
DIMSTYLE
105
581
100
AcDbSymbolTableRecord
100
AcDbDimStyleTableRecord
  2
TOLL-15
 70
     0
  3

  4

  5

  6

  7

 40
1.0
 41
2.5
 42
0.625
 43
3.75
 44
1.25
 45
0.0
 46
0.0
 47
-0.2
 48
0.0
140
3.5
141
2.5
142
0.0
143
0.03937
144
1.0
145
0.0
146
0.8
147
0.625
 71
     1
 72
     0
 73
     0
 74
     0
 75
     0
 76
     0
 77
     1
 78
     8
170
     0
171
     2
172
     0
173
     0
174
     0
175
     0
176
     0
177
     0
178
     0
270
     2
271
     2
272
     2
273
     2
274
     2
340
10
275
     0
280
     0
281
     0
282
     0
283
     2
284
     8
285
     0
286
     0
287
     3
288
     0
  0
DIMSTYLE
105
582
100
AcDbSymbolTableRecord
100
AcDbDimStyleTableRecord
  2
TOLL-16
 70
     0
  3

  4

  5

  6

  7

 40
1.0
 41
2.5
 42
0.625
 43
3.75
 44
1.25
 45
0.0
 46
0.0
 47
0.5
 48
0.5
140
3.5
141
2.5
142
0.0
143
0.03937
144
1.0
145
0.0
146
0.8
147
0.625
 71
     1
 72
     0
 73
     0
 74
     0
 75
     0
 76
     0
 77
     1
 78
     8
170
     0
171
     2
172
     0
173
     0
174
     0
175
     0
176
     0
177
     0
178
     0
270
     2
271
     2
272
     2
273
     2
274
     2
340
10
275
     0
280
     0
281
     0
282
     0
283
     2
284
     8
285
     0
286
     0
287
     3
288
     0
  0
DIMSTYLE
105
583
100
AcDbSymbolTableRecord
100
AcDbDimStyleTableRecord
  2
TOLL-17
 70
     0
  3

  4

  5

  6

  7

 40
1.0
 41
2.5
 42
0.625
 43
3.75
 44
1.25
 45
0.0
 46
0.0
 47
0.5
 48
0.0
140
3.5
141
2.5
142
0.0
143
0.03937
144
1.0
145
0.0
146
0.8
147
0.625
 71
     1
 72
     0
 73
     0
 74
     0
 75
     0
 76
     0
 77
     1
 78
     8
170
     0
171
     2
172
     0
173
     0
174
     0
175
     0
176
     0
177
     0
178
     0
270
     2
271
     2
272
     2
273
     2
274
     2
340
10
275
     0
280
     0
281
     0
282
     0
283
     2
284
     8
285
     0
286
     0
287
     3
288
     0
  0
DIMSTYLE
105
584
100
AcDbSymbolTableRecord
100
AcDbDimStyleTableRecord
  2
TOLL-18
 70
     0
  3

  4

  5

  6

  7

 40
1.0
 41
2.5
 42
0.625
 43
3.75
 44
1.25
 45
0.0
 46
0.0
 47
-0.5
 48
0.0
140
3.5
141
2.5
142
0.0
143
0.03937
144
1.0
145
0.0
146
0.8
147
0.625
 71
     1
 72
     0
 73
     0
 74
     0
 75
     0
 76
     0
 77
     1
 78
     8
170
     0
171
     2
172
     0
173
     0
174
     0
175
     0
176
     0
177
     0
178
     0
270
     2
271
     2
272
     2
273
     2
274
     2
340
10
275
     0
280
     0
281
     0
282
     0
283
     2
284
     8
285
     0
286
     0
287
     3
288
     0
  0
DIMSTYLE
105
585
100
AcDbSymbolTableRecord
100
AcDbDimStyleTableRecord
  2
TOLL-19
 70
     0
  3

  4

  5

  6

  7

 40
1.0
 41
2.5
 42
0.625
 43
3.75
 44
1.25
 45
0.0
 46
0.0
 47
0.16
 48
0.0
140
3.5
141
2.5
142
0.0
143
0.03937
144
1.0
145
0.0
146
0.8
147
0.625
 71
     1
 72
     0
 73
     0
 74
     0
 75
     0
 76
     0
 77
     1
 78
     8
170
     0
171
     2
172
     0
173
     0
174
     0
175
     0
176
     0
177
     0
178
     0
270
     2
271
     0
272
     2
273
     2
274
     2
340
10
275
     1
280
     0
281
     0
282
     0
283
     2
284
     8
285
     0
286
     0
287
     3
288
     0
  0
DIMSTYLE
105
5E5
100
AcDbSymbolTableRecord
100
AcDbDimStyleTableRecord
  2
TOLL-20
 70
     0
  3

  4

  5

  6

  7

 40
1.0
 41
2.5
 42
0.625
 43
3.75
 44
1.25
 45
0.0
 46
0.0
 47
-0.16
 48
0.0
140
3.5
141
2.5
142
0.0
143
0.03937
144
1.0
145
0.0
146
0.8
147
0.625
 71
     1
 72
     0
 73
     0
 74
     0
 75
     0
 76
     0
 77
     1
 78
     8
170
     0
171
     2
172
     0
173
     0
174
     0
175
     0
176
     0
177
     0
178
     0
270
     2
271
     0
272
     2
273
     2
274
     2
340
10
275
     1
280
     0
281
     0
282
     0
283
     2
284
     8
285
     0
286
     0
287
     3
288
     0
  0
DIMSTYLE
105
5E6
100
AcDbSymbolTableRecord
100
AcDbDimStyleTableRecord
  2
TOLL-21
 70
     0
  3

  4

  5

  6

  7

 40
1.0
 41
2.5
 42
0.625
 43
3.75
 44
1.25
 45
0.0
 46
0.0
 47
0.033
 48
0.0
140
3.5
141
2.5
142
0.0
143
0.03937
144
1.0
145
0.0
146
0.8
147
0.625
 71
     1
 72
     0
 73
     0
 74
     0
 75
     0
 76
     0
 77
     1
 78
     8
170
     0
171
     2
172
     0
173
     0
174
     0
175
     0
176
     0
177
     0
178
     0
270
     2
271
     0
272
     2
273
     2
274
     2
340
10
275
     1
280
     0
281
     0
282
     0
283
     2
284
     8
285
     0
286
     0
287
     3
288
     0
  0
DIMSTYLE
105
60E
100
AcDbSymbolTableRecord
100
AcDbDimStyleTableRecord
  2
TOLL-22
 70
     0
  3

  4

  5

  6

  7

 40
1.0
 41
2.5
 42
0.625
 43
3.75
 44
1.25
 45
0.0
 46
0.0
 47
-0.033
 48
0.0
140
3.5
141
2.5
142
0.0
143
0.03937
144
1.0
145
0.0
146
0.8
147
0.625
 71
     1
 72
     0
 73
     0
 74
     0
 75
     0
 76
     0
 77
     1
 78
     8
170
     0
171
     2
172
     0
173
     0
174
     0
175
     0
176
     0
177
     0
178
     0
270
     2
271
     0
272
     2
273
     2
274
     2
340
10
275
     1
280
     0
281
     0
282
     0
283
     2
284
     8
285
     0
286
     0
287
     3
288
     0
  0
ENDTAB
  0
TABLE
  2
BLOCK_RECORD
  5
1
100
AcDbSymbolTable
 70
    30
  0
BLOCK_RECORD
  5
19
100
AcDbSymbolTableRecord
100
AcDbBlockTableRecord
  2
*MODEL_SPACE
  0
BLOCK_RECORD
  5
16
100
AcDbSymbolTableRecord
100
AcDbBlockTableRecord
  2
*PAPER_SPACE
  0
BLOCK_RECORD
  5
3A2
100
AcDbSymbolTableRecord
100
AcDbBlockTableRecord
  2
RUGOSITA
  0
BLOCK_RECORD
  5
4A8
100
AcDbSymbolTableRecord
100
AcDbBlockTableRecord
  2
A$C52B2
  0
BLOCK_RECORD
  5
649
100
AcDbSymbolTableRecord
100
AcDbBlockTableRecord
  2
*D2
  0
BLOCK_RECORD
  5
656
100
AcDbSymbolTableRecord
100
AcDbBlockTableRecord
  2
*D3
  0
BLOCK_RECORD
  5
8BA
100
AcDbSymbolTableRecord
100
AcDbBlockTableRecord
  2
*D4
  0
BLOCK_RECORD
  5
8E8
100
AcDbSymbolTableRecord
100
AcDbBlockTableRecord
  2
*D5
  0
BLOCK_RECORD
  5
8F5
100
AcDbSymbolTableRecord
100
AcDbBlockTableRecord
  2
*D6
  0
BLOCK_RECORD
  5
ADB
100
AcDbSymbolTableRecord
100
AcDbBlockTableRecord
  2
*D7
  0
BLOCK_RECORD
  5
AE9
100
AcDbSymbolTableRecord
100
AcDbBlockTableRecord
  2
*D8
  0
BLOCK_RECORD
  5
AFF
100
AcDbSymbolTableRecord
100
AcDbBlockTableRecord
  2
*D9
  0
BLOCK_RECORD
  5
B17
100
AcDbSymbolTableRecord
100
AcDbBlockTableRecord
  2
*D10
  0
BLOCK_RECORD
  5
CCC
100
AcDbSymbolTableRecord
100
AcDbBlockTableRecord
  2
*D11
  0
BLOCK_RECORD
  5
CF2
100
AcDbSymbolTableRecord
100
AcDbBlockTableRecord
  2
*D12
  0
BLOCK_RECORD
  5
CFF
100
AcDbSymbolTableRecord
100
AcDbBlockTableRecord
  2
*D13
  0
BLOCK_RECORD
  5
DDF
100
AcDbSymbolTableRecord
100
AcDbBlockTableRecord
  2
*D14
  0
BLOCK_RECORD
  5
DEC
100
AcDbSymbolTableRecord
100
AcDbBlockTableRecord
  2
*D15
  0
BLOCK_RECORD
  5
E13
100
AcDbSymbolTableRecord
100
AcDbBlockTableRecord
  2
*D16
  0
BLOCK_RECORD
  5
E5E
100
AcDbSymbolTableRecord
100
AcDbBlockTableRecord
  2
*D17
  0
BLOCK_RECORD
  5
E6B
100
AcDbSymbolTableRecord
100
AcDbBlockTableRecord
  2
*D18
  0
BLOCK_RECORD
  5
E93
100
AcDbSymbolTableRecord
100
AcDbBlockTableRecord
  2
*D19
  0
BLOCK_RECORD
  5
EBA
100
AcDbSymbolTableRecord
100
AcDbBlockTableRecord
  2
*D20
  0
BLOCK_RECORD
  5
EE2
100
AcDbSymbolTableRecord
100
AcDbBlockTableRecord
  2
*D21
  0
BLOCK_RECORD
  5
EEC
100
AcDbSymbolTableRecord
100
AcDbBlockTableRecord
  2
*D22
  0
BLOCK_RECORD
  5
1092
100
AcDbSymbolTableRecord
100
AcDbBlockTableRecord
  2
*D23
  0
BLOCK_RECORD
  5
1174
100
AcDbSymbolTableRecord
100
AcDbBlockTableRecord
  2
*X24
  0
BLOCK_RECORD
  5
11C3
100
AcDbSymbolTableRecord
100
AcDbBlockTableRecord
  2
*D25
  0
BLOCK_RECORD
  5
11D0
100
AcDbSymbolTableRecord
100
AcDbBlockTableRecord
  2
*D26
  0
BLOCK_RECORD
  5
1259
100
AcDbSymbolTableRecord
100
AcDbBlockTableRecord
  2
*X27
  0
BLOCK_RECORD
  5
126F
100
AcDbSymbolTableRecord
100
AcDbBlockTableRecord
  2
*D28
  0
BLOCK_RECORD
  5
139F
100
AcDbSymbolTableRecord
100
AcDbBlockTableRecord
  2
*X29
  0
ENDTAB
  0
ENDSEC
  0
SECTION
  2
BLOCKS
  0
BLOCK
  5
1A
100
AcDbEntity
  8
0
100
AcDbBlockBegin
  2
*MODEL_SPACE
 70
     0
 10
0.0
 20
0.0
 30
0.0
  3
*MODEL_SPACE
  1

  0
ENDBLK
  5
1B
100
AcDbEntity
  8
0
100
AcDbBlockEnd
  0
BLOCK
  5
17
100
AcDbEntity
 67
     1
  8
0
100
AcDbBlockBegin
  2
*PAPER_SPACE
 70
     0
 10
0.0
 20
0.0
 30
0.0
  3
*PAPER_SPACE
  1

  0
ENDBLK
  5
18
100
AcDbEntity
 67
     1
  8
0
100
AcDbBlockEnd
  0
BLOCK
  5
3A7
100
AcDbEntity
  8
DISEGNO
100
AcDbBlockBegin
  2
RUGOSITA
 70
     2
 10
0.0
 20
0.0
 30
0.0
  3
RUGOSITA
  1

  0
ATTDEF
  5
3A3
100
AcDbEntity
  8
QUOTE
100
AcDbText
 10
-1.071886
 20
3.214106
 30
0.0
 40
1.5
  1
0.8
100
AcDbAttributeDefinition
  3
CHE RUGOSITA ?
  2
RUGOSITA
 70
     0
  0
LINE
  5
3A4
100
AcDbEntity
  8
QUOTE
100
AcDbLine
 10
0.0
 20
0.0
 30
0.0
 11
4.0
 21
6.928203
 31
0.0
  0
LINE
  5
3A5
100
AcDbEntity
  8
QUOTE
100
AcDbLine
 10
0.0
 20
0.0
 30
0.0
 11
-1.75
 21
3.031089
 31
0.0
  0
LINE
  5
3A6
100
AcDbEntity
  8
QUOTE
100
AcDbLine
 10
-1.75
 20
3.031089
 30
0.0
 11
1.75
 21
3.031089
 31
0.0
  0
ENDBLK
  5
3A8
100
AcDbEntity
  8
DISEGNO
100
AcDbBlockEnd
  0
BLOCK
  5
547
100
AcDbEntity
  8
QUOTE
100
AcDbBlockBegin
  2
A$C52B2
 70
     0
 10
0.0
 20
0.0
 30
0.0
  3
A$C52B2
  1

  0
LINE
  5
4A9
100
AcDbEntity
  8
TABELLA
  6
CONTINUOUS
100
AcDbLine
 10
100.781064
 20
5.387067
 30
0.0
 11
103.281064
 21
0.387067
 31
0.0
  0
LINE
  5
4AA
100
AcDbEntity
  8
TABELLA
  6
CONTINUOUS
100
AcDbLine
 10
100.781064
 20
0.387067
 30
0.0
 11
103.281064
 21
0.387067
 31
0.0
  0
LINE
  5
4AB
100
AcDbEntity
  8
TABELLA
  6
CONTINUOUS
100
AcDbLine
 10
103.281064
 20
287.387067
 30
0.0
 11
100.781064
 21
282.387067
 31
0.0
  0
LINE
  5
4AC
100
AcDbEntity
  8
TABELLA
  6
CONTINUOUS
100
AcDbLine
 10
100.781064
 20
287.387067
 30
0.0
 11
103.281064
 21
287.387067
 31
0.0
  0
TEXT
  5
4AD
100
AcDbEntity
  8
TABELLA
  6
CONTINUOUS
100
AcDbText
 10
83.891226
 20
14.123583
 30
0.0
 40
6.0
  1
ROLLERI
100
AcDbText
  0
LINE
  5
4AE
100
AcDbEntity
  8
TABELLA
  6
CONTINUOUS
100
AcDbLine
 10
115.706968
 20
22.612261
 30
0.0
 11
84.107383
 21
22.612261
 31
0.0
1001
ACAD
1000
ASC_BOUNDS
1002
{
1070
    19
1002
}
  0
LINE
  5
4AF
100
AcDbEntity
  8
TABELLA
  6
CONTINUOUS
100
AcDbLine
 10
82.055262
 20
11.456564
 30
0.0
 11
113.654847
 21
11.456564
 31
0.0
1001
ACAD
1000
ASC_BOUNDS
1002
{
1070
    19
1002
}
  0
LINE
  5
4B0
100
AcDbEntity
  8
TABELLA
  6
CONTINUOUS
100
AcDbLine
 10
116.407176
 20
23.612261
 30
0.0
 11
83.407176
 21
23.612261
 31
0.0
1001
ACAD
1000
ASC_BOUNDS
1002
{
1070
    19
1002
}
  0
LINE
  5
4B1
100
AcDbEntity
  8
TABELLA
  6
CONTINUOUS
100
AcDbLine
 10
81.355055
 20
10.456564
 30
0.0
 11
114.355055
 21
10.456564
 31
0.0
1001
ACAD
1000
ASC_BOUNDS
1002
{
1070
    19
1002
}
  0
TEXT
  5
4B2
100
AcDbEntity
  8
TABELLA
  6
CONTINUOUS
100
AcDbText
 10
79.770815
 20
6.679292
 30
0.0
 40
2.0
  1
Vigolzone ( Piacenza ) - ITALIA
100
AcDbText
  0
LINE
  5
4B3
100
AcDbEntity
  8
TABELLA
  6
CONTINUOUS
100
AcDbLine
 10
125.782064
 20
35.387067
 30
0.0
 11
75.782064
 21
35.387067
 31
0.0
  0
LINE
  5
4B4
100
AcDbEntity
  8
TABELLA
  6
CONTINUOUS
100
AcDbLine
 10
195.782064
 20
45.387067
 30
0.0
 11
5.697058
 21
45.395351
 31
0.0
  0
LINE
  5
4B5
100
AcDbEntity
  8
TABELLA
  6
CONTINUOUS
100
AcDbLine
 10
125.782064
 20
25.387067
 30
0.0
 11
75.782064
 21
25.387067
 31
0.0
  0
LINE
  5
4B6
100
AcDbEntity
  8
TABELLA
  6
CONTINUOUS
100
AcDbLine
 10
195.782064
 20
5.387067
 30
0.0
 11
5.782064
 21
5.387067
 31
0.0
  0
LINE
  5
4B7
100
AcDbEntity
  8
TABELLA
  6
CONTINUOUS
100
AcDbLine
 10
5.782064
 20
282.387067
 30
0.0
 11
195.782064
 21
282.387067
 31
0.0
  0
LINE
  5
4B8
100
AcDbEntity
  8
TABELLA
  6
CONTINUOUS
100
AcDbLine
 10
5.782064
 20
143.887067
 30
0.0
 11
0.782064
 21
141.387067
 31
0.0
  0
LINE
  5
4B9
100
AcDbEntity
  8
TABELLA
  6
CONTINUOUS
100
AcDbLine
 10
0.782064
 20
143.887067
 30
0.0
 11
0.782064
 21
141.387067
 31
0.0
  0
LINE
  5
4BA
100
AcDbEntity
  8
TABELLA
  6
CONTINUOUS
100
AcDbLine
 10
5.782064
 20
5.387067
 30
0.0
 11
5.782064
 21
282.387067
 31
0.0
  0
POLYLINE
  5
4BB
100
AcDbEntity
  8
QUOTE
100
AcDb2dPolyline
 66
     1
 10
0.0
 20
0.0
 30
0.0
 70
     1
  0
VERTEX
  5
4BC
100
AcDbEntity
  8
QUOTE
100
AcDbVertex
100
AcDb2dVertex
 10
11.507487
 20
62.582414
 30
0.0
  0
VERTEX
  5
4BD
100
AcDbEntity
  8
QUOTE
100
AcDbVertex
100
AcDb2dVertex
 10
11.507487
 20
49.867806
 30
0.0
  0
VERTEX
  5
4BE
100
AcDbEntity
  8
QUOTE
100
AcDbVertex
100
AcDb2dVertex
 10
52.626527
 20
49.867806
 30
0.0
  0
VERTEX
  5
4BF
100
AcDbEntity
  8
QUOTE
100
AcDbVertex
100
AcDb2dVertex
 10
52.626527
 20
62.582414
 30
0.0
  0
SEQEND
  5
4C0
100
AcDbEntity
  8
QUOTE
  0
TOLERANCE
  5
4C1
100
AcDbEntity
  8
QUOTE
  6
CONTINUOUS
100
AcDbFcf
  3
ISO-25
 10
30.863585
 20
54.182522
 30
0.0
  1
{\Fgdt;u}%%v0.02%%v%%v%%v%%v
1001
ACAD
1000
DSTYLE
1002
{
1070
   140
1040
2.6
1070
    47
1040
0.02
1070
    73
1070
     0
1070
   272
1070
     2
1070
   147
1040
0.53
1070
    42
1040
0.5261
1070
    44
1040
1.0522
1070
    43
1040
3.1566
1070
   271
1070
     2
1070
   141
1040
2.1044
1070
    41
1040
2.6
1002
}
  0
TEXT
  5
4C2
100
AcDbEntity
  8
QUOTE
100
AcDbText
 10
12.101072
 20
58.118453
 30
0.0
 40
2.5
  1
TOLLERANZE AL METRO
 41
1.1
100
AcDbText
  0
TEXT
  5
4C3
100
AcDbEntity
  8
TABELLA
  6
CONTINUOUS
100
AcDbText
 10
7.271803
 20
15.7314
 30
0.0
 40
2.0
  1
- Angoli su superfici lavorate = +/- 30'
100
AcDbText
  0
TEXT
  5
4C4
100
AcDbEntity
  8
TABELLA
  6
CONTINUOUS
100
AcDbText
 10
7.271803
 20
23.3314
 30
0.0
 40
2.0
  1
   da mm 151 a mm 500 = +/- 0.4
100
AcDbText
  0
TEXT
  5
4C5
100
AcDbEntity
  8
TABELLA
  6
CONTINUOUS
100
AcDbText
 10
7.271803
 20
27.1314
 30
0.0
 40
2.0
  1
   da mm 51 a mm 150 = +/- 0.3
100
AcDbText
  0
TEXT
  5
4C6
100
AcDbEntity
  8
TABELLA
  6
CONTINUOUS
100
AcDbText
 10
7.271803
 20
30.9314
 30
0.0
 40
2.0
  1
- Superfici lavorate da mm 1 a mm 50 = +/- 0.2
100
AcDbText
  0
TEXT
  5
4C7
100
AcDbEntity
  8
TABELLA
  6
CONTINUOUS
100
AcDbText
 10
7.271803
 20
34.7314
 30
0.0
 40
2.0
  1
- Parti fuse con spessori >10 mm = +/- 10%
100
AcDbText
  0
TEXT
  5
4C8
100
AcDbEntity
  8
TABELLA
  6
CONTINUOUS
100
AcDbText
 10
7.271803
 20
38.5314
 30
0.0
 40
2.0
  1
- Parti fuse con spessori <10 mm = +/- 1 mm
100
AcDbText
  0
TOLERANCE
  5
4C9
100
AcDbEntity
  8
QUOTE
  6
CONTINUOUS
100
AcDbFcf
  3
ISO-25
 10
15.305627
 20
54.182522
 30
0.0
  1
{\Fgdt;b}%%v0.02%%v%%v%%v%%v
1001
ACAD
1000
DSTYLE
1002
{
1070
   140
1040
2.6
1070
    47
1040
0.02
1070
    73
1070
     0
1070
   272
1070
     2
1070
   147
1040
0.53
1070
    42
1040
0.5261
1070
    44
1040
1.0522
1070
    43
1040
3.1566
1070
   271
1070
     2
1070
   141
1040
2.1044
1070
    41
1040
2.6
1002
}
  0
TEXT
  5
4CA
100
AcDbEntity
  8
TABELLA
  6
CONTINUOUS
100
AcDbText
 10
0.769342
 20
51.259863
 30
0.0
 40
4.0
  1
B
100
AcDbText
  0
TEXT
  5
4CB
100
AcDbEntity
  8
TABELLA
  6
CONTINUOUS
100
AcDbText
 10
0.353187
 20
15.100813
 30
0.0
 40
4.0
  1
A
100
AcDbText
  0
LINE
  5
4CC
100
AcDbEntity
  8
TABELLA
  6
CONTINUOUS
100
AcDbLine
 10
5.782064
 20
36.262067
 30
0.0
 11
0.782064
 21
36.262067
 31
0.0
  0
TEXT
  5
4CD
100
AcDbEntity
  8
TABELLA
  6
CONTINUOUS
100
AcDbText
 10
15.583223
 20
0.138446
 30
0.0
 40
4.0
  1
6
100
AcDbText
  0
LINE
  5
4CE
100
AcDbEntity
  8
TABELLA
  6
CONTINUOUS
100
AcDbLine
 10
34.115064
 20
5.387067
 30
0.0
 11
34.115064
 21
0.387067
 31
0.0
  0
TEXT
  5
4CF
100
AcDbEntity
  8
TABELLA
  6
CONTINUOUS
100
AcDbText
 10
7.271803
 20
11.9314
 30
0.0
 40
2.0
  1
- Interassi fori = +/- 0.25
100
AcDbText
  0
TEXT
  5
4D0
100
AcDbEntity
  8
TABELLA
  6
CONTINUOUS
100
AcDbText
 10
7.271803
 20
19.5314
 30
0.0
 40
2.0
  1
   oltre 500 mm = +/- 0.5
100
AcDbText
  0
TEXT
  5
4D1
100
AcDbEntity
  8
TABELLA
  6
CONTINUOUS
100
AcDbText
 10
7.271803
 20
42.3314
 30
0.0
 40
2.0
  1
TOLLERANZE GENERALI :
100
AcDbText
  0
LINE
  5
4D2
100
AcDbEntity
  8
TABELLA
  6
CONTINUOUS
100
AcDbLine
 10
5.782064
 20
72.137067
 30
0.0
 11
0.782064
 21
72.137067
 31
0.0
  0
TEXT
  5
4D3
100
AcDbEntity
  8
TABELLA
  6
CONTINUOUS
100
AcDbText
 10
0.769342
 20
87.459725
 30
0.0
 40
4.0
  1
C
100
AcDbText
  0
LINE
  5
4D4
100
AcDbEntity
  8
TABELLA
  6
CONTINUOUS
100
AcDbLine
 10
5.782064
 20
108.012067
 30
0.0
 11
0.782064
 21
108.012067
 31
0.0
  0
TEXT
  5
4D5
100
AcDbEntity
  8
TABELLA
  6
CONTINUOUS
100
AcDbText
 10
0.769342
 20
124.034397
 30
0.0
 40
4.0
  1
D
100
AcDbText
  0
LINE
  5
4D6
100
AcDbEntity
  8
TABELLA
  6
CONTINUOUS
100
AcDbLine
 10
65.792444
 20
45.394891
 30
0.0
 11
65.782064
 21
5.389662
 31
0.0
  0
TEXT
  5
4D7
100
AcDbEntity
  8
TABELLA
  6
CONTINUOUS
100
AcDbText
 10
68.438556
 20
7.454028
 30
0.0
 40
1.5
  1
A termine di legge la Rolleri si riserva la
 50
90.0
100
AcDbText
  0
TEXT
  5
4D8
100
AcDbEntity
  8
TABELLA
  6
CONTINUOUS
100
AcDbText
 10
49.29176
 20
0.138446
 30
0.0
 40
4.0
  1
5
100
AcDbText
  0
LINE
  5
4D9
100
AcDbEntity
  8
TABELLA
  6
CONTINUOUS
100
AcDbLine
 10
67.448064
 20
5.387067
 30
0.0
 11
67.448064
 21
0.387067
 31
0.0
  0
LINE
  5
4DA
100
AcDbEntity
  8
TABELLA
  6
CONTINUOUS
100
AcDbLine
 10
75.792442
 20
45.387067
 30
0.0
 11
75.792442
 21
5.387067
 31
0.0
  0
TEXT
  5
4DB
100
AcDbEntity
  8
TABELLA
  6
CONTINUOUS
100
AcDbText
 10
74.138556
 20
7.454028
 30
0.0
 40
1.5
  1
di riprodurlo e di comunicarlo a terzi.
 50
90.0
100
AcDbText
  0
TEXT
  5
4DC
100
AcDbEntity
  8
TABELLA
  6
CONTINUOUS
100
AcDbText
 10
71.288556
 20
7.454028
 30
0.0
 40
1.5
  1
proprietà di questo disegno, con divieto
 50
90.0
100
AcDbText
  0
TEXT
  5
4DD
100
AcDbEntity
  8
TABELLA
  6
CONTINUOUS
100
AcDbText
 10
83.416451
 20
0.554068
 30
0.0
 40
4.0
  1
4
100
AcDbText
  0
LINE
  5
4DE
100
AcDbEntity
  8
TABELLA
  6
CONTINUOUS
100
AcDbLine
 10
98.281064
 20
0.387067
 30
0.0
 11
100.781064
 21
5.387067
 31
0.0
  0
LINE
  5
4DF
100
AcDbEntity
  8
TABELLA
  6
CONTINUOUS
100
AcDbLine
 10
100.781064
 20
5.387067
 30
0.0
 11
100.781064
 21
0.387067
 31
0.0
  0
LINE
  5
4E0
100
AcDbEntity
  8
TABELLA
  6
CONTINUOUS
100
AcDbLine
 10
100.781064
 20
0.387067
 30
0.0
 11
98.281064
 21
0.387067
 31
0.0
  0
TEXT
  5
4E1
100
AcDbEntity
  8
TABELLA
  6
CONTINUOUS
100
AcDbText
 10
77.180326
 20
42.484843
 30
0.0
 40
2.0
  1
Materiale
100
AcDbText
  0
TEXT
  5
4E2
100
AcDbEntity
  8
TABELLA
  6
CONTINUOUS
100
AcDbText
 10
76.949018
 20
32.320687
 30
0.0
 40
2.0
  1
Disegnato da
100
AcDbText
  0
LINE
  5
4E3
100
AcDbEntity
  8
TABELLA
  6
CONTINUOUS
100
AcDbLine
 10
84.107383
 20
22.612261
 30
0.0
 11
81.051152
 21
14.215335
 31
0.0
1001
ACAD
1000
ASC_BOUNDS
1002
{
1070
    19
1002
}
  0
LINE
  5
4E4
100
AcDbEntity
  8
TABELLA
  6
CONTINUOUS
100
AcDbLine
 10
83.407176
 20
23.612261
 30
0.0
 11
79.986974
 21
14.215335
 31
0.0
1001
ACAD
1000
ASC_BOUNDS
1002
{
1070
    19
1002
}
  0
LINE
  5
4E5
100
AcDbEntity
  8
TABELLA
  6
CONTINUOUS
100
AcDbLine
 10
81.051152
 20
14.215335
 30
0.0
 11
82.055262
 21
11.456564
 31
0.0
1001
ACAD
1000
ASC_BOUNDS
1002
{
1070
    19
1002
}
  0
LINE
  5
4E6
100
AcDbEntity
  8
TABELLA
  6
CONTINUOUS
100
AcDbLine
 10
79.986974
 20
14.215335
 30
0.0
 11
81.355055
 21
10.456564
 31
0.0
1001
ACAD
1000
ASC_BOUNDS
1002
{
1070
    19
1002
}
  0
LINE
  5
4E7
100
AcDbEntity
  8
TABELLA
  6
CONTINUOUS
100
AcDbLine
 10
100.782064
 20
35.387067
 30
0.0
 11
100.782064
 21
25.387067
 31
0.0
  0
TEXT
  5
4E8
100
AcDbEntity
  8
TABELLA
  6
CONTINUOUS
100
AcDbText
 10
1.185497
 20
230.800736
 30
0.0
 40
4.0
  1
G
100
AcDbText
  0
LINE
  5
4E9
100
AcDbEntity
  8
TABELLA
  6
CONTINUOUS
100
AcDbLine
 10
0.782064
 20
146.387067
 30
0.0
 11
5.782064
 21
143.887067
 31
0.0
  0
LINE
  5
4EA
100
AcDbEntity
  8
TABELLA
  6
CONTINUOUS
100
AcDbLine
 10
5.782064
 20
143.887067
 30
0.0
 11
0.782064
 21
143.887067
 31
0.0
  0
LINE
  5
4EB
100
AcDbEntity
  8
TABELLA
  6
CONTINUOUS
100
AcDbLine
 10
0.782064
 20
143.887067
 30
0.0
 11
0.782064
 21
146.387067
 31
0.0
  0
TEXT
  5
4EC
100
AcDbEntity
  8
TABELLA
  6
CONTINUOUS
100
AcDbText
 10
1.601651
 20
158.319393
 30
0.0
 40
4.0
  1
E
100
AcDbText
  0
LINE
  5
4ED
100
AcDbEntity
  8
TABELLA
  6
CONTINUOUS
100
AcDbLine
 10
5.782064
 20
179.762067
 30
0.0
 11
0.782064
 21
179.762067
 31
0.0
  0
TEXT
  5
4EE
100
AcDbEntity
  8
TABELLA
  6
CONTINUOUS
100
AcDbText
 10
1.185497
 20
195.309687
 30
0.0
 40
4.0
  1
F
100
AcDbText
  0
LINE
  5
4EF
100
AcDbEntity
  8
TABELLA
  6
CONTINUOUS
100
AcDbLine
 10
5.782064
 20
215.637067
 30
0.0
 11
0.782064
 21
215.637067
 31
0.0
  0
LINE
  5
4F0
100
AcDbEntity
  8
TABELLA
  6
CONTINUOUS
100
AcDbLine
 10
5.782064
 20
251.512067
 30
0.0
 11
0.782064
 21
251.512067
 31
0.0
  0
TEXT
  5
4F1
100
AcDbEntity
  8
TABELLA
  6
CONTINUOUS
100
AcDbText
 10
1.185497
 20
268.206651
 30
0.0
 40
4.0
  1
H
100
AcDbText
  0
TEXT
  5
4F2
100
AcDbEntity
  8
TABELLA
  6
CONTINUOUS
100
AcDbText
 10
15.583224
 20
283.209827
 30
0.0
 40
4.0
  1
6
100
AcDbText
  0
LINE
  5
4F3
100
AcDbEntity
  8
TABELLA
  6
CONTINUOUS
100
AcDbLine
 10
34.115064
 20
282.387067
 30
0.0
 11
34.115064
 21
287.387067
 31
0.0
  0
TEXT
  5
4F4
100
AcDbEntity
  8
TABELLA
  6
CONTINUOUS
100
AcDbText
 10
50.12407
 20
283.250638
 30
0.0
 40
4.0
  1
5
100
AcDbText
  0
LINE
  5
4F5
100
AcDbEntity
  8
TABELLA
  6
CONTINUOUS
100
AcDbLine
 10
67.448064
 20
282.387067
 30
0.0
 11
67.448064
 21
287.387067
 31
0.0
  0
TEXT
  5
4F6
100
AcDbEntity
  8
TABELLA
  6
CONTINUOUS
100
AcDbText
 10
83.832607
 20
283.250638
 30
0.0
 40
4.0
  1
4
100
AcDbText
  0
LINE
  5
4F7
100
AcDbEntity
  8
TABELLA
  6
CONTINUOUS
100
AcDbLine
 10
100.781064
 20
282.387067
 30
0.0
 11
98.281064
 21
287.387067
 31
0.0
  0
LINE
  5
4F8
100
AcDbEntity
  8
TABELLA
  6
CONTINUOUS
100
AcDbLine
 10
100.781064
 20
282.387067
 30
0.0
 11
100.781064
 21
287.387067
 31
0.0
  0
LINE
  5
4F9
100
AcDbEntity
  8
TABELLA
  6
CONTINUOUS
100
AcDbLine
 10
100.781064
 20
287.387067
 30
0.0
 11
98.281064
 21
287.387067
 31
0.0
  0
LINE
  5
4FA
100
AcDbEntity
  8
TABELLA
  6
CONTINUOUS
100
AcDbLine
 10
200.782064
 20
141.387067
 30
0.0
 11
195.782064
 21
143.887067
 31
0.0
  0
LINE
  5
4FB
100
AcDbEntity
  8
TABELLA
  6
CONTINUOUS
100
AcDbLine
 10
200.782064
 20
143.887067
 30
0.0
 11
200.782064
 21
141.387067
 31
0.0
  0
LINE
  5
4FC
100
AcDbEntity
  8
TABELLA
  6
CONTINUOUS
100
AcDbLine
 10
191.781227
 20
165.387241
 30
0.0
 11
191.781227
 21
45.387241
 31
0.0
  0
LINE
  5
4FD
100
AcDbEntity
  8
TABELLA
  6
CONTINUOUS
100
AcDbLine
 10
195.782064
 20
5.387067
 30
0.0
 11
195.782064
 21
282.387067
 31
0.0
  0
TEXT
  5
4FE
100
AcDbEntity
  8
TABELLA
  6
CONTINUOUS
100
AcDbText
 10
147.267168
 20
42.484843
 30
0.0
 40
2.0
  1
Trattamento Termico
100
AcDbText
  0
TEXT
  5
4FF
100
AcDbEntity
  8
TABELLA
  6
CONTINUOUS
100
AcDbText
 10
161.83968
 20
32.089683
 30
0.0
 40
2.0
  1
Scala
100
AcDbText
  0
TEXT
  5
500
100
AcDbEntity
  8
TABELLA
  6
CONTINUOUS
100
AcDbText
 10
162.070991
 20
12.223377
 30
0.0
 40
2.0
  1
Data
100
AcDbText
  0
LINE
  5
501
100
AcDbEntity
  8
TABELLA
  6
CONTINUOUS
100
AcDbLine
 10
125.782064
 20
35.387067
 30
0.0
 11
195.782064
 21
35.387067
 31
0.0
  0
LINE
  5
502
100
AcDbEntity
  8
TABELLA
  6
CONTINUOUS
100
AcDbLine
 10
125.782064
 20
25.387067
 30
0.0
 11
195.782064
 21
25.387067
 31
0.0
  0
LINE
  5
503
100
AcDbEntity
  8
TABELLA
  6
CONTINUOUS
100
AcDbLine
 10
120.666552
 20
15.457427
 30
0.0
 11
195.782064
 21
15.387067
 31
0.0
  0
TEXT
  5
504
100
AcDbEntity
  8
TABELLA
  6
CONTINUOUS
100
AcDbText
 10
116.965597
 20
42.484843
 30
0.0
 40
2.0
  1
Dimensioni di prelievo
100
AcDbText
  0
TEXT
  5
505
100
AcDbEntity
  8
TABELLA
  6
CONTINUOUS
100
AcDbText
 10
126.911915
 20
32.089683
 30
0.0
 40
2.0
  1
Approvato da - data
100
AcDbText
  0
TEXT
  5
506
100
AcDbEntity
  8
TABELLA
  6
CONTINUOUS
100
AcDbText
 10
121.823101
 20
22.387534
 30
0.0
 40
2.0
  1
Particolare
100
AcDbText
  0
LINE
  5
507
100
AcDbEntity
  8
TABELLA
  6
CONTINUOUS
100
AcDbLine
 10
120.782064
 20
15.387067
 30
0.0
 11
120.782064
 21
5.387067
 31
0.0
  0
TEXT
  5
508
100
AcDbEntity
  8
TABELLA
  6
CONTINUOUS
100
AcDbText
 10
116.708833
 20
0.138446
 30
0.0
 40
4.0
  1
3
100
AcDbText
  0
LINE
  5
509
100
AcDbEntity
  8
TABELLA
  6
CONTINUOUS
100
AcDbLine
 10
116.711078
 20
19.853491
 30
0.0
 11
115.706968
 21
22.612261
 31
0.0
1001
ACAD
1000
ASC_BOUNDS
1002
{
1070
    19
1002
}
  0
LINE
  5
50A
100
AcDbEntity
  8
TABELLA
  6
CONTINUOUS
100
AcDbLine
 10
113.654847
 20
11.456564
 30
0.0
 11
116.711078
 21
19.853491
 31
0.0
1001
ACAD
1000
ASC_BOUNDS
1002
{
1070
    19
1002
}
  0
LINE
  5
50B
100
AcDbEntity
  8
TABELLA
  6
CONTINUOUS
100
AcDbLine
 10
114.355055
 20
10.456564
 30
0.0
 11
117.775256
 21
19.853491
 31
0.0
1001
ACAD
1000
ASC_BOUNDS
1002
{
1070
    19
1002
}
  0
TEXT
  5
50C
100
AcDbEntity
  8
TABELLA
  6
CONTINUOUS
100
AcDbText
 10
101.930465
 20
32.089683
 30
0.0
 40
2.0
  1
Controllato da
100
AcDbText
  0
LINE
  5
50D
100
AcDbEntity
  8
TABELLA
  6
CONTINUOUS
100
AcDbLine
 10
115.782064
 20
35.387067
 30
0.0
 11
115.782064
 21
45.387067
 31
0.0
  0
LINE
  5
50E
100
AcDbEntity
  8
TABELLA
  6
CONTINUOUS
100
AcDbLine
 10
125.782064
 20
35.387067
 30
0.0
 11
125.782064
 21
25.387067
 31
0.0
  0
TEXT
  5
50F
100
AcDbEntity
  8
TABELLA
  6
CONTINUOUS
100
AcDbText
 10
121.591791
 20
12.223377
 30
0.0
 40
2.0
  1
Disegno
100
AcDbText
  0
LINE
  5
510
100
AcDbEntity
  8
TABELLA
  6
CONTINUOUS
100
AcDbLine
 10
117.775256
 20
19.853491
 30
0.0
 11
116.407176
 21
23.612261
 31
0.0
1001
ACAD
1000
ASC_BOUNDS
1002
{
1070
    19
1002
}
  0
LINE
  5
511
100
AcDbEntity
  8
TABELLA
  6
CONTINUOUS
100
AcDbLine
 10
120.782064
 20
25.387067
 30
0.0
 11
120.782064
 21
15.387067
 31
0.0
  0
LINE
  5
512
100
AcDbEntity
  8
TABELLA
  6
CONTINUOUS
100
AcDbLine
 10
160.782064
 20
15.387067
 30
0.0
 11
160.782064
 21
5.387067
 31
0.0
  0
LINE
  5
513
100
AcDbEntity
  8
TABELLA
  6
CONTINUOUS
100
AcDbLine
 10
134.114064
 20
5.387067
 30
0.0
 11
134.114064
 21
0.387067
 31
0.0
  0
TEXT
  5
514
100
AcDbEntity
  8
TABELLA
  6
CONTINUOUS
100
AcDbText
 10
150.41737
 20
0.138446
 30
0.0
 40
4.0
  1
2
100
AcDbText
  0
LINE
  5
515
100
AcDbEntity
  8
TABELLA
  6
CONTINUOUS
100
AcDbLine
 10
145.782064
 20
35.387067
 30
0.0
 11
145.782064
 21
45.387067
 31
0.0
  0
LINE
  5
516
100
AcDbEntity
  8
TABELLA
  6
CONTINUOUS
100
AcDbLine
 10
160.782064
 20
35.387067
 30
0.0
 11
160.782064
 21
25.387067
 31
0.0
  0
TEXT
  5
517
100
AcDbEntity
  8
TABELLA
  6
CONTINUOUS
100
AcDbText
 10
197.026704
 20
51.259863
 30
0.0
 40
4.0
  1
B
100
AcDbText
  0
TEXT
  5
518
100
AcDbEntity
  8
TABELLA
  6
CONTINUOUS
100
AcDbText
 10
195.001816
 20
46.303578
 30
0.0
 40
2.0
  1
N° rev.
 50
90.0
100
AcDbText
  0
LINE
  5
519
100
AcDbEntity
  8
TABELLA
  6
CONTINUOUS
100
AcDbLine
 10
176.747411
 20
30.474182
 30
0.0
 11
194.673913
 21
30.474182
 31
0.0
  0
LINE
  5
51A
100
AcDbEntity
  8
TABELLA
  6
CONTINUOUS
100
AcDbLine
 10
180.782064
 20
15.387067
 30
0.0
 11
180.782064
 21
5.387067
 31
0.0
  0
LINE
  5
51B
100
AcDbEntity
  8
TABELLA
  6
CONTINUOUS
100
AcDbLine
 10
167.447064
 20
5.387067
 30
0.0
 11
167.447064
 21
0.387067
 31
0.0
  0
TEXT
  5
51C
100
AcDbEntity
  8
TABELLA
  6
CONTINUOUS
100
AcDbText
 10
184.542061
 20
0.138446
 30
0.0
 40
4.0
  1
1
100
AcDbText
  0
LINE
  5
51D
100
AcDbEntity
  8
TABELLA
  6
CONTINUOUS
100
AcDbLine
 10
176.747411
 20
31.974182
 30
0.0
 11
182.656258
 21
33.016071
 31
0.0
  0
LINE
  5
51E
100
AcDbEntity
  8
TABELLA
  6
CONTINUOUS
100
AcDbLine
 10
176.747411
 20
28.974182
 30
0.0
 11
182.656258
 21
27.932293
 31
0.0
  0
LINE
  5
51F
100
AcDbEntity
  8
TABELLA
  6
CONTINUOUS
100
AcDbLine
 10
176.747411
 20
31.974182
 30
0.0
 11
176.747411
 21
28.974182
 31
0.0
  0
LINE
  5
520
100
AcDbEntity
  8
TABELLA
  6
CONTINUOUS
100
AcDbLine
 10
175.782064
 20
35.387067
 30
0.0
 11
175.782064
 21
25.387067
 31
0.0
  0
CIRCLE
  5
521
100
AcDbEntity
  8
TABELLA
  6
CONTINUOUS
100
AcDbCircle
 10
189.932065
 20
30.474182
 30
0.0
 40
1.5
  0
LINE
  5
522
100
AcDbEntity
  8
TABELLA
  6
CONTINUOUS
100
AcDbLine
 10
189.932065
 20
28.369782
 30
0.0
 11
189.932065
 21
32.578582
 31
0.0
  0
CIRCLE
  5
523
100
AcDbEntity
  8
TABELLA
  6
CONTINUOUS
100
AcDbCircle
 10
189.932065
 20
30.474182
 30
0.0
 40
2.54
  0
LINE
  5
524
100
AcDbEntity
  8
TABELLA
  6
CONTINUOUS
100
AcDbLine
 10
182.656258
 20
33.016071
 30
0.0
 11
182.656258
 21
27.932293
 31
0.0
  0
TEXT
  5
525
100
AcDbEntity
  8
TABELLA
  6
CONTINUOUS
100
AcDbText
 10
181.963625
 20
11.992375
 30
0.0
 40
2.0
  1
Formato
100
AcDbText
  0
LINE
  5
526
100
AcDbEntity
  8
TABELLA
  6
CONTINUOUS
100
AcDbLine
 10
187.827665
 20
30.474182
 30
0.0
 11
192.036465
 21
30.474182
 31
0.0
  0
LINE
  5
527
100
AcDbEntity
  8
TABELLA
  6
CONTINUOUS
100
AcDbLine
 10
195.782064
 20
5.387067
 30
0.0
 11
195.782064
 21
35.387067
 31
0.0
  0
TEXT
  5
528
100
AcDbEntity
  8
TABELLA
  6
CONTINUOUS
100
AcDbText
 10
197.026704
 20
14.685191
 30
0.0
 40
4.0
  1
A
100
AcDbText
  0
LINE
  5
529
100
AcDbEntity
  8
TABELLA
  6
CONTINUOUS
100
AcDbLine
 10
195.782064
 20
36.262067
 30
0.0
 11
200.782064
 21
36.262067
 31
0.0
  0
TEXT
  5
52A
100
AcDbEntity
  8
TABELLA
  6
CONTINUOUS
100
AcDbText
 10
195.209894
 20
130.984517
 30
0.0
 40
2.0
  1
Data
 50
90.0
100
AcDbText
  0
TEXT
  5
52B
100
AcDbEntity
  8
TABELLA
  6
CONTINUOUS
100
AcDbText
 10
195.209894
 20
56.278486
 30
0.0
 40
2.0
  1
Nota di revisione
 50
90.0
100
AcDbText
  0
LINE
  5
52C
100
AcDbEntity
  8
TABELLA
  6
CONTINUOUS
100
AcDbLine
 10
191.781227
 20
55.387241
 30
0.0
 11
195.782064
 21
55.387241
 31
0.0
  0
LINE
  5
52D
100
AcDbEntity
  8
TABELLA
  6
CONTINUOUS
100
AcDbLine
 10
191.781227
 20
130.387241
 30
0.0
 11
195.782064
 21
130.387241
 31
0.0
  0
LINE
  5
52E
100
AcDbEntity
  8
TABELLA
  6
CONTINUOUS
100
AcDbLine
 10
195.782064
 20
72.137067
 30
0.0
 11
200.782064
 21
72.137067
 31
0.0
  0
TEXT
  5
52F
100
AcDbEntity
  8
TABELLA
  6
CONTINUOUS
100
AcDbText
 10
197.442859
 20
87.459725
 30
0.0
 40
4.0
  1
C
100
AcDbText
  0
LINE
  5
530
100
AcDbEntity
  8
TABELLA
  6
CONTINUOUS
100
AcDbLine
 10
195.782064
 20
108.012067
 30
0.0
 11
200.782064
 21
108.012067
 31
0.0
  0
TEXT
  5
531
100
AcDbEntity
  8
TABELLA
  6
CONTINUOUS
100
AcDbText
 10
197.442859
 20
123.618776
 30
0.0
 40
4.0
  1
D
100
AcDbText
  0
TEXT
  5
532
100
AcDbEntity
  8
TABELLA
  6
CONTINUOUS
100
AcDbText
 10
116.708835
 20
283.250638
 30
0.0
 40
4.0
  1
3
100
AcDbText
  0
LINE
  5
533
100
AcDbEntity
  8
TABELLA
  6
CONTINUOUS
100
AcDbLine
 10
134.114064
 20
282.387067
 30
0.0
 11
134.114064
 21
287.387067
 31
0.0
  0
TEXT
  5
534
100
AcDbEntity
  8
TABELLA
  6
CONTINUOUS
100
AcDbText
 10
150.417372
 20
283.250638
 30
0.0
 40
4.0
  1
2
100
AcDbText
  0
TEXT
  5
535
100
AcDbEntity
  8
TABELLA
  6
CONTINUOUS
100
AcDbText
 10
197.026704
 20
230.800736
 30
0.0
 40
4.0
  1
G
100
AcDbText
  0
TEXT
  5
536
100
AcDbEntity
  8
TABELLA
  6
CONTINUOUS
100
AcDbText
 10
195.209894
 20
155.7956
 30
0.0
 40
2.0
  1
Control.
 50
90.0
100
AcDbText
  0
TEXT
  5
537
100
AcDbEntity
  8
TABELLA
  6
CONTINUOUS
100
AcDbText
 10
195.209894
 20
146.028502
 30
0.0
 40
2.0
  1
Firma
 50
90.0
100
AcDbText
  0
LINE
  5
538
100
AcDbEntity
  8
TABELLA
  6
CONTINUOUS
100
AcDbLine
 10
191.781227
 20
145.387241
 30
0.0
 11
195.782064
 21
145.387241
 31
0.0
  0
LINE
  5
539
100
AcDbEntity
  8
TABELLA
  6
CONTINUOUS
100
AcDbLine
 10
191.781227
 20
155.387241
 30
0.0
 11
195.782064
 21
155.387241
 31
0.0
  0
LINE
  5
53A
100
AcDbEntity
  8
TABELLA
  6
CONTINUOUS
100
AcDbLine
 10
191.781227
 20
165.387241
 30
0.0
 11
195.782064
 21
165.387241
 31
0.0
  0
LINE
  5
53B
100
AcDbEntity
  8
TABELLA
  6
CONTINUOUS
100
AcDbLine
 10
195.782064
 20
143.887067
 30
0.0
 11
200.782064
 21
146.387067
 31
0.0
  0
LINE
  5
53C
100
AcDbEntity
  8
TABELLA
  6
CONTINUOUS
100
AcDbLine
 10
195.782064
 20
143.887067
 30
0.0
 11
200.782064
 21
143.887067
 31
0.0
  0
LINE
  5
53D
100
AcDbEntity
  8
TABELLA
  6
CONTINUOUS
100
AcDbLine
 10
200.782064
 20
143.887067
 30
0.0
 11
200.782064
 21
146.387067
 31
0.0
  0
TEXT
  5
53E
100
AcDbEntity
  8
TABELLA
  6
CONTINUOUS
100
AcDbText
 10
197.442859
 20
158.319393
 30
0.0
 40
4.0
  1
E
100
AcDbText
  0
LINE
  5
53F
100
AcDbEntity
  8
TABELLA
  6
CONTINUOUS
100
AcDbLine
 10
195.782064
 20
179.762067
 30
0.0
 11
200.782064
 21
179.762067
 31
0.0
  0
TEXT
  5
540
100
AcDbEntity
  8
TABELLA
  6
CONTINUOUS
100
AcDbText
 10
197.859013
 20
195.309687
 30
0.0
 40
4.0
  1
F
100
AcDbText
  0
LINE
  5
541
100
AcDbEntity
  8
TABELLA
  6
CONTINUOUS
100
AcDbLine
 10
195.782064
 20
215.637067
 30
0.0
 11
200.782064
 21
215.637067
 31
0.0
  0
LINE
  5
542
100
AcDbEntity
  8
TABELLA
  6
CONTINUOUS
100
AcDbLine
 10
167.447064
 20
282.387067
 30
0.0
 11
167.447064
 21
287.387067
 31
0.0
  0
TEXT
  5
543
100
AcDbEntity
  8
TABELLA
  6
CONTINUOUS
100
AcDbText
 10
184.958217
 20
283.250638
 30
0.0
 40
4.0
  1
1
100
AcDbText
  0
LINE
  5
544
100
AcDbEntity
  8
TABELLA
  6
CONTINUOUS
100
AcDbLine
 10
195.782064
 20
282.387067
 30
0.0
 11
195.782064
 21
278.387067
 31
0.0
  0
LINE
  5
545
100
AcDbEntity
  8
TABELLA
  6
CONTINUOUS
100
AcDbLine
 10
195.782064
 20
251.512067
 30
0.0
 11
200.782064
 21
251.512067
 31
0.0
  0
TEXT
  5
546
100
AcDbEntity
  8
TABELLA
  6
CONTINUOUS
100
AcDbText
 10
197.026704
 20
268.206651
 30
0.0
 40
4.0
  1
H
100
AcDbText
  0
ENDBLK
  5
548
100
AcDbEntity
  8
QUOTE
100
AcDbBlockEnd
  0
BLOCK
  5
6B0
100
AcDbEntity
  8
0
100
AcDbBlockBegin
  2
*D2
 70
    65
 10
0.0
 20
0.0
 30
0.0
  3
*D2
  1

  0
LINE
  5
6B1
100
AcDbEntity
  8
0
  6
BYBLOCK
 62
     0
100
AcDbLine
 10
-1810.360793
 20
-1560.437116
 30
0.0
 11
-1810.360793
 21
-1578.617364
 31
0.0
  0
LINE
  5
6B2
100
AcDbEntity
  8
0
  6
BYBLOCK
 62
     0
100
AcDbLine
 10
-1870.360793
 20
-1560.437116
 30
0.0
 11
-1870.360793
 21
-1578.617364
 31
0.0
  0
LINE
  5
6B3
100
AcDbEntity
  8
0
  6
BYBLOCK
 62
     0
100
AcDbLine
 10
-1812.860793
 20
-1577.367364
 30
0.0
 11
-1867.860793
 21
-1577.367364
 31
0.0
  0
SOLID
  5
6B4
100
AcDbEntity
  8
0
  6
BYBLOCK
 62
     0
100
AcDbTrace
 10
-1812.860793
 20
-1576.950698
 30
0.0
 11
-1812.860793
 21
-1577.784031
 31
0.0
 12
-1810.360793
 22
-1577.367364
 32
0.0
 13
-1810.360793
 23
-1577.367364
 33
0.0
  0
SOLID
  5
6B5
100
AcDbEntity
  8
0
  6
BYBLOCK
 62
     0
100
AcDbTrace
 10
-1867.860793
 20
-1576.950698
 30
0.0
 11
-1867.860793
 21
-1577.784031
 31
0.0
 12
-1870.360793
 22
-1577.367364
 32
0.0
 13
-1870.360793
 23
-1577.367364
 33
0.0
  0
MTEXT
  5
6B6
100
AcDbEntity
  8
0
  6
BYBLOCK
 62
     0
100
AcDbMText
 10
-1840.360793
 20
-1573.544871
 30
0.0
 40
3.5
 41
0.0
 71
     5
 72
     1
  1
\A2;60{\H2.800000;\S+0.02^  0;}
  0
POINT
  5
6B7
100
AcDbEntity
  8
DEFPOINTS
  6
BYBLOCK
 62
     0
100
AcDbPoint
 10
-1810.360793
 20
-1559.812116
 30
0.0
  0
POINT
  5
6B8
100
AcDbEntity
  8
DEFPOINTS
  6
BYBLOCK
 62
     0
100
AcDbPoint
 10
-1870.360793
 20
-1559.812116
 30
0.0
  0
POINT
  5
6B9
100
AcDbEntity
  8
DEFPOINTS
  6
BYBLOCK
 62
     0
100
AcDbPoint
 10
-1870.360793
 20
-1577.367364
 30
0.0
  0
ENDBLK
  5
6BA
100
AcDbEntity
  8
0
100
AcDbBlockEnd
  0
BLOCK
  5
8A1
100
AcDbEntity
  8
0
100
AcDbBlockBegin
  2
*D3
 70
    65
 10
0.0
 20
0.0
 30
0.0
  3
*D3
  1

  0
LINE
  5
8A2
100
AcDbEntity
  8
0
  6
BYBLOCK
 62
     0
100
AcDbLine
 10
-1854.700485
 20
-1541.812116
 30
0.0
 11
-1841.24931
 21
-1541.812116
 31
0.0
  0
LINE
  5
8A3
100
AcDbEntity
  8
0
  6
BYBLOCK
 62
     0
100
AcDbLine
 10
-1854.700485
 20
-1559.812116
 30
0.0
 11
-1841.24931
 21
-1559.812116
 31
0.0
  0
LINE
  5
8A4
100
AcDbEntity
  8
0
  6
BYBLOCK
 62
     0
100
AcDbLine
 10
-1842.49931
 20
-1544.312116
 30
0.0
 11
-1842.49931
 21
-1557.312116
 31
0.0
  0
SOLID
  5
8A5
100
AcDbEntity
  8
0
  6
BYBLOCK
 62
     0
100
AcDbTrace
 10
-1842.915976
 20
-1544.312116
 30
0.0
 11
-1842.082643
 21
-1544.312116
 31
0.0
 12
-1842.49931
 22
-1541.812116
 32
0.0
 13
-1842.49931
 23
-1541.812116
 33
0.0
  0
SOLID
  5
8A6
100
AcDbEntity
  8
0
  6
BYBLOCK
 62
     0
100
AcDbTrace
 10
-1842.915976
 20
-1557.312116
 30
0.0
 11
-1842.082643
 21
-1557.312116
 31
0.0
 12
-1842.49931
 22
-1559.812116
 32
0.0
 13
-1842.49931
 23
-1559.812116
 33
0.0
  0
MTEXT
  5
8A7
100
AcDbEntity
  8
0
  6
BYBLOCK
 62
     0
100
AcDbMText
 10
-1844.87431
 20
-1550.812116
 30
0.0
 40
3.5
 41
0.0
 71
     5
 72
     1
  1
\A2;18{\H2.800000;±0.1}
 11
0.0
 21
1.0
 31
0.0
  0
POINT
  5
8A8
100
AcDbEntity
  8
DEFPOINTS
  6
BYBLOCK
 62
     0
100
AcDbPoint
 10
-1855.325485
 20
-1541.812116
 30
0.0
  0
POINT
  5
8A9
100
AcDbEntity
  8
DEFPOINTS
  6
BYBLOCK
 62
     0
100
AcDbPoint
 10
-1855.325485
 20
-1559.812116
 30
0.0
  0
POINT
  5
8AA
100
AcDbEntity
  8
DEFPOINTS
  6
BYBLOCK
 62
     0
100
AcDbPoint
 10
-1842.49931
 20
-1559.812116
 30
0.0
  0
ENDBLK
  5
8AB
100
AcDbEntity
  8
0
100
AcDbBlockEnd
  0
BLOCK
  5
8DD
100
AcDbEntity
  8
0
100
AcDbBlockBegin
  2
*D4
 70
    65
 10
0.0
 20
0.0
 30
0.0
  3
*D4
  1

  0
LINE
  5
8DE
100
AcDbEntity
  8
0
  6
BYBLOCK
 62
     0
100
AcDbLine
 10
-1773.613696
 20
-1571.553037
 30
0.0
 11
-1773.613696
 21
-1580.328059
 31
0.0
  0
LINE
  5
8DF
100
AcDbEntity
  8
0
  6
BYBLOCK
 62
     0
100
AcDbLine
 10
-1813.613696
 20
-1571.553037
 30
0.0
 11
-1813.613696
 21
-1580.328059
 31
0.0
  0
LINE
  5
8E0
100
AcDbEntity
  8
0
  6
BYBLOCK
 62
     0
100
AcDbLine
 10
-1776.113696
 20
-1579.078059
 30
0.0
 11
-1811.113696
 21
-1579.078059
 31
0.0
  0
SOLID
  5
8E1
100
AcDbEntity
  8
0
  6
BYBLOCK
 62
     0
100
AcDbTrace
 10
-1776.113696
 20
-1578.661392
 30
0.0
 11
-1776.113696
 21
-1579.494726
 31
0.0
 12
-1773.613696
 22
-1579.078059
 32
0.0
 13
-1773.613696
 23
-1579.078059
 33
0.0
  0
SOLID
  5
8E2
100
AcDbEntity
  8
0
  6
BYBLOCK
 62
     0
100
AcDbTrace
 10
-1811.113696
 20
-1578.661392
 30
0.0
 11
-1811.113696
 21
-1579.494726
 31
0.0
 12
-1813.613696
 22
-1579.078059
 32
0.0
 13
-1813.613696
 23
-1579.078059
 33
0.0
  0
MTEXT
  5
8E3
100
AcDbEntity
  8
0
  6
BYBLOCK
 62
     0
100
AcDbMText
 10
-1793.613696
 20
-1576.703059
 30
0.0
 40
3.5
 41
0.0
 71
     5
 72
     1
  1
\A1;{835}
  0
POINT
  5
8E4
100
AcDbEntity
  8
DEFPOINTS
  6
BYBLOCK
 62
     0
100
AcDbPoint
 10
-1773.613696
 20
-1570.928037
 30
0.0
  0
POINT
  5
8E5
100
AcDbEntity
  8
DEFPOINTS
  6
BYBLOCK
 62
     0
100
AcDbPoint
 10
-1813.613696
 20
-1570.928037
 30
0.0
  0
POINT
  5
8E6
100
AcDbEntity
  8
DEFPOINTS
  6
BYBLOCK
 62
     0
100
AcDbPoint
 10
-1813.613696
 20
-1579.078059
 30
0.0
  0
ENDBLK
  5
8E7
100
AcDbEntity
  8
0
100
AcDbBlockEnd
  0
BLOCK
  5
91A
100
AcDbEntity
  8
0
100
AcDbBlockBegin
  2
*D5
 70
    65
 10
0.0
 20
0.0
 30
0.0
  3
*D5
  1

  0
LINE
  5
91B
100
AcDbEntity
  8
0
  6
BYBLOCK
 62
     0
100
AcDbLine
 10
-1813.613696
 20
-1540.303037
 30
0.0
 11
-1813.613696
 21
-1531.993672
 31
0.0
  0
LINE
  5
91C
100
AcDbEntity
  8
0
  6
BYBLOCK
 62
     0
100
AcDbLine
 10
-1803.613696
 20
-1548.303037
 30
0.0
 11
-1803.613696
 21
-1531.993672
 31
0.0
  0
LINE
  5
91D
100
AcDbEntity
  8
0
  6
BYBLOCK
 62
     0
100
AcDbLine
 10
-1816.113696
 20
-1533.243672
 30
0.0
 11
-1818.613696
 21
-1533.243672
 31
0.0
  0
LINE
  5
91E
100
AcDbEntity
  8
0
  6
BYBLOCK
 62
     0
100
AcDbLine
 10
-1801.113696
 20
-1533.243672
 30
0.0
 11
-1798.613696
 21
-1533.243672
 31
0.0
  0
SOLID
  5
91F
100
AcDbEntity
  8
0
  6
BYBLOCK
 62
     0
100
AcDbTrace
 10
-1816.113696
 20
-1532.827005
 30
0.0
 11
-1816.113696
 21
-1533.660339
 31
0.0
 12
-1813.613696
 22
-1533.243672
 32
0.0
 13
-1813.613696
 23
-1533.243672
 33
0.0
  0
SOLID
  5
920
100
AcDbEntity
  8
0
  6
BYBLOCK
 62
     0
100
AcDbTrace
 10
-1801.113696
 20
-1532.827005
 30
0.0
 11
-1801.113696
 21
-1533.660339
 31
0.0
 12
-1803.613696
 22
-1533.243672
 32
0.0
 13
-1803.613696
 23
-1533.243672
 33
0.0
  0
MTEXT
  5
921
100
AcDbEntity
  8
0
  6
BYBLOCK
 62
     0
100
AcDbMText
 10
-1808.613696
 20
-1530.868672
 30
0.0
 40
3.5
 41
0.0
 71
     5
 72
     1
  1
\A1;{50}
  0
POINT
  5
922
100
AcDbEntity
  8
DEFPOINTS
  6
BYBLOCK
 62
     0
100
AcDbPoint
 10
-1813.613696
 20
-1540.928037
 30
0.0
  0
POINT
  5
923
100
AcDbEntity
  8
DEFPOINTS
  6
BYBLOCK
 62
     0
100
AcDbPoint
 10
-1803.613696
 20
-1548.928037
 30
0.0
  0
POINT
  5
924
100
AcDbEntity
  8
DEFPOINTS
  6
BYBLOCK
 62
     0
100
AcDbPoint
 10
-1803.613696
 20
-1533.243672
 30
0.0
  0
ENDBLK
  5
925
100
AcDbEntity
  8
0
100
AcDbBlockEnd
  0
BLOCK
  5
93D
100
AcDbEntity
  8
0
100
AcDbBlockBegin
  2
*D6
 70
    65
 10
0.0
 20
0.0
 30
0.0
  3
*D6
  1

  0
LINE
  5
93E
100
AcDbEntity
  8
0
  6
BYBLOCK
 62
     0
100
AcDbLine
 10
-1814.238696
 20
-1540.928037
 30
0.0
 11
-1821.544743
 21
-1540.928037
 31
0.0
  0
LINE
  5
93F
100
AcDbEntity
  8
0
  6
BYBLOCK
 62
     0
100
AcDbLine
 10
-1804.238696
 20
-1548.928037
 30
0.0
 11
-1821.544743
 21
-1548.928037
 31
0.0
  0
LINE
  5
940
100
AcDbEntity
  8
0
  6
BYBLOCK
 62
     0
100
AcDbLine
 10
-1820.294743
 20
-1538.428037
 30
0.0
 11
-1820.294743
 21
-1535.928037
 31
0.0
  0
LINE
  5
941
100
AcDbEntity
  8
0
  6
BYBLOCK
 62
     0
100
AcDbLine
 10
-1820.294743
 20
-1551.428037
 30
0.0
 11
-1820.294743
 21
-1553.928037
 31
0.0
  0
SOLID
  5
942
100
AcDbEntity
  8
0
  6
BYBLOCK
 62
     0
100
AcDbTrace
 10
-1820.71141
 20
-1538.428037
 30
0.0
 11
-1819.878076
 21
-1538.428037
 31
0.0
 12
-1820.294743
 22
-1540.928037
 32
0.0
 13
-1820.294743
 23
-1540.928037
 33
0.0
  0
SOLID
  5
943
100
AcDbEntity
  8
0
  6
BYBLOCK
 62
     0
100
AcDbTrace
 10
-1820.71141
 20
-1551.428037
 30
0.0
 11
-1819.878076
 21
-1551.428037
 31
0.0
 12
-1820.294743
 22
-1548.928037
 32
0.0
 13
-1820.294743
 23
-1548.928037
 33
0.0
  0
MTEXT
  5
944
100
AcDbEntity
  8
0
  6
BYBLOCK
 62
     0
100
AcDbMText
 10
-1822.669743
 20
-1544.928037
 30
0.0
 40
3.5
 41
0.0
 71
     5
 72
     1
  1
\A1;{20}
 11
0.0
 21
1.0
 31
0.0
  0
POINT
  5
945
100
AcDbEntity
  8
DEFPOINTS
  6
BYBLOCK
 62
     0
100
AcDbPoint
 10
-1813.613696
 20
-1540.928037
 30
0.0
  0
POINT
  5
946
100
AcDbEntity
  8
DEFPOINTS
  6
BYBLOCK
 62
     0
100
AcDbPoint
 10
-1803.613696
 20
-1548.928037
 30
0.0
  0
POINT
  5
947
100
AcDbEntity
  8
DEFPOINTS
  6
BYBLOCK
 62
     0
100
AcDbPoint
 10
-1820.294743
 20
-1548.928037
 30
0.0
  0
ENDBLK
  5
948
100
AcDbEntity
  8
0
100
AcDbBlockEnd
  0
BLOCK
  5
DA4
100
AcDbEntity
  8
0
100
AcDbBlockBegin
  2
*D7
 70
    65
 10
0.0
 20
0.0
 30
0.0
  3
*D7
  1

  0
LINE
  5
DA5
100
AcDbEntity
  8
0
  6
BYBLOCK
 62
     0
100
AcDbLine
 10
-1772.988696
 20
-1570.928037
 30
0.0
 11
-1763.417836
 21
-1570.928037
 31
0.0
  0
ARC
  5
DA6
100
AcDbEntity
  8
0
  6
BYBLOCK
 62
     0
100
AcDbCircle
 10
-1773.613696
 20
-1570.928037
 30
0.0
 40
8.94586
100
AcDbArc
 50
16.06438
 51
73.93562
  0
SOLID
  5
DA7
100
AcDbEntity
  8
0
  6
BYBLOCK
 62
     0
100
AcDbTrace
 10
-1764.60458
 20
-1568.394342
 30
0.0
 11
-1765.429738
 21
-1568.510783
 31
0.0
 12
-1764.667836
 22
-1570.928037
 32
0.0
 13
-1764.667836
 23
-1570.928037
 33
0.0
  0
SOLID
  5
DA8
100
AcDbEntity
  8
0
  6
BYBLOCK
 62
     0
100
AcDbTrace
 10
-1771.196442
 20
-1562.744079
 30
0.0
 11
-1771.080001
 21
-1561.918921
 31
0.0
 12
-1773.613696
 22
-1561.982177
 32
0.0
 13
-1773.613696
 23
-1561.982177
 33
0.0
  0
MTEXT
  5
DA9
100
AcDbEntity
  8
0
  6
BYBLOCK
 62
     0
100
AcDbMText
 10
-1763.787815
 20
-1562.774331
 30
0.0
 40
3.5
 41
0.0
 71
     5
 72
     1
  1
\A2;90°{\H2.800000;\S-0°2'^  0°0';}
 11
0.638587
 21
-0.76955
 31
0.0
  0
POINT
  5
DAA
100
AcDbEntity
  8
DEFPOINTS
  6
BYBLOCK
 62
     0
100
AcDbPoint
 10
-1769.140766
 20
-1563.180695
 30
0.0
  0
POINT
  5
DAB
100
AcDbEntity
  8
DEFPOINTS
  6
BYBLOCK
 62
     0
100
AcDbPoint
 10
-1773.613696
 20
-1570.928037
 30
0.0
  0
POINT
  5
DAC
100
AcDbEntity
  8
DEFPOINTS
  6
BYBLOCK
 62
     0
100
AcDbPoint
 10
-1813.613696
 20
-1570.928037
 30
0.0
  0
POINT
  5
DAD
100
AcDbEntity
  8
DEFPOINTS
  6
BYBLOCK
 62
     0
100
AcDbPoint
 10
-1773.613696
 20
-1570.928037
 30
0.0
  0
POINT
  5
DAE
100
AcDbEntity
  8
DEFPOINTS
  6
BYBLOCK
 62
     0
100
AcDbPoint
 10
-1773.613696
 20
-1540.928037
 30
0.0
  0
ENDBLK
  5
DAF
100
AcDbEntity
  8
0
100
AcDbBlockEnd
  0
BLOCK
  5
DC9
100
AcDbEntity
  8
0
100
AcDbBlockBegin
  2
*D8
 70
    65
 10
0.0
 20
0.0
 30
0.0
  3
*D8
  1

  0
LINE
  5
DCA
100
AcDbEntity
  8
0
  6
BYBLOCK
 62
     0
100
AcDbLine
 10
-1814.238696
 20
-1570.928037
 30
0.0
 11
-1822.346527
 21
-1570.928037
 31
0.0
  0
ARC
  5
DCB
100
AcDbEntity
  8
0
  6
BYBLOCK
 62
     0
100
AcDbCircle
 10
-1813.613696
 20
-1570.928037
 30
0.0
 40
7.482831
100
AcDbArc
 50
109.23258
 51
160.76742
  0
SOLID
  5
DCC
100
AcDbEntity
  8
0
  6
BYBLOCK
 62
     0
100
AcDbTrace
 10
-1816.148171
 20
-1563.452016
 30
0.0
 11
-1816.008963
 21
-1564.27364
 31
0.0
 12
-1813.613696
 22
-1563.445206
 32
0.0
 13
-1813.613696
 23
-1563.445206
 33
0.0
  0
SOLID
  5
DCD
100
AcDbEntity
  8
0
  6
BYBLOCK
 62
     0
100
AcDbTrace
 10
-1820.268092
 20
-1568.532769
 30
0.0
 11
-1821.089716
 21
-1568.393562
 31
0.0
 12
-1821.096527
 22
-1570.928037
 32
0.0
 13
-1821.096527
 23
-1570.928037
 33
0.0
  0
MTEXT
  5
DCE
100
AcDbEntity
  8
0
  6
BYBLOCK
 62
     0
100
AcDbMText
 10
-1822.647905
 20
-1564.131462
 30
0.0
 40
3.5
 41
0.0
 71
     5
 72
     1
  1
\A2;90°{\H2.800000;\S-0°2'^  0°0';}
 11
0.601184
 21
0.799111
 31
0.0
  0
POINT
  5
DCF
100
AcDbEntity
  8
DEFPOINTS
  6
BYBLOCK
 62
     0
100
AcDbPoint
 10
-1817.355111
 20
-1564.447715
 30
0.0
  0
POINT
  5
DD0
100
AcDbEntity
  8
DEFPOINTS
  6
BYBLOCK
 62
     0
100
AcDbPoint
 10
-1813.613696
 20
-1570.928037
 30
0.0
  0
POINT
  5
DD1
100
AcDbEntity
  8
DEFPOINTS
  6
BYBLOCK
 62
     0
100
AcDbPoint
 10
-1813.613696
 20
-1570.928037
 30
0.0
  0
POINT
  5
DD2
100
AcDbEntity
  8
DEFPOINTS
  6
BYBLOCK
 62
     0
100
AcDbPoint
 10
-1773.613696
 20
-1570.928037
 30
0.0
  0
POINT
  5
DD3
100
AcDbEntity
  8
DEFPOINTS
  6
BYBLOCK
 62
     0
100
AcDbPoint
 10
-1813.613696
 20
-1540.928037
 30
0.0
  0
ENDBLK
  5
DD4
100
AcDbEntity
  8
0
100
AcDbBlockEnd
  0
BLOCK
  5
B52
100
AcDbEntity
  8
0
100
AcDbBlockBegin
  2
*D9
 70
    65
 10
0.0
 20
0.0
 30
0.0
  3
*D9
  1

  0
LINE
  5
B53
100
AcDbEntity
  8
0
  6
BYBLOCK
 62
     0
100
AcDbLine
 10
-1610.807834
 20
-1559.187116
 30
0.0
 11
-1610.807834
 21
-1576.563847
 31
0.0
  0
LINE
  5
B54
100
AcDbEntity
  8
0
  6
BYBLOCK
 62
     0
100
AcDbLine
 10
-1671.307834
 20
-1559.187116
 30
0.0
 11
-1671.307834
 21
-1576.563847
 31
0.0
  0
LINE
  5
B55
100
AcDbEntity
  8
0
  6
BYBLOCK
 62
     0
100
AcDbLine
 10
-1613.307834
 20
-1575.313847
 30
0.0
 11
-1668.807834
 21
-1575.313847
 31
0.0
  0
SOLID
  5
B56
100
AcDbEntity
  8
0
  6
BYBLOCK
 62
     0
100
AcDbTrace
 10
-1613.307834
 20
-1574.89718
 30
0.0
 11
-1613.307834
 21
-1575.730514
 31
0.0
 12
-1610.807834
 22
-1575.313847
 32
0.0
 13
-1610.807834
 23
-1575.313847
 33
0.0
  0
SOLID
  5
B57
100
AcDbEntity
  8
0
  6
BYBLOCK
 62
     0
100
AcDbTrace
 10
-1668.807834
 20
-1574.89718
 30
0.0
 11
-1668.807834
 21
-1575.730514
 31
0.0
 12
-1671.307834
 22
-1575.313847
 32
0.0
 13
-1671.307834
 23
-1575.313847
 33
0.0
  0
MTEXT
  5
B58
100
AcDbEntity
  8
0
  6
BYBLOCK
 62
     0
100
AcDbMText
 10
-1641.057834
 20
-1571.561078
 30
0.0
 40
3.5
 41
0.0
 71
     5
 72
     1
  1
\A2;60.5{\H2.800000;\S+0.1^  0;}
  0
POINT
  5
B59
100
AcDbEntity
  8
DEFPOINTS
  6
BYBLOCK
 62
     0
100
AcDbPoint
 10
-1610.807834
 20
-1558.562116
 30
0.0
  0
POINT
  5
B5A
100
AcDbEntity
  8
DEFPOINTS
  6
BYBLOCK
 62
     0
100
AcDbPoint
 10
-1671.307834
 20
-1558.562116
 30
0.0
  0
POINT
  5
B5B
100
AcDbEntity
  8
DEFPOINTS
  6
BYBLOCK
 62
     0
100
AcDbPoint
 10
-1671.307834
 20
-1575.313847
 30
0.0
  0
ENDBLK
  5
B5C
100
AcDbEntity
  8
0
100
AcDbBlockEnd
  0
BLOCK
  5
B68
100
AcDbEntity
  8
0
100
AcDbBlockBegin
  2
*D10
 70
    65
 10
0.0
 20
0.0
 30
0.0
  3
*D10
  1

  0
LINE
  5
B69
100
AcDbEntity
  8
0
  6
BYBLOCK
 62
     0
100
AcDbLine
 10
-1611.432834
 20
-1541.812116
 30
0.0
 11
-1593.121363
 21
-1541.812116
 31
0.0
  0
LINE
  5
B6A
100
AcDbEntity
  8
0
  6
BYBLOCK
 62
     0
100
AcDbLine
 10
-1611.682834
 20
-1560.062116
 30
0.0
 11
-1593.121363
 21
-1560.062116
 31
0.0
  0
LINE
  5
B6B
100
AcDbEntity
  8
0
  6
BYBLOCK
 62
     0
100
AcDbLine
 10
-1594.371363
 20
-1544.312116
 30
0.0
 11
-1594.371363
 21
-1557.562116
 31
0.0
  0
LINE
  5
B6C
100
AcDbEntity
  8
0
  6
BYBLOCK
 62
     0
100
AcDbLine
 10
-1594.371363
 20
-1560.062116
 30
0.0
 11
-1594.371363
 21
-1580.829116
 31
0.0
  0
SOLID
  5
B6D
100
AcDbEntity
  8
0
  6
BYBLOCK
 62
     0
100
AcDbTrace
 10
-1594.78803
 20
-1544.312116
 30
0.0
 11
-1593.954697
 21
-1544.312116
 31
0.0
 12
-1594.371363
 22
-1541.812116
 32
0.0
 13
-1594.371363
 23
-1541.812116
 33
0.0
  0
SOLID
  5
B6E
100
AcDbEntity
  8
0
  6
BYBLOCK
 62
     0
100
AcDbTrace
 10
-1594.78803
 20
-1557.562116
 30
0.0
 11
-1593.954697
 21
-1557.562116
 31
0.0
 12
-1594.371363
 22
-1560.062116
 32
0.0
 13
-1594.371363
 23
-1560.062116
 33
0.0
  0
MTEXT
  5
B6F
100
AcDbEntity
  8
0
  6
BYBLOCK
 62
     0
100
AcDbMText
 10
-1596.746363
 20
-1571.695616
 30
0.0
 40
3.5
 41
0.0
 71
     5
 72
     1
  1
\A2;18.25{\H2.800000;±0.1}
 11
0.0
 21
1.0
 31
0.0
  0
POINT
  5
B70
100
AcDbEntity
  8
DEFPOINTS
  6
BYBLOCK
 62
     0
100
AcDbPoint
 10
-1612.057834
 20
-1541.812116
 30
0.0
  0
POINT
  5
B71
100
AcDbEntity
  8
DEFPOINTS
  6
BYBLOCK
 62
     0
100
AcDbPoint
 10
-1612.307834
 20
-1560.062116
 30
0.0
  0
POINT
  5
B72
100
AcDbEntity
  8
DEFPOINTS
  6
BYBLOCK
 62
     0
100
AcDbPoint
 10
-1594.371363
 20
-1560.062116
 30
0.0
  0
ENDBLK
  5
B73
100
AcDbEntity
  8
0
100
AcDbBlockEnd
  0
BLOCK
  5
CCD
100
AcDbEntity
  8
0
100
AcDbBlockBegin
  2
*D11
 70
    65
 10
0.0
 20
0.0
 30
0.0
  3
*D11
  1

  0
LINE
  5
CCE
100
AcDbEntity
  8
0
  6
BYBLOCK
 62
     0
100
AcDbLine
 10
-1773.613696
 20
-1571.553037
 30
0.0
 11
-1773.613696
 21
-1580.328059
 31
0.0
  0
LINE
  5
CCF
100
AcDbEntity
  8
0
  6
BYBLOCK
 62
     0
100
AcDbLine
 10
-1813.613696
 20
-1571.553037
 30
0.0
 11
-1813.613696
 21
-1580.328059
 31
0.0
  0
LINE
  5
CD0
100
AcDbEntity
  8
0
  6
BYBLOCK
 62
     0
100
AcDbLine
 10
-1776.113696
 20
-1579.078059
 30
0.0
 11
-1811.113696
 21
-1579.078059
 31
0.0
  0
SOLID
  5
CD1
100
AcDbEntity
  8
0
  6
BYBLOCK
 62
     0
100
AcDbTrace
 10
-1776.113696
 20
-1578.661392
 30
0.0
 11
-1776.113696
 21
-1579.494726
 31
0.0
 12
-1773.613696
 22
-1579.078059
 32
0.0
 13
-1773.613696
 23
-1579.078059
 33
0.0
  0
SOLID
  5
CD2
100
AcDbEntity
  8
0
  6
BYBLOCK
 62
     0
100
AcDbTrace
 10
-1811.113696
 20
-1578.661392
 30
0.0
 11
-1811.113696
 21
-1579.494726
 31
0.0
 12
-1813.613696
 22
-1579.078059
 32
0.0
 13
-1813.613696
 23
-1579.078059
 33
0.0
  0
MTEXT
  5
CD3
100
AcDbEntity
  8
0
  6
BYBLOCK
 62
     0
100
AcDbMText
 10
-1793.613696
 20
-1576.703059
 30
0.0
 40
3.5
 41
0.0
 71
     5
 72
     1
  1
\A1;{835}
  0
POINT
  5
CD4
100
AcDbEntity
  8
DEFPOINTS
  6
BYBLOCK
 62
     0
100
AcDbPoint
 10
-1773.613696
 20
-1570.928037
 30
0.0
  0
POINT
  5
CD5
100
AcDbEntity
  8
DEFPOINTS
  6
BYBLOCK
 62
     0
100
AcDbPoint
 10
-1813.613696
 20
-1570.928037
 30
0.0
  0
POINT
  5
CD6
100
AcDbEntity
  8
DEFPOINTS
  6
BYBLOCK
 62
     0
100
AcDbPoint
 10
-1813.613696
 20
-1579.078059
 30
0.0
  0
ENDBLK
  5
CD7
100
AcDbEntity
  8
0
100
AcDbBlockEnd
  0
BLOCK
  5
D58
100
AcDbEntity
  8
0
100
AcDbBlockBegin
  2
*D12
 70
    65
 10
0.0
 20
0.0
 30
0.0
  3
*D12
  1

  0
LINE
  5
D59
100
AcDbEntity
  8
0
  6
BYBLOCK
 62
     0
100
AcDbLine
 10
-1518.998948
 20
-1594.604078
 30
0.0
 11
-1513.012458
 21
-1594.604078
 31
0.0
  0
ARC
  5
D5A
100
AcDbEntity
  8
0
  6
BYBLOCK
 62
     0
100
AcDbCircle
 10
-1519.623948
 20
-1594.604078
 30
0.0
 40
5.36149
100
AcDbArc
 50
26.964502
 51
63.035498
  0
SOLID
  5
D5B
100
AcDbEntity
  8
0
  6
BYBLOCK
 62
     0
100
AcDbTrace
 10
-1514.440134
 20
-1592.075829
 30
0.0
 11
-1515.250502
 21
-1592.270115
 31
0.0
 12
-1514.262458
 22
-1594.604078
 32
0.0
 13
-1514.262458
 23
-1594.604078
 33
0.0
  0
SOLID
  5
D5C
100
AcDbEntity
  8
0
  6
BYBLOCK
 62
     0
100
AcDbTrace
 10
-1517.289986
 20
-1590.230632
 30
0.0
 11
-1517.095699
 21
-1589.420263
 31
0.0
 12
-1519.623948
 22
-1589.242587
 32
0.0
 13
-1519.623948
 23
-1589.242587
 33
0.0
  0
MTEXT
  5
D5D
100
AcDbEntity
  8
0
  6
BYBLOCK
 62
     0
100
AcDbMText
 10
-1513.289019
 20
-1587.954699
 30
0.0
 40
3.5
 41
0.0
 71
     5
 72
     1
  1
\A2;90°{\H2.800000;\S-0°2'^  0°0';}
 11
0.724019
 21
-0.68978
 31
0.0
  0
POINT
  5
D5E
100
AcDbEntity
  8
DEFPOINTS
  6
BYBLOCK
 62
     0
100
AcDbPoint
 10
-1514.980761
 20
-1591.923332
 30
0.0
  0
POINT
  5
D5F
100
AcDbEntity
  8
DEFPOINTS
  6
BYBLOCK
 62
     0
100
AcDbPoint
 10
-1519.623948
 20
-1594.604078
 30
0.0
  0
POINT
  5
D60
100
AcDbEntity
  8
DEFPOINTS
  6
BYBLOCK
 62
     0
100
AcDbPoint
 10
-1559.623948
 20
-1594.604078
 30
0.0
  0
POINT
  5
D61
100
AcDbEntity
  8
DEFPOINTS
  6
BYBLOCK
 62
     0
100
AcDbPoint
 10
-1519.623948
 20
-1594.604078
 30
0.0
  0
POINT
  5
D62
100
AcDbEntity
  8
DEFPOINTS
  6
BYBLOCK
 62
     0
100
AcDbPoint
 10
-1519.623948
 20
-1564.604078
 30
0.0
  0
ENDBLK
  5
D63
100
AcDbEntity
  8
0
100
AcDbBlockEnd
  0
BLOCK
  5
D7D
100
AcDbEntity
  8
0
100
AcDbBlockBegin
  2
*D13
 70
    65
 10
0.0
 20
0.0
 30
0.0
  3
*D13
  1

  0
LINE
  5
D7E
100
AcDbEntity
  8
0
  6
BYBLOCK
 62
     0
100
AcDbLine
 10
-1560.248948
 20
-1594.604078
 30
0.0
 11
-1566.970447
 21
-1594.604078
 31
0.0
  0
ARC
  5
D7F
100
AcDbEntity
  8
0
  6
BYBLOCK
 62
     0
100
AcDbCircle
 10
-1559.623948
 20
-1594.604078
 30
0.0
 40
6.096499
100
AcDbArc
 50
113.66318
 51
156.33682
  0
SOLID
  5
D80
100
AcDbEntity
  8
0
  6
BYBLOCK
 62
     0
100
AcDbTrace
 10
-1562.156266
 20
-1588.612354
 30
0.0
 11
-1561.985403
 21
-1589.427982
 31
0.0
 12
-1559.623948
 22
-1588.507579
 32
0.0
 13
-1559.623948
 23
-1588.507579
 33
0.0
  0
SOLID
  5
D81
100
AcDbEntity
  8
0
  6
BYBLOCK
 62
     0
100
AcDbTrace
 10
-1564.800043
 20
-1592.242623
 30
0.0
 11
-1565.615672
 21
-1592.07176
 31
0.0
 12
-1565.720447
 22
-1594.604078
 32
0.0
 13
-1565.720447
 23
-1594.604078
 33
0.0
  0
MTEXT
  5
D82
100
AcDbEntity
  8
0
  6
BYBLOCK
 62
     0
100
AcDbMText
 10
-1567.454058
 20
-1588.515089
 30
0.0
 40
3.5
 41
0.0
 71
     5
 72
     1
  1
\A2;90°{\H2.800000;\S-0°2'^  0°0';}
 11
0.613872
 21
0.789406
 31
0.0
  0
POINT
  5
D83
100
AcDbEntity
  8
DEFPOINTS
  6
BYBLOCK
 62
     0
100
AcDbPoint
 10
-1562.672198
 20
-1589.324355
 30
0.0
  0
POINT
  5
D84
100
AcDbEntity
  8
DEFPOINTS
  6
BYBLOCK
 62
     0
100
AcDbPoint
 10
-1559.623948
 20
-1594.604078
 30
0.0
  0
POINT
  5
D85
100
AcDbEntity
  8
DEFPOINTS
  6
BYBLOCK
 62
     0
100
AcDbPoint
 10
-1559.623948
 20
-1594.604078
 30
0.0
  0
POINT
  5
D86
100
AcDbEntity
  8
DEFPOINTS
  6
BYBLOCK
 62
     0
100
AcDbPoint
 10
-1519.623948
 20
-1594.604078
 30
0.0
  0
POINT
  5
D87
100
AcDbEntity
  8
DEFPOINTS
  6
BYBLOCK
 62
     0
100
AcDbPoint
 10
-1559.623948
 20
-1564.604078
 30
0.0
  0
ENDBLK
  5
D88
100
AcDbEntity
  8
0
100
AcDbBlockEnd
  0
BLOCK
  5
E07
100
AcDbEntity
  8
0
100
AcDbBlockBegin
  2
*D14
 70
    65
 10
0.0
 20
0.0
 30
0.0
  3
*D14
  1

  0
LINE
  5
E08
100
AcDbEntity
  8
0
  6
BYBLOCK
 62
     0
100
AcDbLine
 10
-1880.325485
 20
-1439.187116
 30
0.0
 11
-1880.325485
 21
-1415.528061
 31
0.0
  0
LINE
  5
E09
100
AcDbEntity
  8
0
  6
BYBLOCK
 62
     0
100
AcDbLine
 10
-1890.325485
 20
-1439.187116
 30
0.0
 11
-1890.325485
 21
-1415.528061
 31
0.0
  0
LINE
  5
E0A
100
AcDbEntity
  8
0
  6
BYBLOCK
 62
     0
100
AcDbLine
 10
-1882.825485
 20
-1416.778061
 30
0.0
 11
-1887.825485
 21
-1416.778061
 31
0.0
  0
LINE
  5
E0B
100
AcDbEntity
  8
0
  6
BYBLOCK
 62
     0
100
AcDbLine
 10
-1890.325485
 20
-1416.778061
 30
0.0
 11
-1919.314358
 21
-1416.778061
 31
0.0
  0
SOLID
  5
E0C
100
AcDbEntity
  8
0
  6
BYBLOCK
 62
     0
100
AcDbTrace
 10
-1882.825485
 20
-1416.361394
 30
0.0
 11
-1882.825485
 21
-1417.194728
 31
0.0
 12
-1880.325485
 22
-1416.778061
 32
0.0
 13
-1880.325485
 23
-1416.778061
 33
0.0
  0
SOLID
  5
E0D
100
AcDbEntity
  8
0
  6
BYBLOCK
 62
     0
100
AcDbTrace
 10
-1887.825485
 20
-1416.361394
 30
0.0
 11
-1887.825485
 21
-1417.194728
 31
0.0
 12
-1890.325485
 22
-1416.778061
 32
0.0
 13
-1890.325485
 23
-1416.778061
 33
0.0
  0
MTEXT
  5
E0E
100
AcDbEntity
  8
0
  6
BYBLOCK
 62
     0
100
AcDbMText
 10
-1912.375358
 20
-1414.403061
 30
0.0
 40
3.5
 41
0.0
 71
     5
 72
     1
  1
\A2;10{\H2.800000;±0.01}
  0
POINT
  5
E0F
100
AcDbEntity
  8
DEFPOINTS
  6
BYBLOCK
 62
     0
100
AcDbPoint
 10
-1880.325485
 20
-1439.812116
 30
0.0
  0
POINT
  5
E10
100
AcDbEntity
  8
DEFPOINTS
  6
BYBLOCK
 62
     0
100
AcDbPoint
 10
-1890.325485
 20
-1439.812116
 30
0.0
  0
POINT
  5
E11
100
AcDbEntity
  8
DEFPOINTS
  6
BYBLOCK
 62
     0
100
AcDbPoint
 10
-1890.325485
 20
-1416.778061
 30
0.0
  0
ENDBLK
  5
E12
100
AcDbEntity
  8
0
100
AcDbBlockEnd
  0
BLOCK
  5
DED
100
AcDbEntity
  8
0
100
AcDbBlockBegin
  2
*D15
 70
    65
 10
0.0
 20
0.0
 30
0.0
  3
*D15
  1

  0
LINE
  5
DEE
100
AcDbEntity
  8
0
  6
BYBLOCK
 62
     0
100
AcDbLine
 10
-1880.086307
 20
-1439.234691
 30
0.0
 11
-1869.150373
 21
-1412.833009
 31
0.0
  0
LINE
  5
DEF
100
AcDbEntity
  8
0
  6
BYBLOCK
 62
     0
100
AcDbLine
 10
-1890.564662
 20
-1439.234691
 30
0.0
 11
-1901.500596
 21
-1412.833009
 31
0.0
  0
ARC
  5
DF0
100
AcDbEntity
  8
0
  6
BYBLOCK
 62
     0
100
AcDbCircle
 10
-1885.325485
 20
-1451.883183
 30
0.0
 40
41.017604
100
AcDbArc
 50
70.992686
 51
109.007314
  0
SOLID
  5
DF1
100
AcDbEntity
  8
0
  6
BYBLOCK
 62
     0
100
AcDbTrace
 10
-1871.818863
 20
-1412.712352
 30
0.0
 11
-1872.114155
 21
-1413.491612
 31
0.0
 12
-1869.628727
 22
-1413.987859
 32
0.0
 13
-1869.628727
 23
-1413.987859
 33
0.0
  0
SOLID
  5
DF2
100
AcDbEntity
  8
0
  6
BYBLOCK
 62
     0
100
AcDbTrace
 10
-1898.536814
 20
-1413.491612
 30
0.0
 11
-1898.832107
 21
-1412.712352
 31
0.0
 12
-1901.022242
 22
-1413.987859
 32
0.0
 13
-1901.022242
 23
-1413.987859
 33
0.0
  0
MTEXT
  5
DF3
100
AcDbEntity
  8
0
  6
BYBLOCK
 62
     0
100
AcDbMText
 10
-1885.325485
 20
-1408.49058
 30
0.0
 40
3.5
 41
0.0
 71
     5
 72
     1
  1
\A1;45°
  0
POINT
  5
DF4
100
AcDbEntity
  8
DEFPOINTS
  6
BYBLOCK
 62
     0
100
AcDbPoint
 10
-1879.971613
 20
-1411.216491
 30
0.0
  0
POINT
  5
DF5
100
AcDbEntity
  8
DEFPOINTS
  6
BYBLOCK
 62
     0
100
AcDbPoint
 10
-1880.325485
 20
-1439.812116
 30
0.0
  0
POINT
  5
DF6
100
AcDbEntity
  8
DEFPOINTS
  6
BYBLOCK
 62
     0
100
AcDbPoint
 10
-1890.325485
 20
-1439.812116
 30
0.0
  0
POINT
  5
DF7
100
AcDbEntity
  8
DEFPOINTS
  6
BYBLOCK
 62
     0
100
AcDbPoint
 10
-1885.325485
 20
-1451.883183
 30
0.0
  0
POINT
  5
DF8
100
AcDbEntity
  8
DEFPOINTS
  6
BYBLOCK
 62
     0
100
AcDbPoint
 10
-1885.325485
 20
-1451.883183
 30
0.0
  0
ENDBLK
  5
DF9
100
AcDbEntity
  8
0
100
AcDbBlockEnd
  0
BLOCK
  5
E20
100
AcDbEntity
  8
0
100
AcDbBlockBegin
  2
*D16
 70
    65
 10
0.0
 20
0.0
 30
0.0
  3
*D16
  1

  0
LINE
  5
E21
100
AcDbEntity
  8
0
  6
BYBLOCK
 62
     0
100
AcDbLine
 10
-1894.325485
 20
-1488.344067
 30
0.0
 11
-1894.325485
 21
-1490.183222
 31
0.0
  0
LINE
  5
E22
100
AcDbEntity
  8
0
  6
BYBLOCK
 62
     0
100
AcDbLine
 10
-1876.325485
 20
-1485.156908
 30
0.0
 11
-1876.325485
 21
-1490.183222
 31
0.0
  0
LINE
  5
E23
100
AcDbEntity
  8
0
  6
BYBLOCK
 62
     0
100
AcDbLine
 10
-1896.825485
 20
-1488.933222
 30
0.0
 11
-1899.325485
 21
-1488.933222
 31
0.0
  0
LINE
  5
E24
100
AcDbEntity
  8
0
  6
BYBLOCK
 62
     0
100
AcDbLine
 10
-1873.825485
 20
-1488.933222
 30
0.0
 11
-1871.325485
 21
-1488.933222
 31
0.0
  0
SOLID
  5
E25
100
AcDbEntity
  8
0
  6
BYBLOCK
 62
     0
100
AcDbTrace
 10
-1896.825485
 20
-1488.516556
 30
0.0
 11
-1896.825485
 21
-1489.349889
 31
0.0
 12
-1894.325485
 22
-1488.933222
 32
0.0
 13
-1894.325485
 23
-1488.933222
 33
0.0
  0
SOLID
  5
E26
100
AcDbEntity
  8
0
  6
BYBLOCK
 62
     0
100
AcDbTrace
 10
-1873.825485
 20
-1488.516556
 30
0.0
 11
-1873.825485
 21
-1489.349889
 31
0.0
 12
-1876.325485
 22
-1488.933222
 32
0.0
 13
-1876.325485
 23
-1488.933222
 33
0.0
  0
MTEXT
  5
E27
100
AcDbEntity
  8
0
  6
BYBLOCK
 62
     0
100
AcDbMText
 10
-1885.325485
 20
-1486.558222
 30
0.0
 40
3.5
 41
0.0
 71
     5
 72
     1
  1
\A2;18{\H2.800000;±0.05}
  0
POINT
  5
E28
100
AcDbEntity
  8
DEFPOINTS
  6
BYBLOCK
 62
     0
100
AcDbPoint
 10
-1894.325485
 20
-1487.719067
 30
0.0
  0
POINT
  5
E29
100
AcDbEntity
  8
DEFPOINTS
  6
BYBLOCK
 62
     0
100
AcDbPoint
 10
-1876.325485
 20
-1484.531908
 30
0.0
  0
POINT
  5
E2A
100
AcDbEntity
  8
DEFPOINTS
  6
BYBLOCK
 62
     0
100
AcDbPoint
 10
-1876.325485
 20
-1488.933222
 30
0.0
  0
ENDBLK
  5
E2B
100
AcDbEntity
  8
0
100
AcDbBlockEnd
  0
BLOCK
  5
E5F
100
AcDbEntity
  8
0
100
AcDbBlockBegin
  2
*D17
 70
    65
 10
0.0
 20
0.0
 30
0.0
  3
*D17
  1

  0
LINE
  5
E60
100
AcDbEntity
  8
0
  6
BYBLOCK
 62
     0
100
AcDbLine
 10
-1888.984223
 20
-1437.995955
 30
0.0
 11
-1882.161715
 21
-1428.393973
 31
0.0
  0
SOLID
  5
E61
100
AcDbEntity
  8
0
  6
BYBLOCK
 62
     0
100
AcDbTrace
 10
-1889.323881
 20
-1437.754618
 30
0.0
 11
-1888.644565
 21
-1438.237292
 31
0.0
 12
-1890.432247
 22
-1440.033901
 32
0.0
 13
-1890.432247
 23
-1440.033901
 33
0.0
  0
MTEXT
  5
E62
100
AcDbEntity
  8
0
  6
BYBLOCK
 62
     0
100
AcDbMText
 10
-1886.785287
 20
-1430.800168
 30
0.0
 40
3.5
 41
0.0
 71
     5
 72
     1
  1
\A1;R1.2
 11
0.57921
 21
0.815179
 31
0.0
  0
POINT
  5
E63
100
AcDbEntity
  8
DEFPOINTS
  6
BYBLOCK
 62
     0
100
AcDbPoint
 10
-1890.432247
 20
-1440.033901
 30
0.0
  0
POINT
  5
E64
100
AcDbEntity
  8
DEFPOINTS
  6
BYBLOCK
 62
     0
100
AcDbPoint
 10
-1891.127299
 20
-1441.012116
 30
0.0
  0
ENDBLK
  5
E65
100
AcDbEntity
  8
0
100
AcDbBlockEnd
  0
BLOCK
  5
EAE
100
AcDbEntity
  8
0
100
AcDbBlockBegin
  2
*D18
 70
    65
 10
0.0
 20
0.0
 30
0.0
  3
*D18
  1

  0
LINE
  5
EAF
100
AcDbEntity
  8
0
  6
BYBLOCK
 62
     0
100
AcDbLine
 10
-1636.310813
 20
-1438.937116
 30
0.0
 11
-1636.310813
 21
-1417.020574
 31
0.0
  0
LINE
  5
EB0
100
AcDbEntity
  8
0
  6
BYBLOCK
 62
     0
100
AcDbLine
 10
-1645.804856
 20
-1438.937116
 30
0.0
 11
-1645.804856
 21
-1417.020574
 31
0.0
  0
LINE
  5
EB1
100
AcDbEntity
  8
0
  6
BYBLOCK
 62
     0
100
AcDbLine
 10
-1638.810813
 20
-1418.270574
 30
0.0
 11
-1643.304856
 21
-1418.270574
 31
0.0
  0
LINE
  5
EB2
100
AcDbEntity
  8
0
  6
BYBLOCK
 62
     0
100
AcDbLine
 10
-1645.804856
 20
-1418.270574
 30
0.0
 11
-1677.252873
 21
-1418.270574
 31
0.0
  0
SOLID
  5
EB3
100
AcDbEntity
  8
0
  6
BYBLOCK
 62
     0
100
AcDbTrace
 10
-1638.810813
 20
-1417.853907
 30
0.0
 11
-1638.810813
 21
-1418.68724
 31
0.0
 12
-1636.310813
 22
-1418.270574
 32
0.0
 13
-1636.310813
 23
-1418.270574
 33
0.0
  0
SOLID
  5
EB4
100
AcDbEntity
  8
0
  6
BYBLOCK
 62
     0
100
AcDbTrace
 10
-1643.304856
 20
-1417.853907
 30
0.0
 11
-1643.304856
 21
-1418.68724
 31
0.0
 12
-1645.804856
 22
-1418.270574
 32
0.0
 13
-1645.804856
 23
-1418.270574
 33
0.0
  0
MTEXT
  5
EB5
100
AcDbEntity
  8
0
  6
BYBLOCK
 62
     0
100
AcDbMText
 10
-1668.41392
 20
-1414.517805
 30
0.0
 40
3.5
 41
0.0
 71
     5
 72
     1
  1
\A2;9.49{\H2.800000;\S-0.1^  0;}
  0
POINT
  5
EB6
100
AcDbEntity
  8
DEFPOINTS
  6
BYBLOCK
 62
     0
100
AcDbPoint
 10
-1636.310813
 20
-1439.562116
 30
0.0
  0
POINT
  5
EB7
100
AcDbEntity
  8
DEFPOINTS
  6
BYBLOCK
 62
     0
100
AcDbPoint
 10
-1645.804856
 20
-1439.562116
 30
0.0
  0
POINT
  5
EB8
100
AcDbEntity
  8
DEFPOINTS
  6
BYBLOCK
 62
     0
100
AcDbPoint
 10
-1645.804856
 20
-1418.270574
 30
0.0
  0
ENDBLK
  5
EB9
100
AcDbEntity
  8
0
100
AcDbBlockEnd
  0
BLOCK
  5
E94
100
AcDbEntity
  8
0
100
AcDbBlockBegin
  2
*D19
 70
    65
 10
0.0
 20
0.0
 30
0.0
  3
*D19
  1

  0
LINE
  5
E95
100
AcDbEntity
  8
0
  6
BYBLOCK
 62
     0
100
AcDbLine
 10
-1636.071636
 20
-1438.984691
 30
0.0
 11
-1626.00378
 21
-1414.678737
 31
0.0
  0
LINE
  5
E96
100
AcDbEntity
  8
0
  6
BYBLOCK
 62
     0
100
AcDbLine
 10
-1646.044033
 20
-1438.984691
 30
0.0
 11
-1656.111889
 21
-1414.678737
 31
0.0
  0
ARC
  5
E97
100
AcDbEntity
  8
0
  6
BYBLOCK
 62
     0
100
AcDbCircle
 10
-1641.057834
 20
-1451.022439
 30
0.0
 40
38.088139
100
AcDbArc
 50
71.261412
 51
108.738588
  0
SOLID
  5
E98
100
AcDbEntity
  8
0
  6
BYBLOCK
 62
     0
100
AcDbTrace
 10
-1628.675255
 20
-1414.563219
 30
0.0
 11
-1628.968719
 21
-1415.34317
 31
0.0
 12
-1626.482134
 22
-1415.833587
 32
0.0
 13
-1626.482134
 23
-1415.833587
 33
0.0
  0
SOLID
  5
E99
100
AcDbEntity
  8
0
  6
BYBLOCK
 62
     0
100
AcDbTrace
 10
-1653.14695
 20
-1415.34317
 30
0.0
 11
-1653.440414
 21
-1414.563219
 31
0.0
 12
-1655.633534
 22
-1415.833587
 32
0.0
 13
-1655.633534
 23
-1415.833587
 33
0.0
  0
MTEXT
  5
E9A
100
AcDbEntity
  8
0
  6
BYBLOCK
 62
     0
100
AcDbMText
 10
-1641.057834
 20
-1410.5593
 30
0.0
 40
3.5
 41
0.0
 71
     5
 72
     1
  1
\A1;45°
  0
POINT
  5
E9B
100
AcDbEntity
  8
DEFPOINTS
  6
BYBLOCK
 62
     0
100
AcDbPoint
 10
-1636.086335
 20
-1413.260149
 30
0.0
  0
POINT
  5
E9C
100
AcDbEntity
  8
DEFPOINTS
  6
BYBLOCK
 62
     0
100
AcDbPoint
 10
-1636.310813
 20
-1439.562116
 30
0.0
  0
POINT
  5
E9D
100
AcDbEntity
  8
DEFPOINTS
  6
BYBLOCK
 62
     0
100
AcDbPoint
 10
-1645.804856
 20
-1439.562116
 30
0.0
  0
POINT
  5
E9E
100
AcDbEntity
  8
DEFPOINTS
  6
BYBLOCK
 62
     0
100
AcDbPoint
 10
-1641.01164
 20
-1451.133961
 30
0.0
  0
POINT
  5
E9F
100
AcDbEntity
  8
DEFPOINTS
  6
BYBLOCK
 62
     0
100
AcDbPoint
 10
-1641.104028
 20
-1451.133961
 30
0.0
  0
ENDBLK
  5
EA0
100
AcDbEntity
  8
0
100
AcDbBlockEnd
  0
BLOCK
  5
ED2
100
AcDbEntity
  8
0
100
AcDbBlockBegin
  2
*D20
 70
    65
 10
0.0
 20
0.0
 30
0.0
  3
*D20
  1

  0
LINE
  5
ED3
100
AcDbEntity
  8
0
  6
BYBLOCK
 62
     0
100
AcDbLine
 10
-1650.057834
 20
-1487.19184
 30
0.0
 11
-1650.057834
 21
-1490.85223
 31
0.0
  0
LINE
  5
ED4
100
AcDbEntity
  8
0
  6
BYBLOCK
 62
     0
100
AcDbLine
 10
-1632.057834
 20
-1486.888302
 30
0.0
 11
-1632.057834
 21
-1490.85223
 31
0.0
  0
LINE
  5
ED5
100
AcDbEntity
  8
0
  6
BYBLOCK
 62
     0
100
AcDbLine
 10
-1652.557834
 20
-1489.60223
 30
0.0
 11
-1655.057834
 21
-1489.60223
 31
0.0
  0
LINE
  5
ED6
100
AcDbEntity
  8
0
  6
BYBLOCK
 62
     0
100
AcDbLine
 10
-1629.557834
 20
-1489.60223
 30
0.0
 11
-1627.057834
 21
-1489.60223
 31
0.0
  0
SOLID
  5
ED7
100
AcDbEntity
  8
0
  6
BYBLOCK
 62
     0
100
AcDbTrace
 10
-1652.557834
 20
-1489.185564
 30
0.0
 11
-1652.557834
 21
-1490.018897
 31
0.0
 12
-1650.057834
 22
-1489.60223
 32
0.0
 13
-1650.057834
 23
-1489.60223
 33
0.0
  0
SOLID
  5
ED8
100
AcDbEntity
  8
0
  6
BYBLOCK
 62
     0
100
AcDbTrace
 10
-1629.557834
 20
-1489.185564
 30
0.0
 11
-1629.557834
 21
-1490.018897
 31
0.0
 12
-1632.057834
 22
-1489.60223
 32
0.0
 13
-1632.057834
 23
-1489.60223
 33
0.0
  0
MTEXT
  5
ED9
100
AcDbEntity
  8
0
  6
BYBLOCK
 62
     0
100
AcDbMText
 10
-1641.057834
 20
-1487.22723
 30
0.0
 40
3.5
 41
0.0
 71
     5
 72
     1
  1
\A2;18{\H2.800000;±0.05}
  0
POINT
  5
EDA
100
AcDbEntity
  8
DEFPOINTS
  6
BYBLOCK
 62
     0
100
AcDbPoint
 10
-1650.057834
 20
-1486.56684
 30
0.0
  0
POINT
  5
EDB
100
AcDbEntity
  8
DEFPOINTS
  6
BYBLOCK
 62
     0
100
AcDbPoint
 10
-1632.057834
 20
-1486.263302
 30
0.0
  0
POINT
  5
EDC
100
AcDbEntity
  8
DEFPOINTS
  6
BYBLOCK
 62
     0
100
AcDbPoint
 10
-1632.057834
 20
-1489.60223
 30
0.0
  0
ENDBLK
  5
EDD
100
AcDbEntity
  8
0
100
AcDbBlockEnd
  0
BLOCK
  5
EE3
100
AcDbEntity
  8
0
100
AcDbBlockBegin
  2
*D21
 70
    65
 10
0.0
 20
0.0
 30
0.0
  3
*D21
  1

  0
LINE
  5
EE4
100
AcDbEntity
  8
0
  6
BYBLOCK
 62
     0
100
AcDbLine
 10
-1641.939432
 20
-1452.111999
 30
0.0
 11
-1645.204013
 21
-1463.88786
 31
0.0
  0
SOLID
  5
EE5
100
AcDbEntity
  8
0
  6
BYBLOCK
 62
     0
100
AcDbTrace
 10
-1642.340954
 20
-1452.000686
 30
0.0
 11
-1641.537909
 21
-1452.223312
 31
0.0
 12
-1641.271555
 22
-1449.702862
 32
0.0
 13
-1641.271555
 23
-1449.702862
 33
0.0
  0
MTEXT
  5
EE6
100
AcDbEntity
  8
0
  6
BYBLOCK
 62
     0
100
AcDbMText
 10
-1646.19434
 20
-1458.570015
 30
0.0
 40
3.5
 41
0.0
 71
     5
 72
     1
  1
\A1;R0.8
 11
0.267151
 21
0.963655
 31
0.0
  0
POINT
  5
EE7
100
AcDbEntity
  8
DEFPOINTS
  6
BYBLOCK
 62
     0
100
AcDbPoint
 10
-1641.271555
 20
-1449.702862
 30
0.0
  0
POINT
  5
EE8
100
AcDbEntity
  8
DEFPOINTS
  6
BYBLOCK
 62
     0
100
AcDbPoint
 10
-1641.057834
 20
-1448.931938
 30
0.0
  0
ENDBLK
  5
EE9
100
AcDbEntity
  8
0
100
AcDbBlockEnd
  0
BLOCK
  5
EED
100
AcDbEntity
  8
0
100
AcDbBlockBegin
  2
*D22
 70
    65
 10
0.0
 20
0.0
 30
0.0
  3
*D22
  1

  0
LINE
  5
EEE
100
AcDbEntity
  8
0
  6
BYBLOCK
 62
     0
100
AcDbLine
 10
-1886.050255
 20
-1453.012109
 30
0.0
 11
-1888.734102
 21
-1464.933744
 31
0.0
  0
SOLID
  5
EEF
100
AcDbEntity
  8
0
  6
BYBLOCK
 62
     0
100
AcDbTrace
 10
-1886.456748
 20
-1452.920598
 30
0.0
 11
-1885.643762
 21
-1453.103621
 31
0.0
 12
-1885.501187
 22
-1450.57315
 32
0.0
 13
-1885.501187
 23
-1450.57315
 33
0.0
  0
MTEXT
  5
EF0
100
AcDbEntity
  8
0
  6
BYBLOCK
 62
     0
100
AcDbMText
 10
-1889.983724
 20
-1459.670791
 30
0.0
 40
3.5
 41
0.0
 71
     5
 72
     1
  1
\A1;R0.8
 11
0.219627
 21
0.975584
 31
0.0
  0
POINT
  5
EF1
100
AcDbEntity
  8
DEFPOINTS
  6
BYBLOCK
 62
     0
100
AcDbPoint
 10
-1885.501187
 20
-1450.57315
 30
0.0
  0
POINT
  5
EF2
100
AcDbEntity
  8
DEFPOINTS
  6
BYBLOCK
 62
     0
100
AcDbPoint
 10
-1885.325485
 20
-1449.792683
 30
0.0
  0
ENDBLK
  5
EF3
100
AcDbEntity
  8
0
100
AcDbBlockEnd
  0
BLOCK
  5
10AF
100
AcDbEntity
  8
0
100
AcDbBlockBegin
  2
*D23
 70
    65
 10
0.0
 20
0.0
 30
0.0
  3
*D23
  1

  0
LINE
  5
10B0
100
AcDbEntity
  8
0
  6
BYBLOCK
 62
     0
100
AcDbLine
 10
-1642.07827
 20
-1441.669349
 30
0.0
 11
-1640.037398
 21
-1439.470522
 31
0.0
  0
LINE
  5
10B1
100
AcDbEntity
  8
0
  6
BYBLOCK
 62
     0
100
AcDbLine
 10
-1638.336671
 20
-1437.638166
 30
0.0
 11
-1612.617877
 21
-1409.928845
 31
0.0
  0
SOLID
  5
10B2
100
AcDbEntity
  8
0
  6
BYBLOCK
 62
     0
100
AcDbTrace
 10
-1642.383663
 20
-1441.385894
 30
0.0
 11
-1641.772878
 21
-1441.952803
 31
0.0
 12
-1643.778997
 22
-1443.501705
 32
0.0
 13
-1643.778997
 23
-1443.501705
 33
0.0
  0
SOLID
  5
10B3
100
AcDbEntity
  8
0
  6
BYBLOCK
 62
     0
100
AcDbTrace
 10
-1640.342791
 20
-1439.187067
 30
0.0
 11
-1639.732006
 21
-1439.753976
 31
0.0
 12
-1638.336671
 22
-1437.638166
 32
0.0
 13
-1638.336671
 23
-1437.638166
 33
0.0
  0
MTEXT
  5
10B4
100
AcDbEntity
  8
0
  6
BYBLOCK
 62
     0
100
AcDbMText
 10
-1619.602976
 20
-1413.963407
 30
0.0
 40
3.5
 41
0.0
 71
     5
 72
     1
  1
\A2;\U+22058{\H2.800000;±0.01}
 11
0.680291
 21
0.732942
 31
0.0
  0
POINT
  5
10B5
100
AcDbEntity
  8
DEFPOINTS
  6
BYBLOCK
 62
     0
100
AcDbPoint
 10
-1638.336671
 20
-1437.638166
 30
0.0
  0
POINT
  5
10B6
100
AcDbEntity
  8
DEFPOINTS
  6
BYBLOCK
 62
     0
100
AcDbPoint
 10
-1643.778997
 20
-1443.501705
 30
0.0
  0
ENDBLK
  5
10B7
100
AcDbEntity
  8
0
100
AcDbBlockEnd
  0
BLOCK
  5
1175
100
AcDbEntity
  8
0
100
AcDbBlockBegin
  2
*X24
 70
    65
 10
0.0
 20
0.0
 30
0.0
  3
*X24
  1

  0
LINE
  5
1177
100
AcDbEntity
  8
0
 62
     0
100
AcDbLine
 10
-1643.731243
 20
-1445.986003
 30
0.0
 11
-1643.315996
 21
-1445.570756
 31
0.0
  0
LINE
  5
1178
100
AcDbEntity
  8
0
 62
     0
100
AcDbLine
 10
-1643.864304
 20
-1445.849657
 30
0.0
 11
-1643.394903
 21
-1445.380256
 31
0.0
  0
LINE
  5
1179
100
AcDbEntity
  8
0
 62
     0
100
AcDbLine
 10
-1643.997366
 20
-1445.71331
 30
0.0
 11
-1643.473811
 21
-1445.189756
 31
0.0
  0
LINE
  5
117A
100
AcDbEntity
  8
0
 62
     0
100
AcDbLine
 10
-1644.136522
 20
-1445.583059
 30
0.0
 11
-1643.552719
 21
-1444.999256
 31
0.0
  0
LINE
  5
117B
100
AcDbEntity
  8
0
 62
     0
100
AcDbLine
 10
-1644.279268
 20
-1445.456397
 30
0.0
 11
-1643.631626
 21
-1444.808756
 31
0.0
  0
LINE
  5
117C
100
AcDbEntity
  8
0
 62
     0
100
AcDbLine
 10
-1644.422013
 20
-1445.329735
 30
0.0
 11
-1643.710534
 21
-1444.618256
 31
0.0
  0
LINE
  5
117D
100
AcDbEntity
  8
0
 62
     0
100
AcDbLine
 10
-1644.564759
 20
-1445.203073
 30
0.0
 11
-1643.789442
 21
-1444.427756
 31
0.0
  0
LINE
  5
117E
100
AcDbEntity
  8
0
 62
     0
100
AcDbLine
 10
-1644.707505
 20
-1445.076411
 30
0.0
 11
-1643.868349
 21
-1444.237256
 31
0.0
  0
LINE
  5
117F
100
AcDbEntity
  8
0
 62
     0
100
AcDbLine
 10
-1644.85025
 20
-1444.949749
 30
0.0
 11
-1643.947257
 21
-1444.046756
 31
0.0
  0
LINE
  5
1180
100
AcDbEntity
  8
0
 62
     0
100
AcDbLine
 10
-1644.992996
 20
-1444.823087
 30
0.0
 11
-1644.026165
 21
-1443.856256
 31
0.0
  0
LINE
  5
1181
100
AcDbEntity
  8
0
 62
     0
100
AcDbLine
 10
-1645.135741
 20
-1444.696425
 30
0.0
 11
-1644.105072
 21
-1443.665756
 31
0.0
  0
LINE
  5
1182
100
AcDbEntity
  8
0
 62
     0
100
AcDbLine
 10
-1645.278487
 20
-1444.569763
 30
0.0
 11
-1644.18398
 21
-1443.475256
 31
0.0
  0
LINE
  5
1183
100
AcDbEntity
  8
0
 62
     0
100
AcDbLine
 10
-1645.421233
 20
-1444.443101
 30
0.0
 11
-1644.262888
 21
-1443.284756
 31
0.0
  0
LINE
  5
1184
100
AcDbEntity
  8
0
 62
     0
100
AcDbLine
 10
-1645.577672
 20
-1444.330132
 30
0.0
 11
-1644.341795
 21
-1443.094256
 31
0.0
  0
LINE
  5
1185
100
AcDbEntity
  8
0
 62
     0
100
AcDbLine
 10
-1645.740029
 20
-1444.223081
 30
0.0
 11
-1644.420703
 21
-1442.903756
 31
0.0
  0
LINE
  5
1186
100
AcDbEntity
  8
0
 62
     0
100
AcDbLine
 10
-1645.902386
 20
-1444.11603
 30
0.0
 11
-1644.499611
 21
-1442.713256
 31
0.0
  0
LINE
  5
1187
100
AcDbEntity
  8
0
 62
     0
100
AcDbLine
 10
-1646.064742
 20
-1444.00898
 30
0.0
 11
-1644.578518
 21
-1442.522756
 31
0.0
  0
LINE
  5
1188
100
AcDbEntity
  8
0
 62
     0
100
AcDbLine
 10
-1646.227099
 20
-1443.901929
 30
0.0
 11
-1644.657426
 21
-1442.332256
 31
0.0
  0
LINE
  5
1189
100
AcDbEntity
  8
0
 62
     0
100
AcDbLine
 10
-1646.389456
 20
-1443.794878
 30
0.0
 11
-1644.736334
 21
-1442.141756
 31
0.0
  0
LINE
  5
118A
100
AcDbEntity
  8
0
 62
     0
100
AcDbLine
 10
-1646.551813
 20
-1443.687827
 30
0.0
 11
-1644.815242
 21
-1441.951256
 31
0.0
  0
LINE
  5
118B
100
AcDbEntity
  8
0
 62
     0
100
AcDbLine
 10
-1646.714169
 20
-1443.580776
 30
0.0
 11
-1644.894149
 21
-1441.760756
 31
0.0
  0
LINE
  5
118C
100
AcDbEntity
  8
0
 62
     0
100
AcDbLine
 10
-1646.876526
 20
-1443.473725
 30
0.0
 11
-1644.973057
 21
-1441.570256
 31
0.0
  0
LINE
  5
118D
100
AcDbEntity
  8
0
 62
     0
100
AcDbLine
 10
-1647.038883
 20
-1443.366674
 30
0.0
 11
-1645.051965
 21
-1441.379756
 31
0.0
  0
LINE
  5
118E
100
AcDbEntity
  8
0
 62
     0
100
AcDbLine
 10
-1647.207494
 20
-1443.265878
 30
0.0
 11
-1645.130872
 21
-1441.189256
 31
0.0
  0
LINE
  5
118F
100
AcDbEntity
  8
0
 62
     0
100
AcDbLine
 10
-1647.376247
 20
-1443.165223
 30
0.0
 11
-1645.20978
 21
-1440.998756
 31
0.0
  0
LINE
  5
1190
100
AcDbEntity
  8
0
 62
     0
100
AcDbLine
 10
-1647.545
 20
-1443.064568
 30
0.0
 11
-1645.288688
 21
-1440.808256
 31
0.0
  0
LINE
  5
1191
100
AcDbEntity
  8
0
 62
     0
100
AcDbLine
 10
-1647.713752
 20
-1442.963913
 30
0.0
 11
-1645.367595
 21
-1440.617756
 31
0.0
  0
LINE
  5
1192
100
AcDbEntity
  8
0
 62
     0
100
AcDbLine
 10
-1647.882505
 20
-1442.863258
 30
0.0
 11
-1645.446503
 21
-1440.427256
 31
0.0
  0
LINE
  5
1193
100
AcDbEntity
  8
0
 62
     0
100
AcDbLine
 10
-1648.051258
 20
-1442.762603
 30
0.0
 11
-1645.525411
 21
-1440.236756
 31
0.0
  0
LINE
  5
1194
100
AcDbEntity
  8
0
 62
     0
100
AcDbLine
 10
-1648.22001
 20
-1442.661948
 30
0.0
 11
-1645.604318
 21
-1440.046256
 31
0.0
  0
LINE
  5
1195
100
AcDbEntity
  8
0
 62
     0
100
AcDbLine
 10
-1648.388763
 20
-1442.561293
 30
0.0
 11
-1645.683226
 21
-1439.855756
 31
0.0
  0
LINE
  5
1196
100
AcDbEntity
  8
0
 62
     0
100
AcDbLine
 10
-1648.557516
 20
-1442.460638
 30
0.0
 11
-1645.762134
 21
-1439.665256
 31
0.0
  0
LINE
  5
1197
100
AcDbEntity
  8
0
 62
     0
100
AcDbLine
 10
-1648.716604
 20
-1442.350319
 30
0.0
 11
-1645.928401
 21
-1439.562116
 31
0.0
  0
LINE
  5
1198
100
AcDbEntity
  8
0
 62
     0
100
AcDbLine
 10
-1648.856312
 20
-1442.220619
 30
0.0
 11
-1646.197809
 21
-1439.562116
 31
0.0
  0
LINE
  5
1199
100
AcDbEntity
  8
0
 62
     0
100
AcDbLine
 10
-1648.996021
 20
-1442.090919
 30
0.0
 11
-1646.467217
 21
-1439.562116
 31
0.0
  0
LINE
  5
119A
100
AcDbEntity
  8
0
 62
     0
100
AcDbLine
 10
-1649.135729
 20
-1441.96122
 30
0.0
 11
-1646.736624
 21
-1439.562116
 31
0.0
  0
LINE
  5
119B
100
AcDbEntity
  8
0
 62
     0
100
AcDbLine
 10
-1649.275437
 20
-1441.83152
 30
0.0
 11
-1647.006032
 21
-1439.562116
 31
0.0
  0
LINE
  5
119C
100
AcDbEntity
  8
0
 62
     0
100
AcDbLine
 10
-1649.415145
 20
-1441.701821
 30
0.0
 11
-1647.27544
 21
-1439.562116
 31
0.0
  0
LINE
  5
119D
100
AcDbEntity
  8
0
 62
     0
100
AcDbLine
 10
-1649.554853
 20
-1441.572121
 30
0.0
 11
-1647.544847
 21
-1439.562116
 31
0.0
  0
LINE
  5
119E
100
AcDbEntity
  8
0
 62
     0
100
AcDbLine
 10
-1649.694561
 20
-1441.442422
 30
0.0
 11
-1647.814255
 21
-1439.562116
 31
0.0
  0
LINE
  5
119F
100
AcDbEntity
  8
0
 62
     0
100
AcDbLine
 10
-1649.834269
 20
-1441.312722
 30
0.0
 11
-1648.083663
 21
-1439.562116
 31
0.0
  0
LINE
  5
11A0
100
AcDbEntity
  8
0
 62
     0
100
AcDbLine
 10
-1649.973978
 20
-1441.183023
 30
0.0
 11
-1648.35307
 21
-1439.562116
 31
0.0
  0
LINE
  5
11A1
100
AcDbEntity
  8
0
 62
     0
100
AcDbLine
 10
-1650.057834
 20
-1440.997472
 30
0.0
 11
-1648.622478
 21
-1439.562116
 31
0.0
  0
LINE
  5
11A2
100
AcDbEntity
  8
0
 62
     0
100
AcDbLine
 10
-1650.057834
 20
-1440.728064
 30
0.0
 11
-1648.891886
 21
-1439.562116
 31
0.0
  0
LINE
  5
11A3
100
AcDbEntity
  8
0
 62
     0
100
AcDbLine
 10
-1650.057834
 20
-1440.458657
 30
0.0
 11
-1649.161293
 21
-1439.562116
 31
0.0
  0
LINE
  5
11A4
100
AcDbEntity
  8
0
 62
     0
100
AcDbLine
 10
-1643.598181
 20
-1446.122349
 30
0.0
 11
-1643.237088
 21
-1445.761256
 31
0.0
  0
LINE
  5
11A5
100
AcDbEntity
  8
0
 62
     0
100
AcDbLine
 10
-1643.46512
 20
-1446.258696
 30
0.0
 11
-1643.15818
 21
-1445.951756
 31
0.0
  0
LINE
  5
11A6
100
AcDbEntity
  8
0
 62
     0
100
AcDbLine
 10
-1643.332059
 20
-1446.395042
 30
0.0
 11
-1643.079272
 21
-1446.142256
 31
0.0
  0
LINE
  5
11A7
100
AcDbEntity
  8
0
 62
     0
100
AcDbLine
 10
-1643.198997
 20
-1446.531388
 30
0.0
 11
-1643.000365
 21
-1446.332756
 31
0.0
  0
LINE
  5
11A8
100
AcDbEntity
  8
0
 62
     0
100
AcDbLine
 10
-1636.368151
 20
-1439.700542
 30
0.0
 11
-1636.229725
 21
-1439.562116
 31
0.0
  0
LINE
  5
11A9
100
AcDbEntity
  8
0
 62
     0
100
AcDbLine
 10
-1643.065936
 20
-1446.667735
 30
0.0
 11
-1642.921457
 21
-1446.523256
 31
0.0
  0
LINE
  5
11AA
100
AcDbEntity
  8
0
 62
     0
100
AcDbLine
 10
-1636.558651
 20
-1440.16045
 30
0.0
 11
-1635.960317
 21
-1439.562116
 31
0.0
  0
LINE
  5
11AB
100
AcDbEntity
  8
0
 62
     0
100
AcDbLine
 10
-1642.932875
 20
-1446.804081
 30
0.0
 11
-1642.842549
 21
-1446.713756
 31
0.0
  0
LINE
  5
11AC
100
AcDbEntity
  8
0
 62
     0
100
AcDbLine
 10
-1636.749151
 20
-1440.620357
 30
0.0
 11
-1635.690909
 21
-1439.562116
 31
0.0
  0
LINE
  5
11AD
100
AcDbEntity
  8
0
 62
     0
100
AcDbLine
 10
-1642.799813
 20
-1446.940427
 30
0.0
 11
-1642.763642
 21
-1446.904256
 31
0.0
  0
LINE
  5
11AE
100
AcDbEntity
  8
0
 62
     0
100
AcDbLine
 10
-1636.939651
 20
-1441.080265
 30
0.0
 11
-1635.421502
 21
-1439.562116
 31
0.0
  0
LINE
  5
11AF
100
AcDbEntity
  8
0
 62
     0
100
AcDbLine
 10
-1637.130151
 20
-1441.540173
 30
0.0
 11
-1635.152094
 21
-1439.562116
 31
0.0
  0
LINE
  5
11B0
100
AcDbEntity
  8
0
 62
     0
100
AcDbLine
 10
-1637.320651
 20
-1442.00008
 30
0.0
 11
-1634.882686
 21
-1439.562116
 31
0.0
  0
LINE
  5
11B1
100
AcDbEntity
  8
0
 62
     0
100
AcDbLine
 10
-1637.511151
 20
-1442.459988
 30
0.0
 11
-1634.613278
 21
-1439.562116
 31
0.0
  0
LINE
  5
11B2
100
AcDbEntity
  8
0
 62
     0
100
AcDbLine
 10
-1637.701651
 20
-1442.919896
 30
0.0
 11
-1634.343871
 21
-1439.562116
 31
0.0
  0
LINE
  5
11B3
100
AcDbEntity
  8
0
 62
     0
100
AcDbLine
 10
-1637.892151
 20
-1443.379804
 30
0.0
 11
-1634.074463
 21
-1439.562116
 31
0.0
  0
LINE
  5
11B4
100
AcDbEntity
  8
0
 62
     0
100
AcDbLine
 10
-1638.082651
 20
-1443.839711
 30
0.0
 11
-1633.805055
 21
-1439.562116
 31
0.0
  0
LINE
  5
11B5
100
AcDbEntity
  8
0
 62
     0
100
AcDbLine
 10
-1638.273151
 20
-1444.299619
 30
0.0
 11
-1633.535648
 21
-1439.562116
 31
0.0
  0
LINE
  5
11B6
100
AcDbEntity
  8
0
 62
     0
100
AcDbLine
 10
-1638.463651
 20
-1444.759527
 30
0.0
 11
-1633.26624
 21
-1439.562116
 31
0.0
  0
LINE
  5
11B7
100
AcDbEntity
  8
0
 62
     0
100
AcDbLine
 10
-1638.654151
 20
-1445.219434
 30
0.0
 11
-1632.996832
 21
-1439.562116
 31
0.0
  0
LINE
  5
11B8
100
AcDbEntity
  8
0
 62
     0
100
AcDbLine
 10
-1638.844651
 20
-1445.679342
 30
0.0
 11
-1632.76763
 21
-1439.60232
 31
0.0
  0
LINE
  5
11B9
100
AcDbEntity
  8
0
 62
     0
100
AcDbLine
 10
-1639.035151
 20
-1446.13925
 30
0.0
 11
-1632.632926
 21
-1439.737024
 31
0.0
  0
LINE
  5
11BA
100
AcDbEntity
  8
0
 62
     0
100
AcDbLine
 10
-1639.225651
 20
-1446.599157
 30
0.0
 11
-1632.498222
 21
-1439.871728
 31
0.0
  0
LINE
  5
11BB
100
AcDbEntity
  8
0
 62
     0
100
AcDbLine
 10
-1637.326796
 20
-1444.96971
 30
0.0
 11
-1632.363518
 21
-1440.006432
 31
0.0
  0
LINE
  5
11BC
100
AcDbEntity
  8
0
 62
     0
100
AcDbLine
 10
-1636.050085
 20
-1443.962407
 30
0.0
 11
-1632.228814
 21
-1440.141136
 31
0.0
  0
LINE
  5
11BD
100
AcDbEntity
  8
0
 62
     0
100
AcDbLine
 10
-1635.32547
 20
-1443.507199
 30
0.0
 11
-1632.09411
 21
-1440.27584
 31
0.0
  0
LINE
  5
11BE
100
AcDbEntity
  8
0
 62
     0
100
AcDbLine
 10
-1634.715766
 20
-1443.166903
 30
0.0
 11
-1632.057834
 21
-1440.508971
 31
0.0
  0
LINE
  5
11BF
100
AcDbEntity
  8
0
 62
     0
100
AcDbLine
 10
-1634.096212
 20
-1442.816757
 30
0.0
 11
-1632.057834
 21
-1440.778379
 31
0.0
  0
LINE
  5
11C0
100
AcDbEntity
  8
0
 62
     0
100
AcDbLine
 10
-1633.271635
 20
-1442.261588
 30
0.0
 11
-1632.057834
 21
-1441.047787
 31
0.0
  0
ENDBLK
  5
11C1
100
AcDbEntity
  8
0
100
AcDbBlockEnd
  0
BLOCK
  5
12BA
100
AcDbEntity
  8
0
100
AcDbBlockBegin
  2
*D25
 70
    65
 10
0.0
 20
0.0
 30
0.0
  3
*D25
  1

  0
LINE
  5
12BB
100
AcDbEntity
  8
0
  6
BYBLOCK
 62
     0
100
AcDbLine
 10
-1631.899969
 20
-1439.562116
 30
0.0
 11
-1568.422988
 21
-1439.562116
 31
0.0
  0
LINE
  5
12BC
100
AcDbEntity
  8
0
  6
BYBLOCK
 62
     0
100
AcDbLine
 10
-1611.682834
 20
-1520.062116
 30
0.0
 11
-1568.422988
 21
-1520.062116
 31
0.0
  0
LINE
  5
12BD
100
AcDbEntity
  8
0
  6
BYBLOCK
 62
     0
100
AcDbLine
 10
-1569.672988
 20
-1442.062116
 30
0.0
 11
-1569.672988
 21
-1517.562116
 31
0.0
  0
SOLID
  5
12BE
100
AcDbEntity
  8
0
  6
BYBLOCK
 62
     0
100
AcDbTrace
 10
-1570.089654
 20
-1442.062116
 30
0.0
 11
-1569.256321
 21
-1442.062116
 31
0.0
 12
-1569.672988
 22
-1439.562116
 32
0.0
 13
-1569.672988
 23
-1439.562116
 33
0.0
  0
SOLID
  5
12BF
100
AcDbEntity
  8
0
  6
BYBLOCK
 62
     0
100
AcDbTrace
 10
-1570.089654
 20
-1517.562116
 30
0.0
 11
-1569.256321
 21
-1517.562116
 31
0.0
 12
-1569.672988
 22
-1520.062116
 32
0.0
 13
-1569.672988
 23
-1520.062116
 33
0.0
  0
MTEXT
  5
12C0
100
AcDbEntity
  8
0
  6
BYBLOCK
 62
     0
100
AcDbMText
 10
-1573.425757
 20
-1479.812116
 30
0.0
 40
3.5
 41
0.0
 71
     5
 72
     1
  1
\A2;80.5{\H2.800000;\S+0.1^  0;}
 11
0.0
 21
1.0
 31
0.0
  0
POINT
  5
12C1
100
AcDbEntity
  8
DEFPOINTS
  6
BYBLOCK
 62
     0
100
AcDbPoint
 10
-1632.524969
 20
-1439.562116
 30
0.0
  0
POINT
  5
12C2
100
AcDbEntity
  8
DEFPOINTS
  6
BYBLOCK
 62
     0
100
AcDbPoint
 10
-1612.307834
 20
-1520.062116
 30
0.0
  0
POINT
  5
12C3
100
AcDbEntity
  8
DEFPOINTS
  6
BYBLOCK
 62
     0
100
AcDbPoint
 10
-1569.672988
 20
-1520.062116
 30
0.0
  0
ENDBLK
  5
12C4
100
AcDbEntity
  8
0
100
AcDbBlockEnd
  0
BLOCK
  5
12DB
100
AcDbEntity
  8
0
100
AcDbBlockBegin
  2
*D26
 70
    65
 10
0.0
 20
0.0
 30
0.0
  3
*D26
  1

  0
LINE
  5
12DC
100
AcDbEntity
  8
0
  6
BYBLOCK
 62
     0
100
AcDbLine
 10
-1640.432834
 20
-1436.569935
 30
0.0
 11
-1556.08834
 21
-1436.569935
 31
0.0
  0
LINE
  5
12DD
100
AcDbEntity
  8
0
  6
BYBLOCK
 62
     0
100
AcDbLine
 10
-1611.682834
 20
-1520.062116
 30
0.0
 11
-1556.08834
 21
-1520.062116
 31
0.0
  0
LINE
  5
12DE
100
AcDbEntity
  8
0
  6
BYBLOCK
 62
     0
100
AcDbLine
 10
-1557.33834
 20
-1439.069935
 30
0.0
 11
-1557.33834
 21
-1517.562116
 31
0.0
  0
SOLID
  5
12DF
100
AcDbEntity
  8
0
  6
BYBLOCK
 62
     0
100
AcDbTrace
 10
-1557.755007
 20
-1439.069935
 30
0.0
 11
-1556.921674
 21
-1439.069935
 31
0.0
 12
-1557.33834
 22
-1436.569935
 32
0.0
 13
-1557.33834
 23
-1436.569935
 33
0.0
  0
SOLID
  5
12E0
100
AcDbEntity
  8
0
  6
BYBLOCK
 62
     0
100
AcDbTrace
 10
-1557.755007
 20
-1517.562116
 30
0.0
 11
-1556.921674
 21
-1517.562116
 31
0.0
 12
-1557.33834
 22
-1520.062116
 32
0.0
 13
-1557.33834
 23
-1520.062116
 33
0.0
  0
MTEXT
  5
12E1
100
AcDbEntity
  8
0
  6
BYBLOCK
 62
     0
100
AcDbMText
 10
-1561.091109
 20
-1478.316025
 30
0.0
 40
3.5
 41
0.0
 71
     5
 72
     1
  1
\A2;83.49{\H2.800000;\S+0.1^  0;}
 11
0.0
 21
1.0
 31
0.0
  0
POINT
  5
12E2
100
AcDbEntity
  8
DEFPOINTS
  6
BYBLOCK
 62
     0
100
AcDbPoint
 10
-1641.057834
 20
-1436.569935
 30
0.0
  0
POINT
  5
12E3
100
AcDbEntity
  8
DEFPOINTS
  6
BYBLOCK
 62
     0
100
AcDbPoint
 10
-1612.307834
 20
-1520.062116
 30
0.0
  0
POINT
  5
12E4
100
AcDbEntity
  8
DEFPOINTS
  6
BYBLOCK
 62
     0
100
AcDbPoint
 10
-1557.33834
 20
-1520.062116
 30
0.0
  0
ENDBLK
  5
12E5
100
AcDbEntity
  8
0
100
AcDbBlockEnd
  0
BLOCK
  5
125A
100
AcDbEntity
  8
0
100
AcDbBlockBegin
  2
*X27
 70
    65
 10
0.0
 20
0.0
 30
0.0
  3
*X27
  1

  0
LINE
  5
125C
100
AcDbEntity
  8
0
 62
     0
100
AcDbLine
 10
-1880.431799
 20
-1443.721944
 30
0.0
 11
-1876.673728
 21
-1439.963872
 31
0.0
  0
LINE
  5
125D
100
AcDbEntity
  8
0
 62
     0
100
AcDbLine
 10
-1882.179085
 20
-1445.199822
 30
0.0
 11
-1876.808431
 21
-1439.829169
 31
0.0
  0
LINE
  5
125E
100
AcDbEntity
  8
0
 62
     0
100
AcDbLine
 10
-1882.633975
 20
-1445.385305
 30
0.0
 11
-1877.060786
 21
-1439.812116
 31
0.0
  0
LINE
  5
125F
100
AcDbEntity
  8
0
 62
     0
100
AcDbLine
 10
-1882.443475
 20
-1444.925397
 30
0.0
 11
-1877.330194
 21
-1439.812116
 31
0.0
  0
LINE
  5
1260
100
AcDbEntity
  8
0
 62
     0
100
AcDbLine
 10
-1882.252975
 20
-1444.465489
 30
0.0
 11
-1877.599601
 21
-1439.812116
 31
0.0
  0
LINE
  5
1261
100
AcDbEntity
  8
0
 62
     0
100
AcDbLine
 10
-1882.062475
 20
-1444.005582
 30
0.0
 11
-1877.869009
 21
-1439.812116
 31
0.0
  0
LINE
  5
1262
100
AcDbEntity
  8
0
 62
     0
100
AcDbLine
 10
-1881.871975
 20
-1443.545674
 30
0.0
 11
-1878.138417
 21
-1439.812116
 31
0.0
  0
LINE
  5
1263
100
AcDbEntity
  8
0
 62
     0
100
AcDbLine
 10
-1881.681475
 20
-1443.085766
 30
0.0
 11
-1878.407824
 21
-1439.812116
 31
0.0
  0
LINE
  5
1264
100
AcDbEntity
  8
0
 62
     0
100
AcDbLine
 10
-1881.490975
 20
-1442.625858
 30
0.0
 11
-1878.677232
 21
-1439.812116
 31
0.0
  0
LINE
  5
1265
100
AcDbEntity
  8
0
 62
     0
100
AcDbLine
 10
-1881.300475
 20
-1442.165951
 30
0.0
 11
-1878.94664
 21
-1439.812116
 31
0.0
  0
LINE
  5
1266
100
AcDbEntity
  8
0
 62
     0
100
AcDbLine
 10
-1881.109975
 20
-1441.706043
 30
0.0
 11
-1879.216048
 21
-1439.812116
 31
0.0
  0
LINE
  5
1267
100
AcDbEntity
  8
0
 62
     0
100
AcDbLine
 10
-1880.919475
 20
-1441.246135
 30
0.0
 11
-1879.485455
 21
-1439.812116
 31
0.0
  0
LINE
  5
1268
100
AcDbEntity
  8
0
 62
     0
100
AcDbLine
 10
-1880.728975
 20
-1440.786228
 30
0.0
 11
-1879.783282
 21
-1439.840535
 31
0.0
  0
LINE
  5
1269
100
AcDbEntity
  8
0
 62
     0
100
AcDbLine
 10
-1879.52337
 20
-1443.082923
 30
0.0
 11
-1876.539024
 21
-1440.098576
 31
0.0
  0
LINE
  5
126A
100
AcDbEntity
  8
0
 62
     0
100
AcDbLine
 10
-1878.622185
 20
-1442.451145
 30
0.0
 11
-1876.40432
 21
-1440.23328
 31
0.0
  0
LINE
  5
126B
100
AcDbEntity
  8
0
 62
     0
100
AcDbLine
 10
-1878.010846
 20
-1442.109214
 30
0.0
 11
-1876.325485
 21
-1440.423852
 31
0.0
  0
LINE
  5
126C
100
AcDbEntity
  8
0
 62
     0
100
AcDbLine
 10
-1877.399508
 20
-1441.767283
 30
0.0
 11
-1876.325485
 21
-1440.69326
 31
0.0
  0
LINE
  5
126D
100
AcDbEntity
  8
0
 62
     0
100
AcDbLine
 10
-1876.788169
 20
-1441.425352
 30
0.0
 11
-1876.325485
 21
-1440.962668
 31
0.0
  0
ENDBLK
  5
126E
100
AcDbEntity
  8
0
100
AcDbBlockEnd
  0
BLOCK
  5
12A3
100
AcDbEntity
  8
0
100
AcDbBlockBegin
  2
*D28
 70
    65
 10
0.0
 20
0.0
 30
0.0
  3
*D28
  1

  0
LINE
  5
12A4
100
AcDbEntity
  8
0
  6
BYBLOCK
 62
     0
100
AcDbLine
 10
-1877.304733
 20
-1439.812116
 30
0.0
 11
-1833.552903
 21
-1439.812116
 31
0.0
  0
LINE
  5
12A5
100
AcDbEntity
  8
0
  6
BYBLOCK
 62
     0
100
AcDbLine
 10
-1855.700485
 20
-1519.812116
 30
0.0
 11
-1833.552903
 21
-1519.812116
 31
0.0
  0
LINE
  5
12A6
100
AcDbEntity
  8
0
  6
BYBLOCK
 62
     0
100
AcDbLine
 10
-1834.802903
 20
-1442.312116
 30
0.0
 11
-1834.802903
 21
-1517.312116
 31
0.0
  0
SOLID
  5
12A7
100
AcDbEntity
  8
0
  6
BYBLOCK
 62
     0
100
AcDbTrace
 10
-1835.21957
 20
-1442.312116
 30
0.0
 11
-1834.386236
 21
-1442.312116
 31
0.0
 12
-1834.802903
 22
-1439.812116
 32
0.0
 13
-1834.802903
 23
-1439.812116
 33
0.0
  0
SOLID
  5
12A8
100
AcDbEntity
  8
0
  6
BYBLOCK
 62
     0
100
AcDbTrace
 10
-1835.21957
 20
-1517.312116
 30
0.0
 11
-1834.386236
 21
-1517.312116
 31
0.0
 12
-1834.802903
 22
-1519.812116
 32
0.0
 13
-1834.802903
 23
-1519.812116
 33
0.0
  0
MTEXT
  5
12A9
100
AcDbEntity
  8
0
  6
BYBLOCK
 62
     0
100
AcDbMText
 10
-1838.625396
 20
-1479.812116
 30
0.0
 40
3.5
 41
0.0
 71
     5
 72
     1
  1
\A2;80{\H2.800000;\S+0.02^  0;}
 11
0.0
 21
1.0
 31
0.0
  0
POINT
  5
12AA
100
AcDbEntity
  8
DEFPOINTS
  6
BYBLOCK
 62
     0
100
AcDbPoint
 10
-1877.929733
 20
-1439.812116
 30
0.0
  0
POINT
  5
12AB
100
AcDbEntity
  8
DEFPOINTS
  6
BYBLOCK
 62
     0
100
AcDbPoint
 10
-1856.325485
 20
-1519.812116
 30
0.0
  0
POINT
  5
12AC
100
AcDbEntity
  8
DEFPOINTS
  6
BYBLOCK
 62
     0
100
AcDbPoint
 10
-1834.802903
 20
-1519.812116
 30
0.0
  0
ENDBLK
  5
12AD
100
AcDbEntity
  8
0
100
AcDbBlockEnd
  0
BLOCK
  5
13A0
100
AcDbEntity
  8
0
100
AcDbBlockBegin
  2
*X29
 70
    65
 10
0.0
 20
0.0
 30
0.0
  3
*X29
  1

  0
LINE
  5
13A2
100
AcDbEntity
  8
0
 62
     0
100
AcDbLine
 10
-1891.243109
 20
-1442.948724
 30
0.0
 11
-1889.675559
 21
-1441.381174
 31
0.0
  0
LINE
  5
13A3
100
AcDbEntity
  8
0
 62
     0
100
AcDbLine
 10
-1891.405453
 20
-1442.84166
 30
0.0
 11
-1889.754467
 21
-1441.190674
 31
0.0
  0
LINE
  5
13A4
100
AcDbEntity
  8
0
 62
     0
100
AcDbLine
 10
-1891.569201
 20
-1442.736
 30
0.0
 11
-1889.833375
 21
-1441.000174
 31
0.0
  0
LINE
  5
13A5
100
AcDbEntity
  8
0
 62
     0
100
AcDbLine
 10
-1891.734278
 20
-1442.631669
 30
0.0
 11
-1889.912282
 21
-1440.809674
 31
0.0
  0
LINE
  5
13A6
100
AcDbEntity
  8
0
 62
     0
100
AcDbLine
 10
-1891.900607
 20
-1442.528591
 30
0.0
 11
-1889.99119
 21
-1440.619174
 31
0.0
  0
LINE
  5
13A7
100
AcDbEntity
  8
0
 62
     0
100
AcDbLine
 10
-1892.068112
 20
-1442.426688
 30
0.0
 11
-1890.075626
 21
-1440.434202
 31
0.0
  0
LINE
  5
13A8
100
AcDbEntity
  8
0
 62
     0
100
AcDbLine
 10
-1892.236713
 20
-1442.325881
 30
0.0
 11
-1890.182769
 21
-1440.271938
 31
0.0
  0
LINE
  5
13A9
100
AcDbEntity
  8
0
 62
     0
100
AcDbLine
 10
-1892.406331
 20
-1442.226092
 30
0.0
 11
-1890.311922
 21
-1440.131683
 31
0.0
  0
LINE
  5
13AA
100
AcDbEntity
  8
0
 62
     0
100
AcDbLine
 10
-1892.576885
 20
-1442.127238
 30
0.0
 11
-1890.462645
 21
-1440.012998
 31
0.0
  0
LINE
  5
13AB
100
AcDbEntity
  8
0
 62
     0
100
AcDbLine
 10
-1892.748294
 20
-1442.029239
 30
0.0
 11
-1890.636244
 21
-1439.917189
 31
0.0
  0
LINE
  5
13AC
100
AcDbEntity
  8
0
 62
     0
100
AcDbLine
 10
-1892.920474
 20
-1441.932012
 30
0.0
 11
-1890.836377
 21
-1439.847914
 31
0.0
  0
LINE
  5
13AD
100
AcDbEntity
  8
0
 62
     0
100
AcDbLine
 10
-1893.093344
 20
-1441.835474
 30
0.0
 11
-1891.071293
 21
-1439.813423
 31
0.0
  0
LINE
  5
13AE
100
AcDbEntity
  8
0
 62
     0
100
AcDbLine
 10
-1893.266818
 20
-1441.73954
 30
0.0
 11
-1891.339393
 21
-1439.812116
 31
0.0
  0
LINE
  5
13AF
100
AcDbEntity
  8
0
 62
     0
100
AcDbLine
 10
-1893.440812
 20
-1441.644127
 30
0.0
 11
-1891.608801
 21
-1439.812116
 31
0.0
  0
LINE
  5
13B0
100
AcDbEntity
  8
0
 62
     0
100
AcDbLine
 10
-1893.615242
 20
-1441.549148
 30
0.0
 11
-1891.878209
 21
-1439.812116
 31
0.0
  0
LINE
  5
13B1
100
AcDbEntity
  8
0
 62
     0
100
AcDbLine
 10
-1893.790021
 20
-1441.45452
 30
0.0
 11
-1892.147616
 21
-1439.812116
 31
0.0
  0
LINE
  5
13B2
100
AcDbEntity
  8
0
 62
     0
100
AcDbLine
 10
-1893.965064
 20
-1441.360155
 30
0.0
 11
-1892.417024
 21
-1439.812116
 31
0.0
  0
LINE
  5
13B3
100
AcDbEntity
  8
0
 62
     0
100
AcDbLine
 10
-1894.140284
 20
-1441.265968
 30
0.0
 11
-1892.686432
 21
-1439.812116
 31
0.0
  0
LINE
  5
13B4
100
AcDbEntity
  8
0
 62
     0
100
AcDbLine
 10
-1894.315596
 20
-1441.171872
 30
0.0
 11
-1892.955839
 21
-1439.812116
 31
0.0
  0
LINE
  5
13B5
100
AcDbEntity
  8
0
 62
     0
100
AcDbLine
 10
-1894.325485
 20
-1440.912353
 30
0.0
 11
-1893.225247
 21
-1439.812116
 31
0.0
  0
LINE
  5
13B6
100
AcDbEntity
  8
0
 62
     0
100
AcDbLine
 10
-1894.325485
 20
-1440.642945
 30
0.0
 11
-1893.494655
 21
-1439.812116
 31
0.0
  0
LINE
  5
13B7
100
AcDbEntity
  8
0
 62
     0
100
AcDbLine
 10
-1894.325485
 20
-1440.373538
 30
0.0
 11
-1893.764062
 21
-1439.812116
 31
0.0
  0
LINE
  5
13B8
100
AcDbEntity
  8
0
 62
     0
100
AcDbLine
 10
-1891.082243
 20
-1443.057266
 30
0.0
 11
-1889.596652
 21
-1441.571674
 31
0.0
  0
LINE
  5
13B9
100
AcDbEntity
  8
0
 62
     0
100
AcDbLine
 10
-1890.922928
 20
-1443.167358
 30
0.0
 11
-1889.517744
 21
-1441.762174
 31
0.0
  0
LINE
  5
13BA
100
AcDbEntity
  8
0
 62
     0
100
AcDbLine
 10
-1890.765234
 20
-1443.279071
 30
0.0
 11
-1889.438836
 21
-1441.952674
 31
0.0
  0
LINE
  5
13BB
100
AcDbEntity
  8
0
 62
     0
100
AcDbLine
 10
-1890.609211
 20
-1443.392456
 30
0.0
 11
-1889.359929
 21
-1442.143174
 31
0.0
  0
LINE
  5
13BC
100
AcDbEntity
  8
0
 62
     0
100
AcDbLine
 10
-1890.454799
 20
-1443.507452
 30
0.0
 11
-1889.281021
 21
-1442.333674
 31
0.0
  0
LINE
  5
13BD
100
AcDbEntity
  8
0
 62
     0
100
AcDbLine
 10
-1890.301905
 20
-1443.623966
 30
0.0
 11
-1889.202113
 21
-1442.524174
 31
0.0
  0
LINE
  5
13BE
100
AcDbEntity
  8
0
 62
     0
100
AcDbLine
 10
-1890.150434
 20
-1443.741902
 30
0.0
 11
-1889.123206
 21
-1442.714674
 31
0.0
  0
LINE
  5
13BF
100
AcDbEntity
  8
0
 62
     0
100
AcDbLine
 10
-1890.000293
 20
-1443.861169
 30
0.0
 11
-1889.044298
 21
-1442.905174
 31
0.0
  0
LINE
  5
13C0
100
AcDbEntity
  8
0
 62
     0
100
AcDbLine
 10
-1889.851393
 20
-1443.981677
 30
0.0
 11
-1888.96539
 21
-1443.095674
 31
0.0
  0
LINE
  5
13C1
100
AcDbEntity
  8
0
 62
     0
100
AcDbLine
 10
-1889.703644
 20
-1444.103335
 30
0.0
 11
-1888.886483
 21
-1443.286174
 31
0.0
  0
LINE
  5
13C2
100
AcDbEntity
  8
0
 62
     0
100
AcDbLine
 10
-1889.556957
 20
-1444.226056
 30
0.0
 11
-1888.807575
 21
-1443.476674
 31
0.0
  0
LINE
  5
13C3
100
AcDbEntity
  8
0
 62
     0
100
AcDbLine
 10
-1889.411246
 20
-1444.349753
 30
0.0
 11
-1888.728667
 21
-1443.667174
 31
0.0
  0
LINE
  5
13C4
100
AcDbEntity
  8
0
 62
     0
100
AcDbLine
 10
-1889.266425
 20
-1444.474339
 30
0.0
 11
-1888.649759
 21
-1443.857674
 31
0.0
  0
LINE
  5
13C5
100
AcDbEntity
  8
0
 62
     0
100
AcDbLine
 10
-1889.122408
 20
-1444.59973
 30
0.0
 11
-1888.570852
 21
-1444.048174
 31
0.0
  0
LINE
  5
13C6
100
AcDbEntity
  8
0
 62
     0
100
AcDbLine
 10
-1888.979111
 20
-1444.725841
 30
0.0
 11
-1888.491944
 21
-1444.238674
 31
0.0
  0
LINE
  5
13C7
100
AcDbEntity
  8
0
 62
     0
100
AcDbLine
 10
-1888.836451
 20
-1444.852589
 30
0.0
 11
-1888.413036
 21
-1444.429174
 31
0.0
  0
LINE
  5
13C8
100
AcDbEntity
  8
0
 62
     0
100
AcDbLine
 10
-1888.694345
 20
-1444.97989
 30
0.0
 11
-1888.334129
 21
-1444.619674
 31
0.0
  0
LINE
  5
13C9
100
AcDbEntity
  8
0
 62
     0
100
AcDbLine
 10
-1888.55271
 20
-1445.107663
 30
0.0
 11
-1888.255221
 21
-1444.810174
 31
0.0
  0
LINE
  5
13CA
100
AcDbEntity
  8
0
 62
     0
100
AcDbLine
 10
-1888.411465
 20
-1445.235825
 30
0.0
 11
-1888.176313
 21
-1445.000674
 31
0.0
  0
LINE
  5
13CB
100
AcDbEntity
  8
0
 62
     0
100
AcDbLine
 10
-1888.270527
 20
-1445.364295
 30
0.0
 11
-1888.097406
 21
-1445.191174
 31
0.0
  0
LINE
  5
13CC
100
AcDbEntity
  8
0
 62
     0
100
AcDbLine
 10
-1888.129817
 20
-1445.492993
 30
0.0
 11
-1888.018498
 21
-1445.381674
 31
0.0
  0
LINE
  5
13CD
100
AcDbEntity
  8
0
 62
     0
100
AcDbLine
 10
-1887.989252
 20
-1445.621836
 30
0.0
 11
-1887.93959
 21
-1445.572174
 31
0.0
  0
ENDBLK
  5
13CE
100
AcDbEntity
  8
0
100
AcDbBlockEnd
  0
ENDSEC
  0
SECTION
  2
ENTITIES
  0
LINE
  5
623
100
AcDbEntity
  8
DISEGNO
100
AcDbLine
 10
-1914.325485
 20
-1519.812116
 30
0.0
 11
-1856.325485
 21
-1519.812116
 31
0.0
  0
LINE
  5
624
100
AcDbEntity
  8
DISEGNO
100
AcDbLine
 10
-1855.325485
 20
-1518.812116
 30
0.0
 11
-1855.325485
 21
-1502.812116
 31
0.0
  0
LINE
  5
626
100
AcDbEntity
  8
DISEGNO
100
AcDbLine
 10
-1915.325485
 20
-1518.812116
 30
0.0
 11
-1915.325485
 21
-1502.812116
 31
0.0
  0
LINE
  5
62D
100
AcDbEntity
  8
DISEGNO
100
AcDbLine
 10
-1856.325485
 20
-1501.812116
 30
0.0
 11
-1872.325485
 21
-1501.812116
 31
0.0
  0
LINE
  5
62E
100
AcDbEntity
  8
DISEGNO
100
AcDbLine
 10
-1872.325485
 20
-1501.812116
 30
0.0
 11
-1872.325485
 21
-1400.312116
 31
0.0
1001
ACAD
1000
ASC_BOUNDS
1002
{
1070
    19
1002
}
  0
LINE
  5
62F
100
AcDbEntity
  8
DISEGNO
100
AcDbLine
 10
-1872.825485
 20
-1399.812116
 30
0.0
 11
-1875.487993
 21
-1399.812116
 31
0.0
1001
ACAD
1000
ASC_BOUNDS
1002
{
1070
    19
1002
}
  0
LINE
  5
630
100
AcDbEntity
  8
DISEGNO
100
AcDbLine
 10
-1898.325485
 20
-1400.312116
 30
0.0
 11
-1898.325485
 21
-1501.812116
 31
0.0
1001
ACAD
1000
ASC_BOUNDS
1002
{
1070
    19
1002
}
  0
LINE
  5
631
100
AcDbEntity
  8
DISEGNO
100
AcDbLine
 10
-1898.325485
 20
-1501.812116
 30
0.0
 11
-1914.325485
 21
-1501.812116
 31
0.0
  0
LINE
  5
636
100
AcDbEntity
  8
DISEGNO
100
AcDbLine
 10
-1892.622307
 20
-1401.509736
 30
0.0
 11
-1887.173244
 21
-1414.664939
 31
0.0
1001
ACAD
1000
ASC_BOUNDS
1002
{
1070
    19
1002
}
  0
LINE
  5
637
100
AcDbEntity
  8
DISEGNO
100
AcDbLine
 10
-1895.162976
 20
-1399.812116
 30
0.0
 11
-1897.825485
 21
-1399.812116
 31
0.0
1001
ACAD
1000
ASC_BOUNDS
1002
{
1070
    19
1002
}
  0
LINE
  5
6A4
100
AcDbEntity
  8
DISEGNO
100
AcDbLine
 10
-1872.825485
 20
-1399.812116
 30
0.0
 11
-1872.325485
 21
-1400.312116
 31
0.0
1001
ACAD
1000
ASC_BOUNDS
1002
{
1070
    19
1002
}
  0
LINE
  5
6A5
100
AcDbEntity
  8
DISEGNO
100
AcDbLine
 10
-1897.825485
 20
-1399.812116
 30
0.0
 11
-1898.325485
 21
-1400.312116
 31
0.0
1001
ACAD
1000
ASC_BOUNDS
1002
{
1070
    19
1002
}
  0
LINE
  5
748
100
AcDbEntity
  8
DISEGNO
100
AcDbLine
 10
-1914.325485
 20
-1501.812116
 30
0.0
 11
-1915.325485
 21
-1502.812116
 31
0.0
  0
LINE
  5
749
100
AcDbEntity
  8
DISEGNO
100
AcDbLine
 10
-1915.325485
 20
-1518.812116
 30
0.0
 11
-1914.325485
 21
-1519.812116
 31
0.0
  0
LINE
  5
74A
100
AcDbEntity
  8
DISEGNO
100
AcDbLine
 10
-1856.325485
 20
-1501.812116
 30
0.0
 11
-1855.325485
 21
-1502.812116
 31
0.0
  0
LINE
  5
74B
100
AcDbEntity
  8
DISEGNO
100
AcDbLine
 10
-1856.325485
 20
-1519.812116
 30
0.0
 11
-1855.325485
 21
-1518.812116
 31
0.0
  0
LINE
  5
DDE
100
AcDbEntity
  8
DISEGNO
100
AcDbLine
 10
-1878.028662
 20
-1401.509736
 30
0.0
 11
-1883.477726
 21
-1414.664939
 31
0.0
1001
ACAD
1000
ASC_BOUNDS
1002
{
1070
    19
1002
}
  0
ARC
  5
13F4
100
AcDbEntity
  8
DISEGNO
100
AcDbCircle
 10
-1895.162976
 20
-1402.562116
 30
0.0
 40
2.75
100
AcDbArc
 50
22.5
 51
90.0
1001
ACAD
1000
ASC_BOUNDS
1002
{
1070
    19
1002
}
  0
ARC
  5
13F5
100
AcDbEntity
  8
DISEGNO
100
AcDbCircle
 10
-1875.487993
 20
-1402.562116
 30
0.0
 40
2.75
100
AcDbArc
 50
90.0
 51
157.5
1001
ACAD
1000
ASC_BOUNDS
1002
{
1070
    19
1002
}
  0
ARC
  5
13F6
100
AcDbEntity
  8
DISEGNO
100
AcDbCircle
 10
-1885.325485
 20
-1413.899572
 30
0.0
 40
2.0
100
AcDbArc
 50
202.5
 51
337.5
1001
ACAD
1000
ASC_BOUNDS
1002
{
1070
    19
1002
}
  0
ENDSEC
  0
SECTION
  2
OBJECTS
  0
DICTIONARY
  5
C
100
AcDbDictionary
  3
ACAD_GROUP
350
D
  3
ACAD_MLINESTYLE
350
E
  0
DICTIONARY
  5
D
102
{ACAD_REACTORS
330
C
102
}
100
AcDbDictionary
  0
DICTIONARY
  5
E
102
{ACAD_REACTORS
330
C
102
}
100
AcDbDictionary
  3
STANDARD
350
1C
  0
MLINESTYLE
  5
1C
102
{ACAD_REACTORS
330
E
102
}
100
AcDbMlineStyle
  2
STANDARD
 70
     0
  3

 62
     0
 51
90.0
 52
90.0
 71
     2
 49
0.5
 62
   256
  6
BYLAYER
 49
-0.5
 62
   256
  6
BYLAYER
  0
ENDSEC
  0
EOF
