  0
SECTION
  2
HEADER
  9
$ACADVER
  1
AC1012
  9
$DWGCODEPAGE
  3
iso8859-1
  9
$INSBASE
 10
0.0
 20
0.0
 30
0.0
  9
$EXTMIN
 10
20.051761
 20
37.530757
 30
0.0
  9
$EXTMAX
 10
199.00546
 20
251.854435
 30
0.0
  9
$LIMMIN
 10
0.0
 20
0.0
  9
$LIMMAX
 10
200.0
 20
250.0
  9
$ORTHOMODE
 70
     0
  9
$REGENMODE
 70
     1
  9
$FILLMODE
 70
     1
  9
$QTEXTMODE
 70
     0
  9
$MIRRTEXT
 70
     1
  9
$DRAGMODE
 70
     2
  9
$LTSCALE
 40
0.841751
  9
$OSMODE
 70
     0
  9
$ATTMODE
 70
     1
  9
$TEXTSIZE
 40
3.0
  9
$TRACEWID
 40
1.0
  9
$TEXTSTYLE
  7
STANDARD
  9
$CLAYER
  8
QUOTE
  9
$CELTYPE
  6
CONTINUOUS
  9
$CECOLOR
 62
   256
  9
$CELTSCALE
 40
1.0
  9
$DELOBJ
 70
     1
  9
$DISPSILH
 70
     0
  9
$DIMSCALE
 40
1.0
  9
$DIMASZ
 40
2.6
  9
$DIMEXO
 40
0.5261
  9
$DIMDLI
 40
3.1566
  9
$DIMRND
 40
0.0
  9
$DIMDLE
 40
0.0
  9
$DIMEXE
 40
1.0522
  9
$DIMTP
 40
0.05
  9
$DIMTM
 40
0.05
  9
$DIMTXT
 40
2.6
  9
$DIMCEN
 40
2.1044
  9
$DIMTSZ
 40
0.0
  9
$DIMTOL
 70
     1
  9
$DIMLIM
 70
     0
  9
$DIMTIH
 70
     0
  9
$DIMTOH
 70
     0
  9
$DIMSE1
 70
     0
  9
$DIMSE2
 70
     0
  9
$DIMTAD
 70
     1
  9
$DIMZIN
 70
     8
  9
$DIMBLK
  1

  9
$DIMASO
 70
     1
  9
$DIMSHO
 70
     1
  9
$DIMPOST
  1

  9
$DIMAPOST
  1

  9
$DIMALT
 70
     0
  9
$DIMALTD
 70
     2
  9
$DIMALTF
 40
0.0394
  9
$DIMLFAC
 40
1.0
  9
$DIMTOFL
 70
     1
  9
$DIMTVP
 40
1.0
  9
$DIMTIX
 70
     0
  9
$DIMSOXD
 70
     0
  9
$DIMSAH
 70
     0
  9
$DIMBLK1
  1

  9
$DIMBLK2
  1

  9
$DIMSTYLE
  2
ISO-25
  9
$DIMCLRD
 70
     0
  9
$DIMCLRE
 70
     0
  9
$DIMCLRT
 70
     0
  9
$DIMTFAC
 40
1.0
  9
$DIMGAP
 40
0.53
  9
$DIMJUST
 70
     0
  9
$DIMSD1
 70
     0
  9
$DIMSD2
 70
     0
  9
$DIMTOLJ
 70
     1
  9
$DIMTZIN
 70
     0
  9
$DIMALTZ
 70
     0
  9
$DIMALTTZ
 70
     0
  9
$DIMFIT
 70
     3
  9
$DIMUPT
 70
     0
  9
$DIMUNIT
 70
     2
  9
$DIMDEC
 70
     2
  9
$DIMTDEC
 70
     2
  9
$DIMALTU
 70
     2
  9
$DIMALTTD
 70
     2
  9
$DIMTXSTY
  7
STANDARD
  9
$DIMAUNIT
 70
     0
  9
$LUNITS
 70
     2
  9
$LUPREC
 70
     2
  9
$SKETCHINC
 40
1.0
  9
$FILLETRAD
 40
2.0
  9
$AUNITS
 70
     0
  9
$AUPREC
 70
     2
  9
$MENU
  1
.
  9
$ELEVATION
 40
0.0
  9
$PELEVATION
 40
0.0
  9
$THICKNESS
 40
0.0
  9
$LIMCHECK
 70
     0
  9
$BLIPMODE
 70
     1
  9
$CHAMFERA
 40
1.0
  9
$CHAMFERB
 40
1.0
  9
$CHAMFERC
 40
16.835017
  9
$CHAMFERD
 40
0.0
  9
$SKPOLY
 70
     0
  9
$TDCREATE
 40
2450962.329882870
  9
$TDUPDATE
 40
2451128.406686343
  9
$TDINDWG
 40
0.4176192130
  9
$TDUSRTIMER
 40
0.4176192130
  9
$USRTIMER
 70
     1
  9
$ANGBASE
 50
0.0
  9
$ANGDIR
 70
     0
  9
$PDMODE
 70
     0
  9
$PDSIZE
 40
0.0
  9
$PLINEWID
 40
0.0
  9
$COORDS
 70
     0
  9
$SPLFRAME
 70
     0
  9
$SPLINETYPE
 70
     6
  9
$SPLINESEGS
 70
     8
  9
$ATTDIA
 70
     0
  9
$ATTREQ
 70
     1
  9
$HANDLING
 70
     1
  9
$HANDSEED
  5
86F
  9
$SURFTAB1
 70
     6
  9
$SURFTAB2
 70
     6
  9
$SURFTYPE
 70
     6
  9
$SURFU
 70
     6
  9
$SURFV
 70
     6
  9
$UCSNAME
  2

  9
$UCSORG
 10
0.0
 20
0.0
 30
0.0
  9
$UCSXDIR
 10
1.0
 20
0.0
 30
0.0
  9
$UCSYDIR
 10
0.0
 20
1.0
 30
0.0
  9
$PUCSNAME
  2

  9
$PUCSORG
 10
0.0
 20
0.0
 30
0.0
  9
$PUCSXDIR
 10
1.0
 20
0.0
 30
0.0
  9
$PUCSYDIR
 10
0.0
 20
1.0
 30
0.0
  9
$USERI1
 70
     0
  9
$USERI2
 70
     0
  9
$USERI3
 70
     0
  9
$USERI4
 70
     0
  9
$USERI5
 70
     0
  9
$USERR1
 40
0.0
  9
$USERR2
 40
0.0
  9
$USERR3
 40
0.0
  9
$USERR4
 40
0.0
  9
$USERR5
 40
0.0
  9
$WORLDVIEW
 70
     1
  9
$SHADEDGE
 70
     3
  9
$SHADEDIF
 70
    70
  9
$TILEMODE
 70
     1
  9
$MAXACTVP
 70
    16
  9
$PINSBASE
 10
0.0
 20
0.0
 30
0.0
  9
$PLIMCHECK
 70
     0
  9
$PEXTMIN
 10
1.000000E+20
 20
1.000000E+20
 30
1.000000E+20
  9
$PEXTMAX
 10
-1.000000E+20
 20
-1.000000E+20
 30
-1.000000E+20
  9
$PLIMMIN
 10
0.0
 20
0.0
  9
$PLIMMAX
 10
420.0
 20
297.0
  9
$UNITMODE
 70
     0
  9
$VISRETAIN
 70
     0
  9
$PLINEGEN
 70
     0
  9
$PSLTSCALE
 70
     1
  9
$TREEDEPTH
 70
  3020
  9
$PICKSTYLE
 70
     1
  9
$CMLSTYLE
  2
STANDARD
  9
$CMLJUST
 70
     0
  9
$CMLSCALE
 40
1.0
  9
$SAVEIMAGES
 70
     0
  0
ENDSEC
  0
SECTION
  2
CLASSES
  0
ENDSEC
  0
SECTION
  2
TABLES
  0
TABLE
  2
VPORT
  5
8
100
AcDbSymbolTable
 70
     2
  0
VPORT
  5
86E
100
AcDbSymbolTableRecord
100
AcDbViewportTableRecord
  2
*ACTIVE
 70
     0
 10
0.0
 20
0.0
 11
1.0
 21
1.0
 12
56.381436
 22
168.901524
 13
0.0
 23
0.0
 14
5.0
 24
5.0
 15
5.0
 25
5.0
 16
0.0
 26
0.0
 36
1.0
 17
0.0
 27
0.0
 37
0.0
 40
126.083965
 41
1.650113
 42
50.0
 43
0.0
 44
0.0
 50
0.0
 51
0.0
 71
     0
 72
   100
 73
     1
 74
     0
 75
     0
 76
     0
 77
     0
 78
     0
  0
ENDTAB
  0
TABLE
  2
LTYPE
  5
5
100
AcDbSymbolTable
 70
     3
  0
LTYPE
  5
14
100
AcDbSymbolTableRecord
100
AcDbLinetypeTableRecord
  2
BYBLOCK
 70
     0
  3

 72
    65
 73
     0
 40
0.0
  0
LTYPE
  5
15
100
AcDbSymbolTableRecord
100
AcDbLinetypeTableRecord
  2
BYLAYER
 70
     0
  3

 72
    65
 73
     0
 40
0.0
  0
LTYPE
  5
16
100
AcDbSymbolTableRecord
100
AcDbLinetypeTableRecord
  2
CONTINUOUS
 70
    64
  3
Solid line
 72
    65
 73
     0
 40
0.0
  0
LTYPE
  5
62
100
AcDbSymbolTableRecord
100
AcDbLinetypeTableRecord
  2
LINEA-LINEETTEX2
 70
    64
  3
____________    ____    ____    ____________   
 72
    65
 73
     6
 40
5.0
 49
2.5
 74
     0
 49
-0.5
 74
     0
 49
0.5
 74
     0
 49
-0.5
 74
     0
 49
0.5
 74
     0
 49
-0.5
 74
     0
  0
LTYPE
  5
63
100
AcDbSymbolTableRecord
100
AcDbLinetypeTableRecord
  2
TRATTEGGIATA
 70
    64
  3
__ __ __ __ __ __ __ __ __ __ __ __ __ __ __ __
 72
    65
 73
     2
 40
0.75
 49
0.5
 74
     0
 49
-0.25
 74
     0
  0
ENDTAB
  0
TABLE
  2
LAYER
  5
2
100
AcDbSymbolTable
 70
     8
  0
LAYER
  5
F
100
AcDbSymbolTableRecord
100
AcDbLayerTableRecord
  2
0
 70
     0
 62
     7
  6
CONTINUOUS
  0
LAYER
  5
64
100
AcDbSymbolTableRecord
100
AcDbLayerTableRecord
  2
OGGETTO
 70
    64
 62
   250
  6
CONTINUOUS
  0
LAYER
  5
65
100
AcDbSymbolTableRecord
100
AcDbLayerTableRecord
  2
QUOTE
 70
    64
 62
     1
  6
CONTINUOUS
  0
LAYER
  5
66
100
AcDbSymbolTableRecord
100
AcDbLayerTableRecord
  2
CENTRO
 70
    64
 62
     3
  6
LINEA-LINEETTEX2
  0
LAYER
  5
67
100
AcDbSymbolTableRecord
100
AcDbLayerTableRecord
  2
NASCOSTA
 70
    64
 62
     5
  6
TRATTEGGIATA
  0
LAYER
  5
68
100
AcDbSymbolTableRecord
100
AcDbLayerTableRecord
  2
SEZIONE
 70
    64
 62
     8
  6
CONTINUOUS
  0
LAYER
  5
78
100
AcDbSymbolTableRecord
100
AcDbLayerTableRecord
  2
TESTO
 70
    64
 62
     6
  6
CONTINUOUS
  0
LAYER
  5
A4
100
AcDbSymbolTableRecord
100
AcDbLayerTableRecord
  2
DEFPOINTS
 70
    64
 62
     7
  6
CONTINUOUS
  0
ENDTAB
  0
TABLE
  2
STYLE
  5
3
100
AcDbSymbolTable
 70
     2
  0
STYLE
  5
10
100
AcDbSymbolTableRecord
100
AcDbTextStyleTableRecord
  2
STANDARD
 70
    64
 40
3.0
 41
1.0
 50
0.0
 71
     0
 42
3.0
  3
ISOCP
  4

  0
STYLE
  5
6A
100
AcDbSymbolTableRecord
100
AcDbTextStyleTableRecord
  2

 70
    65
 40
0.0
 41
1.0
 50
0.0
 71
     0
 42
2.104377
  3
ltypeshp.shx
  4

  0
ENDTAB
  0
TABLE
  2
VIEW
  5
6
100
AcDbSymbolTable
 70
     0
  0
ENDTAB
  0
TABLE
  2
UCS
  5
7
100
AcDbSymbolTable
 70
     0
  0
ENDTAB
  0
TABLE
  2
APPID
  5
9
100
AcDbSymbolTable
 70
     1
  0
APPID
  5
11
100
AcDbSymbolTableRecord
100
AcDbRegAppTableRecord
  2
ACAD
 70
     0
  0
ENDTAB
  0
TABLE
  2
DIMSTYLE
  5
A
100
AcDbSymbolTable
 70
     8
  0
DIMSTYLE
105
1D
100
AcDbSymbolTableRecord
100
AcDbDimStyleTableRecord
  2
STANDARD
 70
     0
  3

  4

  5

  6

  7

 40
1.0
 41
0.18
 42
0.0625
 43
0.38
 44
0.18
 45
0.0
 46
0.0
 47
0.0
 48
0.0
140
0.18
141
0.09
142
0.0
143
25.4
144
1.0
145
0.0
146
1.0
147
0.09
 71
     0
 72
     0
 73
     1
 74
     1
 75
     0
 76
     0
 77
     0
 78
     0
170
     0
171
     2
172
     0
173
     0
174
     0
175
     0
176
     0
177
     0
178
     0
270
     2
271
     4
272
     4
273
     2
274
     2
340
10
275
     0
280
     0
281
     0
282
     0
283
     1
284
     0
285
     0
286
     0
287
     3
288
     0
  0
DIMSTYLE
105
24
100
AcDbSymbolTableRecord
100
AcDbDimStyleTableRecord
  2
ISO-25
 70
     0
  3

  4

  5

  6

  7

 40
1.0
 41
2.5
 42
0.625
 43
3.75
 44
1.25
 45
0.0
 46
0.0
 47
0.0
 48
0.0
140
2.5
141
2.5
142
0.0
143
0.0394
144
1.0
145
1.0
146
1.0
147
0.625
 71
     0
 72
     0
 73
     1
 74
     0
 75
     0
 76
     0
 77
     1
 78
     8
170
     0
171
     2
172
     1
173
     0
174
     0
175
     0
176
     0
177
     0
178
     0
270
     2
271
     4
272
     4
273
     2
274
     2
340
10
275
     0
280
     0
281
     0
282
     0
283
     1
284
     0
285
     0
286
     0
287
     3
288
     0
  0
DIMSTYLE
105
25
100
AcDbSymbolTableRecord
100
AcDbDimStyleTableRecord
  2
ISO-35
 70
     0
  3

  4

  5

  6

  7

 40
1.0
 41
3.5
 42
0.875
 43
5.25
 44
1.75
 45
0.0
 46
0.0
 47
0.0
 48
0.0
140
3.5
141
3.5
142
0.0
143
0.0394
144
1.0
145
1.4
146
1.0
147
0.875
 71
     0
 72
     0
 73
     1
 74
     0
 75
     0
 76
     0
 77
     1
 78
     8
170
     0
171
     2
172
     1
173
     0
174
     0
175
     0
176
     0
177
     0
178
     0
270
     2
271
     4
272
     4
273
     2
274
     2
340
10
275
     0
280
     0
281
     0
282
     0
283
     1
284
     0
285
     0
286
     0
287
     3
288
     0
  0
DIMSTYLE
105
26
100
AcDbSymbolTableRecord
100
AcDbDimStyleTableRecord
  2
ISO-5
 70
     0
  3

  4

  5

  6

  7

 40
1.0
 41
5.0
 42
1.25
 43
7.5
 44
2.5
 45
0.0
 46
0.0
 47
0.0
 48
0.0
140
5.0
141
5.0
142
0.0
143
0.0394
144
1.0
145
2.0
146
1.0
147
1.25
 71
     0
 72
     0
 73
     1
 74
     0
 75
     0
 76
     0
 77
     1
 78
     8
170
     0
171
     2
172
     1
173
     0
174
     0
175
     0
176
     0
177
     0
178
     0
270
     2
271
     4
272
     4
273
     2
274
     2
340
10
275
     0
280
     0
281
     0
282
     0
283
     1
284
     0
285
     0
286
     0
287
     3
288
     0
  0
DIMSTYLE
105
27
100
AcDbSymbolTableRecord
100
AcDbDimStyleTableRecord
  2
ISO-7
 70
     0
  3

  4

  5

  6

  7

 40
1.0
 41
7.0
 42
1.75
 43
10.5
 44
3.5
 45
0.0
 46
0.0
 47
0.0
 48
0.0
140
7.0
141
7.0
142
0.0
143
0.0394
144
1.0
145
2.8
146
1.0
147
1.75
 71
     0
 72
     0
 73
     1
 74
     0
 75
     0
 76
     0
 77
     1
 78
     8
170
     0
171
     2
172
     1
173
     0
174
     0
175
     0
176
     0
177
     0
178
     0
270
     2
271
     4
272
     4
273
     2
274
     2
340
10
275
     0
280
     0
281
     0
282
     0
283
     1
284
     0
285
     0
286
     0
287
     3
288
     0
  0
DIMSTYLE
105
28
100
AcDbSymbolTableRecord
100
AcDbDimStyleTableRecord
  2
ISO1
 70
     0
  3

  4

  5

  6

  7

 40
1.0
 41
10.0
 42
2.5
 43
15.0
 44
5.0
 45
0.0
 46
0.0
 47
0.0
 48
0.0
140
10.0
141
10.0
142
0.0
143
0.0394
144
1.0
145
4.0
146
1.0
147
2.5
 71
     0
 72
     0
 73
     1
 74
     0
 75
     0
 76
     0
 77
     1
 78
     8
170
     0
171
     2
172
     1
173
     0
174
     0
175
     0
176
     0
177
     0
178
     0
270
     2
271
     4
272
     4
273
     2
274
     2
340
10
275
     0
280
     0
281
     0
282
     0
283
     1
284
     0
285
     0
286
     0
287
     3
288
     0
  0
DIMSTYLE
105
29
100
AcDbSymbolTableRecord
100
AcDbDimStyleTableRecord
  2
ISO1-4
 70
     0
  3

  4

  5

  6

  7

 40
1.0
 41
14.0
 42
3.5
 43
21.0
 44
7.0
 45
0.0
 46
0.0
 47
0.0
 48
0.0
140
14.0
141
14.0
142
0.0
143
0.0394
144
1.0
145
5.6
146
1.0
147
3.5
 71
     0
 72
     0
 73
     1
 74
     0
 75
     0
 76
     0
 77
     1
 78
     8
170
     0
171
     2
172
     1
173
     0
174
     0
175
     0
176
     0
177
     0
178
     0
270
     2
271
     4
272
     4
273
     2
274
     2
340
10
275
     0
280
     0
281
     0
282
     0
283
     1
284
     0
285
     0
286
     0
287
     3
288
     0
  0
DIMSTYLE
105
2A
100
AcDbSymbolTableRecord
100
AcDbDimStyleTableRecord
  2
ISO2
 70
     0
  3

  4

  5

  6

  7

 40
1.0
 41
20.0
 42
5.0
 43
30.0
 44
10.0
 45
0.0
 46
0.0
 47
0.0
 48
0.0
140
20.0
141
20.0
142
0.0
143
0.0394
144
1.0
145
8.0
146
1.0
147
5.0
 71
     0
 72
     0
 73
     1
 74
     0
 75
     0
 76
     0
 77
     1
 78
     8
170
     0
171
     2
172
     1
173
     0
174
     0
175
     0
176
     0
177
     0
178
     0
270
     2
271
     4
272
     4
273
     2
274
     2
340
10
275
     0
280
     0
281
     0
282
     0
283
     1
284
     0
285
     0
286
     0
287
     3
288
     0
  0
ENDTAB
  0
TABLE
  2
BLOCK_RECORD
  5
1
100
AcDbSymbolTable
 70
    36
  0
BLOCK_RECORD
  5
1A
100
AcDbSymbolTableRecord
100
AcDbBlockTableRecord
  2
*MODEL_SPACE
  0
BLOCK_RECORD
  5
17
100
AcDbSymbolTableRecord
100
AcDbBlockTableRecord
  2
*PAPER_SPACE
  0
BLOCK_RECORD
  5
127
100
AcDbSymbolTableRecord
100
AcDbBlockTableRecord
  2
*D0
  0
BLOCK_RECORD
  5
136
100
AcDbSymbolTableRecord
100
AcDbBlockTableRecord
  2
*D1
  0
BLOCK_RECORD
  5
143
100
AcDbSymbolTableRecord
100
AcDbBlockTableRecord
  2
*D2
  0
BLOCK_RECORD
  5
152
100
AcDbSymbolTableRecord
100
AcDbBlockTableRecord
  2
*D3
  0
BLOCK_RECORD
  5
15F
100
AcDbSymbolTableRecord
100
AcDbBlockTableRecord
  2
*D4
  0
BLOCK_RECORD
  5
1DC
100
AcDbSymbolTableRecord
100
AcDbBlockTableRecord
  2
*D5
  0
BLOCK_RECORD
  5
1F4
100
AcDbSymbolTableRecord
100
AcDbBlockTableRecord
  2
*D6
  0
BLOCK_RECORD
  5
2F1
100
AcDbSymbolTableRecord
100
AcDbBlockTableRecord
  2
*D7
  0
BLOCK_RECORD
  5
2FE
100
AcDbSymbolTableRecord
100
AcDbBlockTableRecord
  2
*D8
  0
BLOCK_RECORD
  5
30B
100
AcDbSymbolTableRecord
100
AcDbBlockTableRecord
  2
*D9
  0
BLOCK_RECORD
  5
318
100
AcDbSymbolTableRecord
100
AcDbBlockTableRecord
  2
*D10
  0
BLOCK_RECORD
  5
325
100
AcDbSymbolTableRecord
100
AcDbBlockTableRecord
  2
*D11
  0
BLOCK_RECORD
  5
340
100
AcDbSymbolTableRecord
100
AcDbBlockTableRecord
  2
*D12
  0
BLOCK_RECORD
  5
3DB
100
AcDbSymbolTableRecord
100
AcDbBlockTableRecord
  2
*D13
  0
BLOCK_RECORD
  5
3E9
100
AcDbSymbolTableRecord
100
AcDbBlockTableRecord
  2
*D14
  0
BLOCK_RECORD
  5
415
100
AcDbSymbolTableRecord
100
AcDbBlockTableRecord
  2
*D15
  0
BLOCK_RECORD
  5
44B
100
AcDbSymbolTableRecord
100
AcDbBlockTableRecord
  2
*D16
  0
BLOCK_RECORD
  5
469
100
AcDbSymbolTableRecord
100
AcDbBlockTableRecord
  2
*D17
  0
BLOCK_RECORD
  5
4A9
100
AcDbSymbolTableRecord
100
AcDbBlockTableRecord
  2
*D18
  0
BLOCK_RECORD
  5
4C1
100
AcDbSymbolTableRecord
100
AcDbBlockTableRecord
  2
*D19
  0
BLOCK_RECORD
  5
551
100
AcDbSymbolTableRecord
100
AcDbBlockTableRecord
  2
*D21
  0
BLOCK_RECORD
  5
5DD
100
AcDbSymbolTableRecord
100
AcDbBlockTableRecord
  2
*D23
  0
BLOCK_RECORD
  5
621
100
AcDbSymbolTableRecord
100
AcDbBlockTableRecord
  2
*D24
  0
BLOCK_RECORD
  5
630
100
AcDbSymbolTableRecord
100
AcDbBlockTableRecord
  2
*D25
  0
BLOCK_RECORD
  5
63D
100
AcDbSymbolTableRecord
100
AcDbBlockTableRecord
  2
*D26
  0
BLOCK_RECORD
  5
64C
100
AcDbSymbolTableRecord
100
AcDbBlockTableRecord
  2
*D27
  0
BLOCK_RECORD
  5
659
100
AcDbSymbolTableRecord
100
AcDbBlockTableRecord
  2
*D28
  0
BLOCK_RECORD
  5
668
100
AcDbSymbolTableRecord
100
AcDbBlockTableRecord
  2
*D29
  0
BLOCK_RECORD
  5
6DD
100
AcDbSymbolTableRecord
100
AcDbBlockTableRecord
  2
*X30
  0
BLOCK_RECORD
  5
70A
100
AcDbSymbolTableRecord
100
AcDbBlockTableRecord
  2
*X31
  0
BLOCK_RECORD
  5
72A
100
AcDbSymbolTableRecord
100
AcDbBlockTableRecord
  2
*X32
  0
BLOCK_RECORD
  5
762
100
AcDbSymbolTableRecord
100
AcDbBlockTableRecord
  2
*X33
  0
BLOCK_RECORD
  5
832
100
AcDbSymbolTableRecord
100
AcDbBlockTableRecord
  2
*D34
  0
BLOCK_RECORD
  5
841
100
AcDbSymbolTableRecord
100
AcDbBlockTableRecord
  2
*D35
  0
ENDTAB
  0
ENDSEC
  0
SECTION
  2
BLOCKS
  0
BLOCK
  5
1B
100
AcDbEntity
  8
0
100
AcDbBlockBegin
  2
*MODEL_SPACE
 70
     0
 10
0.0
 20
0.0
 30
0.0
  3
*MODEL_SPACE
  1

  0
ENDBLK
  5
1C
100
AcDbEntity
  8
0
100
AcDbBlockEnd
  0
BLOCK
  5
18
100
AcDbEntity
 67
     1
  8
0
100
AcDbBlockBegin
  2
*PAPER_SPACE
 70
     0
 10
0.0
 20
0.0
 30
0.0
  3
*PAPER_SPACE
  1

  0
ENDBLK
  5
19
100
AcDbEntity
 67
     1
  8
0
100
AcDbBlockEnd
  0
BLOCK
  5
493
100
AcDbEntity
  8
0
100
AcDbBlockBegin
  2
*D0
 70
    65
 10
0.0
 20
0.0
 30
0.0
  3
*D0
  1

  0
LINE
  5
494
100
AcDbEntity
  8
0
  6
BYBLOCK
 62
     0
100
AcDbLine
 10
74.0261
 20
157.217391
 30
0.0
 11
107.595988
 21
157.217391
 31
0.0
  0
LINE
  5
495
100
AcDbEntity
  8
0
  6
BYBLOCK
 62
     0
100
AcDbLine
 10
96.5261
 20
144.217391
 30
0.0
 11
107.595988
 21
144.217391
 31
0.0
  0
LINE
  5
496
100
AcDbEntity
  8
0
  6
BYBLOCK
 62
     0
100
AcDbLine
 10
106.543788
 20
154.617391
 30
0.0
 11
106.543788
 21
146.817391
 31
0.0
  0
SOLID
  5
497
100
AcDbEntity
  8
0
  6
BYBLOCK
 62
     0
100
AcDbTrace
 10
106.110455
 20
154.617391
 30
0.0
 11
106.977122
 21
154.617391
 31
0.0
 12
106.543788
 22
157.217391
 32
0.0
 13
106.543788
 23
157.217391
 33
0.0
  0
SOLID
  5
498
100
AcDbEntity
  8
0
  6
BYBLOCK
 62
     0
100
AcDbTrace
 10
106.110455
 20
146.817391
 30
0.0
 11
106.977122
 21
146.817391
 31
0.0
 12
106.543788
 22
144.217391
 32
0.0
 13
106.543788
 23
144.217391
 33
0.0
  0
MTEXT
  5
499
100
AcDbEntity
  8
0
  6
BYBLOCK
 62
     0
100
AcDbMText
 10
104.513788
 20
150.717391
 30
0.0
 40
3.0
 41
0.0
 71
     5
 72
     1
  1
\A1;13
 11
0.0
 21
1.0
 31
0.0
  0
POINT
  5
49A
100
AcDbEntity
  8
DEFPOINTS
  6
BYBLOCK
 62
     0
100
AcDbPoint
 10
73.5
 20
157.217391
 30
0.0
  0
POINT
  5
49B
100
AcDbEntity
  8
DEFPOINTS
  6
BYBLOCK
 62
     0
100
AcDbPoint
 10
96.0
 20
144.217391
 30
0.0
  0
POINT
  5
49C
100
AcDbEntity
  8
DEFPOINTS
  6
BYBLOCK
 62
     0
100
AcDbPoint
 10
106.543788
 20
144.217391
 30
0.0
  0
ENDBLK
  5
49D
100
AcDbEntity
  8
0
100
AcDbBlockEnd
  0
BLOCK
  5
49E
100
AcDbEntity
  8
0
100
AcDbBlockBegin
  2
*D1
 70
    65
 10
0.0
 20
0.0
 30
0.0
  3
*D1
  1

  0
LINE
  5
49F
100
AcDbEntity
  8
0
  6
BYBLOCK
 62
     0
100
AcDbLine
 10
70.0261
 20
162.180382
 30
0.0
 11
115.257176
 21
162.180382
 31
0.0
  0
LINE
  5
4A0
100
AcDbEntity
  8
0
  6
BYBLOCK
 62
     0
100
AcDbLine
 10
96.5261
 20
144.217391
 30
0.0
 11
115.257176
 21
144.217391
 31
0.0
  0
LINE
  5
4A1
100
AcDbEntity
  8
0
  6
BYBLOCK
 62
     0
100
AcDbLine
 10
114.204976
 20
159.580382
 30
0.0
 11
114.204976
 21
146.817391
 31
0.0
  0
SOLID
  5
4A2
100
AcDbEntity
  8
0
  6
BYBLOCK
 62
     0
100
AcDbTrace
 10
113.771643
 20
159.580382
 30
0.0
 11
114.638309
 21
159.580382
 31
0.0
 12
114.204976
 22
162.180382
 32
0.0
 13
114.204976
 23
162.180382
 33
0.0
  0
SOLID
  5
4A3
100
AcDbEntity
  8
0
  6
BYBLOCK
 62
     0
100
AcDbTrace
 10
113.771643
 20
146.817391
 30
0.0
 11
114.638309
 21
146.817391
 31
0.0
 12
114.204976
 22
144.217391
 32
0.0
 13
114.204976
 23
144.217391
 33
0.0
  0
MTEXT
  5
4A4
100
AcDbEntity
  8
0
  6
BYBLOCK
 62
     0
100
AcDbMText
 10
112.174976
 20
153.198887
 30
0.0
 40
3.0
 41
0.0
 71
     5
 72
     1
  1
\A1;{18}
 11
0.0
 21
1.0
 31
0.0
  0
POINT
  5
4A5
100
AcDbEntity
  8
DEFPOINTS
  6
BYBLOCK
 62
     0
100
AcDbPoint
 10
69.5
 20
162.180382
 30
0.0
  0
POINT
  5
4A6
100
AcDbEntity
  8
DEFPOINTS
  6
BYBLOCK
 62
     0
100
AcDbPoint
 10
96.0
 20
144.217391
 30
0.0
  0
POINT
  5
4A7
100
AcDbEntity
  8
DEFPOINTS
  6
BYBLOCK
 62
     0
100
AcDbPoint
 10
114.204976
 20
144.217391
 30
0.0
  0
ENDBLK
  5
4A8
100
AcDbEntity
  8
0
100
AcDbBlockEnd
  0
BLOCK
  5
51E
100
AcDbEntity
  8
0
100
AcDbBlockBegin
  2
*D2
 70
    65
 10
0.0
 20
0.0
 30
0.0
  3
*D2
  1

  0
LINE
  5
51F
100
AcDbEntity
  8
0
  6
BYBLOCK
 62
     0
100
AcDbLine
 10
65.5
 20
143.691291
 30
0.0
 11
65.5
 21
134.53856
 31
0.0
  0
LINE
  5
520
100
AcDbEntity
  8
0
  6
BYBLOCK
 62
     0
100
AcDbLine
 10
73.5
 20
143.691291
 30
0.0
 11
73.5
 21
134.53856
 31
0.0
  0
LINE
  5
521
100
AcDbEntity
  8
0
  6
BYBLOCK
 62
     0
100
AcDbLine
 10
62.9
 20
135.59076
 30
0.0
 11
60.3
 21
135.59076
 31
0.0
  0
LINE
  5
522
100
AcDbEntity
  8
0
  6
BYBLOCK
 62
     0
100
AcDbLine
 10
76.1
 20
135.59076
 30
0.0
 11
78.7
 21
135.59076
 31
0.0
  0
LINE
  5
523
100
AcDbEntity
  8
0
  6
BYBLOCK
 62
     0
100
AcDbLine
 10
65.5
 20
135.59076
 30
0.0
 11
73.5
 21
135.59076
 31
0.0
  0
SOLID
  5
524
100
AcDbEntity
  8
0
  6
BYBLOCK
 62
     0
100
AcDbTrace
 10
62.9
 20
136.024093
 30
0.0
 11
62.9
 21
135.157426
 31
0.0
 12
65.5
 22
135.59076
 32
0.0
 13
65.5
 23
135.59076
 33
0.0
  0
SOLID
  5
525
100
AcDbEntity
  8
0
  6
BYBLOCK
 62
     0
100
AcDbTrace
 10
76.1
 20
136.024093
 30
0.0
 11
76.1
 21
135.157426
 31
0.0
 12
73.5
 22
135.59076
 32
0.0
 13
73.5
 23
135.59076
 33
0.0
  0
MTEXT
  5
526
100
AcDbEntity
  8
0
  6
BYBLOCK
 62
     0
100
AcDbMText
 10
69.5
 20
137.62076
 30
0.0
 40
3.0
 41
0.0
 71
     5
 72
     1
  1
\A1;{M8}
  0
POINT
  5
527
100
AcDbEntity
  8
DEFPOINTS
  6
BYBLOCK
 62
     0
100
AcDbPoint
 10
65.5
 20
144.217391
 30
0.0
  0
POINT
  5
528
100
AcDbEntity
  8
DEFPOINTS
  6
BYBLOCK
 62
     0
100
AcDbPoint
 10
73.5
 20
144.217391
 30
0.0
  0
POINT
  5
529
100
AcDbEntity
  8
DEFPOINTS
  6
BYBLOCK
 62
     0
100
AcDbPoint
 10
73.5
 20
135.59076
 30
0.0
  0
ENDBLK
  5
52A
100
AcDbEntity
  8
0
100
AcDbBlockEnd
  0
BLOCK
  5
4B6
100
AcDbEntity
  8
0
100
AcDbBlockBegin
  2
*D3
 70
    65
 10
0.0
 20
0.0
 30
0.0
  3
*D3
  1

  0
LINE
  5
4B7
100
AcDbEntity
  8
0
  6
BYBLOCK
 62
     0
100
AcDbLine
 10
41.9739
 20
175.217391
 30
0.0
 11
34.892397
 21
175.217391
 31
0.0
  0
LINE
  5
4B8
100
AcDbEntity
  8
0
  6
BYBLOCK
 62
     0
100
AcDbLine
 10
42.4739
 20
144.217391
 30
0.0
 11
34.892397
 21
144.217391
 31
0.0
  0
LINE
  5
4B9
100
AcDbEntity
  8
0
  6
BYBLOCK
 62
     0
100
AcDbLine
 10
35.944597
 20
172.617391
 30
0.0
 11
35.944597
 21
146.817391
 31
0.0
  0
SOLID
  5
4BA
100
AcDbEntity
  8
0
  6
BYBLOCK
 62
     0
100
AcDbTrace
 10
35.511263
 20
172.617391
 30
0.0
 11
36.37793
 21
172.617391
 31
0.0
 12
35.944597
 22
175.217391
 32
0.0
 13
35.944597
 23
175.217391
 33
0.0
  0
SOLID
  5
4BB
100
AcDbEntity
  8
0
  6
BYBLOCK
 62
     0
100
AcDbTrace
 10
35.511263
 20
146.817391
 30
0.0
 11
36.37793
 21
146.817391
 31
0.0
 12
35.944597
 22
144.217391
 32
0.0
 13
35.944597
 23
144.217391
 33
0.0
  0
MTEXT
  5
4BC
100
AcDbEntity
  8
0
  6
BYBLOCK
 62
     0
100
AcDbMText
 10
31.988711
 20
159.717391
 30
0.0
 40
3.0
 41
0.0
 71
     5
 72
     1
  1
\A1;31\S 0.00^ -0.02;
 11
0.0
 21
1.0
 31
0.0
  0
POINT
  5
4BD
100
AcDbEntity
  8
DEFPOINTS
  6
BYBLOCK
 62
     0
100
AcDbPoint
 10
42.5
 20
175.217391
 30
0.0
  0
POINT
  5
4BE
100
AcDbEntity
  8
DEFPOINTS
  6
BYBLOCK
 62
     0
100
AcDbPoint
 10
43.0
 20
144.217391
 30
0.0
  0
POINT
  5
4BF
100
AcDbEntity
  8
DEFPOINTS
  6
BYBLOCK
 62
     0
100
AcDbPoint
 10
35.944597
 20
144.217391
 30
0.0
  0
ENDBLK
  5
4C0
100
AcDbEntity
  8
0
100
AcDbBlockEnd
  0
BLOCK
  5
52B
100
AcDbEntity
  8
0
100
AcDbBlockBegin
  2
*D4
 70
    65
 10
0.0
 20
0.0
 30
0.0
  3
*D4
  1

  0
LINE
  5
52C
100
AcDbEntity
  8
0
  6
BYBLOCK
 62
     0
100
AcDbLine
 10
42.0
 20
144.691291
 30
0.0
 11
42.0
 21
117.255276
 31
0.0
  0
LINE
  5
52D
100
AcDbEntity
  8
0
  6
BYBLOCK
 62
     0
100
AcDbLine
 10
97.0
 20
144.691291
 30
0.0
 11
97.0
 21
117.255276
 31
0.0
  0
LINE
  5
52E
100
AcDbEntity
  8
0
  6
BYBLOCK
 62
     0
100
AcDbLine
 10
44.6
 20
118.307476
 30
0.0
 11
94.4
 21
118.307476
 31
0.0
  0
SOLID
  5
52F
100
AcDbEntity
  8
0
  6
BYBLOCK
 62
     0
100
AcDbTrace
 10
44.6
 20
118.740809
 30
0.0
 11
44.6
 21
117.874143
 31
0.0
 12
42.0
 22
118.307476
 32
0.0
 13
42.0
 23
118.307476
 33
0.0
  0
SOLID
  5
530
100
AcDbEntity
  8
0
  6
BYBLOCK
 62
     0
100
AcDbTrace
 10
94.4
 20
118.740809
 30
0.0
 11
94.4
 21
117.874143
 31
0.0
 12
97.0
 22
118.307476
 32
0.0
 13
97.0
 23
118.307476
 33
0.0
  0
MTEXT
  5
531
100
AcDbEntity
  8
0
  6
BYBLOCK
 62
     0
100
AcDbMText
 10
69.5
 20
120.337771
 30
0.0
 40
3.0
 41
0.0
 71
     5
 72
     1
  1
\A1;55±0.02
  0
POINT
  5
532
100
AcDbEntity
  8
DEFPOINTS
  6
BYBLOCK
 62
     0
100
AcDbPoint
 10
42.0
 20
145.217391
 30
0.0
  0
POINT
  5
533
100
AcDbEntity
  8
DEFPOINTS
  6
BYBLOCK
 62
     0
100
AcDbPoint
 10
97.0
 20
145.217391
 30
0.0
  0
POINT
  5
534
100
AcDbEntity
  8
DEFPOINTS
  6
BYBLOCK
 62
     0
100
AcDbPoint
 10
97.0
 20
118.307476
 30
0.0
  0
ENDBLK
  5
535
100
AcDbEntity
  8
0
100
AcDbBlockEnd
  0
BLOCK
  5
7E6
100
AcDbEntity
  8
0
100
AcDbBlockBegin
  2
*D5
 70
    65
 10
0.0
 20
0.0
 30
0.0
  3
*D5
  1

  0
LINE
  5
7E7
100
AcDbEntity
  8
0
  6
BYBLOCK
 62
     0
100
AcDbLine
 10
118.84411
 20
225.073072
 30
0.0
 11
108.711388
 21
212.570645
 31
0.0
  0
LINE
  5
7E8
100
AcDbEntity
  8
0
  6
BYBLOCK
 62
     0
100
AcDbLine
 10
121.110806
 20
227.869872
 30
0.0
 11
120.481168
 21
227.092983
 31
0.0
  0
SOLID
  5
7E9
100
AcDbEntity
  8
0
  6
BYBLOCK
 62
     0
100
AcDbTrace
 10
118.507459
 20
225.345915
 30
0.0
 11
119.180762
 21
224.800229
 31
0.0
 12
120.481168
 22
227.092983
 32
0.0
 13
120.481168
 23
227.092983
 33
0.0
  0
MTEXT
  5
7EA
100
AcDbEntity
  8
0
  6
BYBLOCK
 62
     0
100
AcDbMText
 10
109.649186
 20
216.951838
 30
0.0
 40
3.0
 41
0.0
 71
     5
 72
     1
  1
\A1;{R0.6}
 11
0.629638
 21
0.776889
 31
0.0
  0
LINE
  5
7EB
100
AcDbEntity
  8
0
  6
BYBLOCK
 62
     0
100
AcDbLine
 10
119.006406
 20
227.869872
 30
0.0
 11
123.215206
 21
227.869872
 31
0.0
  0
LINE
  5
7EC
100
AcDbEntity
  8
0
  6
BYBLOCK
 62
     0
100
AcDbLine
 10
121.110806
 20
225.765472
 30
0.0
 11
121.110806
 21
229.974272
 31
0.0
  0
POINT
  5
7ED
100
AcDbEntity
  8
DEFPOINTS
  6
BYBLOCK
 62
     0
100
AcDbPoint
 10
120.481168
 20
227.092983
 30
0.0
  0
POINT
  5
7EE
100
AcDbEntity
  8
DEFPOINTS
  6
BYBLOCK
 62
     0
100
AcDbPoint
 10
121.110806
 20
227.869872
 30
0.0
  0
ENDBLK
  5
7EF
100
AcDbEntity
  8
0
100
AcDbBlockEnd
  0
BLOCK
  5
7FA
100
AcDbEntity
  8
0
100
AcDbBlockBegin
  2
*D6
 70
    65
 10
0.0
 20
0.0
 30
0.0
  3
*D6
  1

  0
LINE
  5
7FB
100
AcDbEntity
  8
0
  6
BYBLOCK
 62
     0
100
AcDbLine
 10
163.851208
 20
224.31939
 30
0.0
 11
154.003446
 21
213.989045
 31
0.0
  0
LINE
  5
7FC
100
AcDbEntity
  8
0
  6
BYBLOCK
 62
     0
100
AcDbLine
 10
166.473201
 20
227.069872
 30
0.0
 11
165.645203
 21
226.201299
 31
0.0
  0
SOLID
  5
7FD
100
AcDbEntity
  8
0
  6
BYBLOCK
 62
     0
100
AcDbTrace
 10
163.537557
 20
224.618389
 30
0.0
 11
164.164859
 21
224.020391
 31
0.0
 12
165.645203
 22
226.201299
 32
0.0
 13
165.645203
 23
226.201299
 33
0.0
  0
MTEXT
  5
7FE
100
AcDbEntity
  8
0
  6
BYBLOCK
 62
     0
100
AcDbMText
 10
153.934806
 20
216.859078
 30
0.0
 40
3.0
 41
0.0
 71
     5
 72
     1
  1
\A1;{R1}
 11
0.689998
 21
0.723811
 31
0.0
  0
LINE
  5
7FF
100
AcDbEntity
  8
0
  6
BYBLOCK
 62
     0
100
AcDbLine
 10
164.368801
 20
227.069872
 30
0.0
 11
168.577601
 21
227.069872
 31
0.0
  0
LINE
  5
800
100
AcDbEntity
  8
0
  6
BYBLOCK
 62
     0
100
AcDbLine
 10
166.473201
 20
224.965472
 30
0.0
 11
166.473201
 21
229.174272
 31
0.0
  0
POINT
  5
801
100
AcDbEntity
  8
DEFPOINTS
  6
BYBLOCK
 62
     0
100
AcDbPoint
 10
165.645203
 20
226.201299
 30
0.0
  0
POINT
  5
802
100
AcDbEntity
  8
DEFPOINTS
  6
BYBLOCK
 62
     0
100
AcDbPoint
 10
166.473201
 20
227.069872
 30
0.0
  0
ENDBLK
  5
803
100
AcDbEntity
  8
0
100
AcDbBlockEnd
  0
BLOCK
  5
2F2
100
AcDbEntity
  8
0
100
AcDbBlockBegin
  2
*D7
 70
    65
 10
0.0
 20
0.0
 30
0.0
  3
*D7
  1

  0
LINE
  5
2F3
100
AcDbEntity
  8
0
  6
BYBLOCK
 62
     0
100
AcDbLine
 10
45.055909
 20
68.536088
 30
0.0
 11
45.055909
 21
77.639304
 31
0.0
  0
LINE
  5
2F4
100
AcDbEntity
  8
0
  6
BYBLOCK
 62
     0
100
AcDbLine
 10
65.855909
 20
68.536088
 30
0.0
 11
65.855909
 21
77.639304
 31
0.0
  0
LINE
  5
2F5
100
AcDbEntity
  8
0
  6
BYBLOCK
 62
     0
100
AcDbLine
 10
47.655909
 20
76.587104
 30
0.0
 11
63.255909
 21
76.587104
 31
0.0
  0
SOLID
  5
2F6
100
AcDbEntity
  8
0
  6
BYBLOCK
 62
     0
100
AcDbTrace
 10
47.655909
 20
77.020438
 30
0.0
 11
47.655909
 21
76.153771
 31
0.0
 12
45.055909
 22
76.587104
 32
0.0
 13
45.055909
 23
76.587104
 33
0.0
  0
SOLID
  5
2F7
100
AcDbEntity
  8
0
  6
BYBLOCK
 62
     0
100
AcDbTrace
 10
63.255909
 20
77.020438
 30
0.0
 11
63.255909
 21
76.153771
 31
0.0
 12
65.855909
 22
76.587104
 32
0.0
 13
65.855909
 23
76.587104
 33
0.0
  0
MTEXT
  5
2F8
100
AcDbEntity
  8
0
  6
BYBLOCK
 62
     0
100
AcDbMText
 10
55.455909
 20
78.617104
 30
0.0
 40
3.0
 41
0.0
 71
     5
 72
     1
  1
\A1;{104}
  0
POINT
  5
2F9
100
AcDbEntity
  8
DEFPOINTS
  6
BYBLOCK
 62
     0
100
AcDbPoint
 10
45.055909
 20
68.009988
 30
0.0
  0
POINT
  5
2FA
100
AcDbEntity
  8
DEFPOINTS
  6
BYBLOCK
 62
     0
100
AcDbPoint
 10
65.855909
 20
68.009988
 30
0.0
  0
POINT
  5
2FB
100
AcDbEntity
  8
DEFPOINTS
  6
BYBLOCK
 62
     0
100
AcDbPoint
 10
65.855909
 20
76.587104
 30
0.0
  0
ENDBLK
  5
2FC
100
AcDbEntity
  8
0
100
AcDbBlockEnd
  0
BLOCK
  5
2FF
100
AcDbEntity
  8
0
100
AcDbBlockBegin
  2
*D8
 70
    65
 10
0.0
 20
0.0
 30
0.0
  3
*D8
  1

  0
LINE
  5
300
100
AcDbEntity
  8
0
  6
BYBLOCK
 62
     0
100
AcDbLine
 10
65.855909
 20
68.536088
 30
0.0
 11
65.855909
 21
77.639304
 31
0.0
  0
LINE
  5
301
100
AcDbEntity
  8
0
  6
BYBLOCK
 62
     0
100
AcDbLine
 10
107.655909
 20
68.536088
 30
0.0
 11
107.655909
 21
77.639304
 31
0.0
  0
LINE
  5
302
100
AcDbEntity
  8
0
  6
BYBLOCK
 62
     0
100
AcDbLine
 10
68.455909
 20
76.587104
 30
0.0
 11
105.055909
 21
76.587104
 31
0.0
  0
SOLID
  5
303
100
AcDbEntity
  8
0
  6
BYBLOCK
 62
     0
100
AcDbTrace
 10
68.455909
 20
77.020438
 30
0.0
 11
68.455909
 21
76.153771
 31
0.0
 12
65.855909
 22
76.587104
 32
0.0
 13
65.855909
 23
76.587104
 33
0.0
  0
SOLID
  5
304
100
AcDbEntity
  8
0
  6
BYBLOCK
 62
     0
100
AcDbTrace
 10
105.055909
 20
77.020438
 30
0.0
 11
105.055909
 21
76.153771
 31
0.0
 12
107.655909
 22
76.587104
 32
0.0
 13
107.655909
 23
76.587104
 33
0.0
  0
MTEXT
  5
305
100
AcDbEntity
  8
0
  6
BYBLOCK
 62
     0
100
AcDbMText
 10
86.755909
 20
78.617104
 30
0.0
 40
3.0
 41
0.0
 71
     5
 72
     1
  1
\A1;{209}
  0
POINT
  5
306
100
AcDbEntity
  8
DEFPOINTS
  6
BYBLOCK
 62
     0
100
AcDbPoint
 10
65.855909
 20
68.009988
 30
0.0
  0
POINT
  5
307
100
AcDbEntity
  8
DEFPOINTS
  6
BYBLOCK
 62
     0
100
AcDbPoint
 10
107.655909
 20
68.009988
 30
0.0
  0
POINT
  5
308
100
AcDbEntity
  8
DEFPOINTS
  6
BYBLOCK
 62
     0
100
AcDbPoint
 10
107.655909
 20
76.587104
 30
0.0
  0
ENDBLK
  5
309
100
AcDbEntity
  8
0
100
AcDbBlockEnd
  0
BLOCK
  5
30C
100
AcDbEntity
  8
0
100
AcDbBlockBegin
  2
*D9
 70
    65
 10
0.0
 20
0.0
 30
0.0
  3
*D9
  1

  0
LINE
  5
30D
100
AcDbEntity
  8
0
  6
BYBLOCK
 62
     0
100
AcDbLine
 10
107.655909
 20
68.536088
 30
0.0
 11
107.655909
 21
77.639304
 31
0.0
  0
LINE
  5
30E
100
AcDbEntity
  8
0
  6
BYBLOCK
 62
     0
100
AcDbLine
 10
149.455909
 20
68.536088
 30
0.0
 11
149.455909
 21
77.639304
 31
0.0
  0
LINE
  5
30F
100
AcDbEntity
  8
0
  6
BYBLOCK
 62
     0
100
AcDbLine
 10
110.255909
 20
76.587104
 30
0.0
 11
146.855909
 21
76.587104
 31
0.0
  0
SOLID
  5
310
100
AcDbEntity
  8
0
  6
BYBLOCK
 62
     0
100
AcDbTrace
 10
110.255909
 20
77.020438
 30
0.0
 11
110.255909
 21
76.153771
 31
0.0
 12
107.655909
 22
76.587104
 32
0.0
 13
107.655909
 23
76.587104
 33
0.0
  0
SOLID
  5
311
100
AcDbEntity
  8
0
  6
BYBLOCK
 62
     0
100
AcDbTrace
 10
146.855909
 20
77.020438
 30
0.0
 11
146.855909
 21
76.153771
 31
0.0
 12
149.455909
 22
76.587104
 32
0.0
 13
149.455909
 23
76.587104
 33
0.0
  0
MTEXT
  5
312
100
AcDbEntity
  8
0
  6
BYBLOCK
 62
     0
100
AcDbMText
 10
128.555909
 20
78.617104
 30
0.0
 40
3.0
 41
0.0
 71
     5
 72
     1
  1
\A1;{209}
  0
POINT
  5
313
100
AcDbEntity
  8
DEFPOINTS
  6
BYBLOCK
 62
     0
100
AcDbPoint
 10
107.655909
 20
68.009988
 30
0.0
  0
POINT
  5
314
100
AcDbEntity
  8
DEFPOINTS
  6
BYBLOCK
 62
     0
100
AcDbPoint
 10
149.455909
 20
68.009988
 30
0.0
  0
POINT
  5
315
100
AcDbEntity
  8
DEFPOINTS
  6
BYBLOCK
 62
     0
100
AcDbPoint
 10
149.455909
 20
76.587104
 30
0.0
  0
ENDBLK
  5
316
100
AcDbEntity
  8
0
100
AcDbBlockEnd
  0
BLOCK
  5
319
100
AcDbEntity
  8
0
100
AcDbBlockBegin
  2
*D10
 70
    65
 10
0.0
 20
0.0
 30
0.0
  3
*D10
  1

  0
LINE
  5
31A
100
AcDbEntity
  8
0
  6
BYBLOCK
 62
     0
100
AcDbLine
 10
149.455909
 20
68.536088
 30
0.0
 11
149.455909
 21
77.639305
 31
0.0
  0
LINE
  5
31B
100
AcDbEntity
  8
0
  6
BYBLOCK
 62
     0
100
AcDbLine
 10
191.255909
 20
68.536088
 30
0.0
 11
191.255909
 21
77.639305
 31
0.0
  0
LINE
  5
31C
100
AcDbEntity
  8
0
  6
BYBLOCK
 62
     0
100
AcDbLine
 10
152.055909
 20
76.587105
 30
0.0
 11
188.655909
 21
76.587105
 31
0.0
  0
SOLID
  5
31D
100
AcDbEntity
  8
0
  6
BYBLOCK
 62
     0
100
AcDbTrace
 10
152.055909
 20
77.020438
 30
0.0
 11
152.055909
 21
76.153771
 31
0.0
 12
149.455909
 22
76.587105
 32
0.0
 13
149.455909
 23
76.587105
 33
0.0
  0
SOLID
  5
31E
100
AcDbEntity
  8
0
  6
BYBLOCK
 62
     0
100
AcDbTrace
 10
188.655909
 20
77.020438
 30
0.0
 11
188.655909
 21
76.153771
 31
0.0
 12
191.255909
 22
76.587105
 32
0.0
 13
191.255909
 23
76.587105
 33
0.0
  0
MTEXT
  5
31F
100
AcDbEntity
  8
0
  6
BYBLOCK
 62
     0
100
AcDbMText
 10
170.355909
 20
78.617105
 30
0.0
 40
3.0
 41
0.0
 71
     5
 72
     1
  1
\A1;{209}
  0
POINT
  5
320
100
AcDbEntity
  8
DEFPOINTS
  6
BYBLOCK
 62
     0
100
AcDbPoint
 10
149.455909
 20
68.009988
 30
0.0
  0
POINT
  5
321
100
AcDbEntity
  8
DEFPOINTS
  6
BYBLOCK
 62
     0
100
AcDbPoint
 10
191.255909
 20
68.009988
 30
0.0
  0
POINT
  5
322
100
AcDbEntity
  8
DEFPOINTS
  6
BYBLOCK
 62
     0
100
AcDbPoint
 10
191.255909
 20
76.587105
 30
0.0
  0
ENDBLK
  5
323
100
AcDbEntity
  8
0
100
AcDbBlockEnd
  0
BLOCK
  5
326
100
AcDbEntity
  8
0
100
AcDbBlockBegin
  2
*D11
 70
    65
 10
0.0
 20
0.0
 30
0.0
  3
*D11
  1

  0
LINE
  5
327
100
AcDbEntity
  8
0
  6
BYBLOCK
 62
     0
100
AcDbLine
 10
191.255909
 20
68.536088
 30
0.0
 11
191.255909
 21
77.639305
 31
0.0
  0
LINE
  5
328
100
AcDbEntity
  8
0
  6
BYBLOCK
 62
     0
100
AcDbLine
 10
212.055909
 20
68.536088
 30
0.0
 11
212.055909
 21
77.639305
 31
0.0
  0
LINE
  5
329
100
AcDbEntity
  8
0
  6
BYBLOCK
 62
     0
100
AcDbLine
 10
193.855909
 20
76.587105
 30
0.0
 11
209.455909
 21
76.587105
 31
0.0
  0
SOLID
  5
32A
100
AcDbEntity
  8
0
  6
BYBLOCK
 62
     0
100
AcDbTrace
 10
193.855909
 20
77.020438
 30
0.0
 11
193.855909
 21
76.153771
 31
0.0
 12
191.255909
 22
76.587105
 32
0.0
 13
191.255909
 23
76.587105
 33
0.0
  0
SOLID
  5
32B
100
AcDbEntity
  8
0
  6
BYBLOCK
 62
     0
100
AcDbTrace
 10
209.455909
 20
77.020438
 30
0.0
 11
209.455909
 21
76.153771
 31
0.0
 12
212.055909
 22
76.587105
 32
0.0
 13
212.055909
 23
76.587105
 33
0.0
  0
MTEXT
  5
32C
100
AcDbEntity
  8
0
  6
BYBLOCK
 62
     0
100
AcDbMText
 10
201.655909
 20
78.617105
 30
0.0
 40
3.0
 41
0.0
 71
     5
 72
     1
  1
\A1;{104}
  0
POINT
  5
32D
100
AcDbEntity
  8
DEFPOINTS
  6
BYBLOCK
 62
     0
100
AcDbPoint
 10
191.255909
 20
68.009988
 30
0.0
  0
POINT
  5
32E
100
AcDbEntity
  8
DEFPOINTS
  6
BYBLOCK
 62
     0
100
AcDbPoint
 10
212.055909
 20
68.009988
 30
0.0
  0
POINT
  5
32F
100
AcDbEntity
  8
DEFPOINTS
  6
BYBLOCK
 62
     0
100
AcDbPoint
 10
212.055909
 20
76.587105
 30
0.0
  0
ENDBLK
  5
330
100
AcDbEntity
  8
0
100
AcDbBlockEnd
  0
BLOCK
  5
341
100
AcDbEntity
  8
0
100
AcDbBlockBegin
  2
*D12
 70
    65
 10
0.0
 20
0.0
 30
0.0
  3
*D12
  1

  0
LINE
  5
342
100
AcDbEntity
  8
0
  6
BYBLOCK
 62
     0
100
AcDbLine
 10
45.055909
 20
68.536088
 30
0.0
 11
45.055909
 21
87.036375
 31
0.0
  0
LINE
  5
343
100
AcDbEntity
  8
0
  6
BYBLOCK
 62
     0
100
AcDbLine
 10
212.055909
 20
68.536088
 30
0.0
 11
212.055909
 21
87.036375
 31
0.0
  0
LINE
  5
344
100
AcDbEntity
  8
0
  6
BYBLOCK
 62
     0
100
AcDbLine
 10
47.655909
 20
85.984175
 30
0.0
 11
209.455909
 21
85.984175
 31
0.0
  0
SOLID
  5
345
100
AcDbEntity
  8
0
  6
BYBLOCK
 62
     0
100
AcDbTrace
 10
47.655909
 20
86.417509
 30
0.0
 11
47.655909
 21
85.550842
 31
0.0
 12
45.055909
 22
85.984175
 32
0.0
 13
45.055909
 23
85.984175
 33
0.0
  0
SOLID
  5
346
100
AcDbEntity
  8
0
  6
BYBLOCK
 62
     0
100
AcDbTrace
 10
209.455909
 20
86.417509
 30
0.0
 11
209.455909
 21
85.550842
 31
0.0
 12
212.055909
 22
85.984175
 32
0.0
 13
212.055909
 23
85.984175
 33
0.0
  0
MTEXT
  5
347
100
AcDbEntity
  8
0
  6
BYBLOCK
 62
     0
100
AcDbMText
 10
128.555909
 20
88.014175
 30
0.0
 40
3.0
 41
0.0
 71
     5
 72
     1
  1
\A1;{835}
  0
POINT
  5
348
100
AcDbEntity
  8
DEFPOINTS
  6
BYBLOCK
 62
     0
100
AcDbPoint
 10
45.055909
 20
68.009988
 30
0.0
  0
POINT
  5
349
100
AcDbEntity
  8
DEFPOINTS
  6
BYBLOCK
 62
     0
100
AcDbPoint
 10
212.055909
 20
68.009988
 30
0.0
  0
POINT
  5
34A
100
AcDbEntity
  8
DEFPOINTS
  6
BYBLOCK
 62
     0
100
AcDbPoint
 10
212.055909
 20
85.984175
 30
0.0
  0
ENDBLK
  5
34B
100
AcDbEntity
  8
0
100
AcDbBlockEnd
  0
BLOCK
  5
3DC
100
AcDbEntity
  8
0
100
AcDbBlockBegin
  2
*D13
 70
    65
 10
0.0
 20
0.0
 30
0.0
  3
*D13
  1

  0
LINE
  5
3DD
100
AcDbEntity
  8
0
  6
BYBLOCK
 62
     0
100
AcDbLine
 10
142.314447
 20
175.375608
 30
0.0
 11
127.201017
 21
175.375608
 31
0.0
  0
ARC
  5
3DE
100
AcDbEntity
  8
0
  6
BYBLOCK
 62
     0
100
AcDbCircle
 10
142.840547
 20
175.375608
 30
0.0
 40
14.58733
100
AcDbArc
 50
190.225787
 51
259.774213
  0
SOLID
  5
3DF
100
AcDbEntity
  8
0
  6
BYBLOCK
 62
     0
100
AcDbTrace
 10
128.053316
 20
172.747336
 30
0.0
 11
128.916535
 21
172.824572
 31
0.0
 12
128.253217
 22
175.375608
 32
0.0
 13
128.253217
 23
175.375608
 33
0.0
  0
SOLID
  5
3E0
100
AcDbEntity
  8
0
  6
BYBLOCK
 62
     0
100
AcDbTrace
 10
140.289511
 20
161.451596
 30
0.0
 11
140.212275
 21
160.588378
 31
0.0
 12
142.840547
 22
160.788279
 32
0.0
 13
142.840547
 23
160.788279
 33
0.0
  0
MTEXT
  5
3E1
100
AcDbEntity
  8
0
  6
BYBLOCK
 62
     0
100
AcDbMText
 10
133.961174
 20
166.496235
 30
0.0
 40
3.0
 41
0.0
 71
     5
 72
     1
  1
\A1;90°
 11
0.707107
 21
-0.707107
 31
0.0
  0
POINT
  5
3E2
100
AcDbEntity
  8
DEFPOINTS
  6
BYBLOCK
 62
     0
100
AcDbPoint
 10
130.207549
 20
168.081944
 30
0.0
  0
POINT
  5
3E3
100
AcDbEntity
  8
DEFPOINTS
  6
BYBLOCK
 62
     0
100
AcDbPoint
 10
142.840547
 20
175.375608
 30
0.0
  0
POINT
  5
3E4
100
AcDbEntity
  8
DEFPOINTS
  6
BYBLOCK
 62
     0
100
AcDbPoint
 10
142.840547
 20
175.375608
 30
0.0
  0
POINT
  5
3E5
100
AcDbEntity
  8
DEFPOINTS
  6
BYBLOCK
 62
     0
100
AcDbPoint
 10
142.840547
 20
144.375608
 30
0.0
  0
POINT
  5
3E6
100
AcDbEntity
  8
DEFPOINTS
  6
BYBLOCK
 62
     0
100
AcDbPoint
 10
158.338321
 20
175.375608
 30
0.0
  0
ENDBLK
  5
3E7
100
AcDbEntity
  8
0
100
AcDbBlockEnd
  0
BLOCK
  5
3EA
100
AcDbEntity
  8
0
100
AcDbBlockBegin
  2
*D14
 70
    65
 10
0.0
 20
0.0
 30
0.0
  3
*D14
  1

  0
LINE
  5
3EB
100
AcDbEntity
  8
0
  6
BYBLOCK
 62
     0
100
AcDbLine
 10
183.366647
 20
175.375608
 30
0.0
 11
198.453009
 21
175.375608
 31
0.0
  0
ARC
  5
3EC
100
AcDbEntity
  8
0
  6
BYBLOCK
 62
     0
100
AcDbCircle
 10
182.840547
 20
175.375608
 30
0.0
 40
14.560262
100
AcDbArc
 50
280.244848
 51
349.755152
  0
SOLID
  5
3ED
100
AcDbEntity
  8
0
  6
BYBLOCK
 62
     0
100
AcDbTrace
 10
185.468853
 20
160.615883
 30
0.0
 11
185.391474
 21
161.479088
 31
0.0
 12
182.840547
 22
160.815347
 32
0.0
 13
182.840547
 23
160.815347
 33
0.0
  0
SOLID
  5
3EE
100
AcDbEntity
  8
0
  6
BYBLOCK
 62
     0
100
AcDbTrace
 10
196.737068
 20
172.824682
 30
0.0
 11
197.600273
 21
172.747303
 31
0.0
 12
197.400809
 22
175.375608
 32
0.0
 13
197.400809
 23
175.375608
 33
0.0
  0
MTEXT
  5
3EF
100
AcDbEntity
  8
0
  6
BYBLOCK
 62
     0
100
AcDbMText
 10
191.70078
 20
166.515375
 30
0.0
 40
3.0
 41
0.0
 71
     5
 72
     1
  1
\A1;90°
 11
0.707107
 21
0.707107
 31
0.0
  0
POINT
  5
3F0
100
AcDbEntity
  8
DEFPOINTS
  6
BYBLOCK
 62
     0
100
AcDbPoint
 10
190.120678
 20
162.766052
 30
0.0
  0
POINT
  5
3F1
100
AcDbEntity
  8
DEFPOINTS
  6
BYBLOCK
 62
     0
100
AcDbPoint
 10
161.390502
 20
175.375608
 30
0.0
  0
POINT
  5
3F2
100
AcDbEntity
  8
DEFPOINTS
  6
BYBLOCK
 62
     0
100
AcDbPoint
 10
182.840547
 20
175.375608
 30
0.0
  0
POINT
  5
3F3
100
AcDbEntity
  8
DEFPOINTS
  6
BYBLOCK
 62
     0
100
AcDbPoint
 10
182.840547
 20
144.375608
 30
0.0
  0
POINT
  5
3F4
100
AcDbEntity
  8
DEFPOINTS
  6
BYBLOCK
 62
     0
100
AcDbPoint
 10
182.840547
 20
175.375608
 30
0.0
  0
ENDBLK
  5
3F5
100
AcDbEntity
  8
0
100
AcDbBlockEnd
  0
BLOCK
  5
7A8
100
AcDbEntity
  8
0
100
AcDbBlockBegin
  2
*D15
 70
    65
 10
0.0
 20
0.0
 30
0.0
  3
*D15
  1

  0
LINE
  5
7A9
100
AcDbEntity
  8
0
  6
BYBLOCK
 62
     0
100
AcDbLine
 10
139.691326
 20
229.783122
 30
0.0
 11
146.631639
 21
237.779693
 31
0.0
  0
LINE
  5
7AA
100
AcDbEntity
  8
0
  6
BYBLOCK
 62
     0
100
AcDbLine
 10
137.331644
 20
227.064317
 30
0.0
 11
137.987111
 21
227.819541
 31
0.0
  0
SOLID
  5
7AB
100
AcDbEntity
  8
0
  6
BYBLOCK
 62
     0
100
AcDbTrace
 10
139.364062
 20
230.067158
 30
0.0
 11
140.01859
 21
229.499087
 31
0.0
 12
137.987111
 22
227.819541
 32
0.0
 13
137.987111
 23
227.819541
 33
0.0
  0
MTEXT
  5
7AC
100
AcDbEntity
  8
0
  6
BYBLOCK
 62
     0
100
AcDbMText
 10
142.480486
 20
236.093797
 30
0.0
 40
3.0
 41
0.0
 71
     5
 72
     1
  1
\A1;{R0.6}
 11
0.655467
 21
0.755224
 31
0.0
  0
LINE
  5
7AD
100
AcDbEntity
  8
0
  6
BYBLOCK
 62
     0
100
AcDbLine
 10
135.227244
 20
227.064317
 30
0.0
 11
139.436044
 21
227.064317
 31
0.0
  0
LINE
  5
7AE
100
AcDbEntity
  8
0
  6
BYBLOCK
 62
     0
100
AcDbLine
 10
137.331644
 20
224.959917
 30
0.0
 11
137.331644
 21
229.168717
 31
0.0
  0
POINT
  5
7AF
100
AcDbEntity
  8
DEFPOINTS
  6
BYBLOCK
 62
     0
100
AcDbPoint
 10
137.987111
 20
227.819541
 30
0.0
  0
POINT
  5
7B0
100
AcDbEntity
  8
DEFPOINTS
  6
BYBLOCK
 62
     0
100
AcDbPoint
 10
137.331644
 20
227.064317
 30
0.0
  0
ENDBLK
  5
7B1
100
AcDbEntity
  8
0
100
AcDbBlockEnd
  0
BLOCK
  5
80E
100
AcDbEntity
  8
0
100
AcDbBlockBegin
  2
*D16
 70
    65
 10
0.0
 20
0.0
 30
0.0
  3
*D16
  1

  0
LINE
  5
80F
100
AcDbEntity
  8
0
  6
BYBLOCK
 62
     0
100
AcDbLine
 10
186.642924
 20
229.678461
 30
0.0
 11
174.816406
 21
240.843248
 31
0.0
  0
LINE
  5
810
100
AcDbEntity
  8
0
  6
BYBLOCK
 62
     0
100
AcDbLine
 10
189.406122
 20
227.069872
 30
0.0
 11
188.533534
 21
227.893637
 31
0.0
  0
SOLID
  5
811
100
AcDbEntity
  8
0
  6
BYBLOCK
 62
     0
100
AcDbTrace
 10
186.940395
 20
229.993562
 30
0.0
 11
186.345454
 21
229.363359
 31
0.0
 12
188.533534
 22
227.893637
 32
0.0
 13
188.533534
 23
227.893637
 33
0.0
  0
MTEXT
  5
812
100
AcDbEntity
  8
0
  6
BYBLOCK
 62
     0
100
AcDbMText
 10
177.686072
 20
240.925842
 30
0.0
 40
3.0
 41
0.0
 71
     5
 72
     1
  1
\A1;{R1}
 11
0.727157
 21
-0.686471
 31
0.0
  0
LINE
  5
813
100
AcDbEntity
  8
0
  6
BYBLOCK
 62
     0
100
AcDbLine
 10
187.301722
 20
227.069872
 30
0.0
 11
191.510522
 21
227.069872
 31
0.0
  0
LINE
  5
814
100
AcDbEntity
  8
0
  6
BYBLOCK
 62
     0
100
AcDbLine
 10
189.406122
 20
224.965472
 30
0.0
 11
189.406122
 21
229.174272
 31
0.0
  0
POINT
  5
815
100
AcDbEntity
  8
DEFPOINTS
  6
BYBLOCK
 62
     0
100
AcDbPoint
 10
188.533534
 20
227.893637
 30
0.0
  0
POINT
  5
816
100
AcDbEntity
  8
DEFPOINTS
  6
BYBLOCK
 62
     0
100
AcDbPoint
 10
189.406122
 20
227.069872
 30
0.0
  0
ENDBLK
  5
817
100
AcDbEntity
  8
0
100
AcDbBlockEnd
  0
BLOCK
  5
804
100
AcDbEntity
  8
0
100
AcDbBlockBegin
  2
*D17
 70
    65
 10
0.0
 20
0.0
 30
0.0
  3
*D17
  1

  0
LINE
  5
805
100
AcDbEntity
  8
0
  6
BYBLOCK
 62
     0
100
AcDbLine
 10
175.020523
 20
201.713072
 30
0.0
 11
156.934389
 21
195.755575
 31
0.0
  0
LINE
  5
806
100
AcDbEntity
  8
0
  6
BYBLOCK
 62
     0
100
AcDbLine
 10
177.9649
 20
202.682938
 30
0.0
 11
177.490001
 21
202.526508
 31
0.0
  0
SOLID
  5
807
100
AcDbEntity
  8
0
  6
BYBLOCK
 62
     0
100
AcDbTrace
 10
174.88495
 20
202.124652
 30
0.0
 11
175.156095
 21
201.301492
 31
0.0
 12
177.490001
 22
202.526508
 32
0.0
 13
177.490001
 23
202.526508
 33
0.0
  0
MTEXT
  5
808
100
AcDbEntity
  8
0
  6
BYBLOCK
 62
     0
100
AcDbMText
 10
159.937014
 20
198.881921
 30
0.0
 40
3.0
 41
0.0
 71
     5
 72
     1
  1
\A1;{R0.8}
 11
0.949799
 21
0.31286
 31
0.0
  0
LINE
  5
809
100
AcDbEntity
  8
0
  6
BYBLOCK
 62
     0
100
AcDbLine
 10
175.8605
 20
202.682938
 30
0.0
 11
180.0693
 21
202.682938
 31
0.0
  0
LINE
  5
80A
100
AcDbEntity
  8
0
  6
BYBLOCK
 62
     0
100
AcDbLine
 10
177.9649
 20
200.578538
 30
0.0
 11
177.9649
 21
204.787338
 31
0.0
  0
POINT
  5
80B
100
AcDbEntity
  8
DEFPOINTS
  6
BYBLOCK
 62
     0
100
AcDbPoint
 10
177.490001
 20
202.526508
 30
0.0
  0
POINT
  5
80C
100
AcDbEntity
  8
DEFPOINTS
  6
BYBLOCK
 62
     0
100
AcDbPoint
 10
177.9649
 20
202.682938
 30
0.0
  0
ENDBLK
  5
80D
100
AcDbEntity
  8
0
100
AcDbBlockEnd
  0
BLOCK
  5
616
100
AcDbEntity
  8
0
100
AcDbBlockBegin
  2
*D18
 70
    65
 10
0.0
 20
0.0
 30
0.0
  3
*D18
  1

  0
LINE
  5
617
100
AcDbEntity
  8
0
  6
BYBLOCK
 62
     0
100
AcDbLine
 10
87.5261
 20
176.661456
 30
0.0
 11
124.500568
 21
176.661456
 31
0.0
  0
LINE
  5
618
100
AcDbEntity
  8
0
  6
BYBLOCK
 62
     0
100
AcDbLine
 10
96.5261
 20
144.217391
 30
0.0
 11
124.500568
 21
144.217391
 31
0.0
  0
LINE
  5
619
100
AcDbEntity
  8
0
  6
BYBLOCK
 62
     0
100
AcDbLine
 10
123.448368
 20
174.061456
 30
0.0
 11
123.448368
 21
146.817391
 31
0.0
  0
SOLID
  5
61A
100
AcDbEntity
  8
0
  6
BYBLOCK
 62
     0
100
AcDbTrace
 10
123.015035
 20
174.061456
 30
0.0
 11
123.881701
 21
174.061456
 31
0.0
 12
123.448368
 22
176.661456
 32
0.0
 13
123.448368
 23
176.661456
 33
0.0
  0
SOLID
  5
61B
100
AcDbEntity
  8
0
  6
BYBLOCK
 62
     0
100
AcDbTrace
 10
123.015035
 20
146.817391
 30
0.0
 11
123.881701
 21
146.817391
 31
0.0
 12
123.448368
 22
144.217391
 32
0.0
 13
123.448368
 23
144.217391
 33
0.0
  0
MTEXT
  5
61C
100
AcDbEntity
  8
0
  6
BYBLOCK
 62
     0
100
AcDbMText
 10
119.567187
 20
160.439424
 30
0.0
 40
3.0
 41
0.0
 71
     5
 72
     1
  1
\A1;32.44\S+0.05^  0.00;
 11
0.0
 21
1.0
 31
0.0
  0
POINT
  5
61D
100
AcDbEntity
  8
DEFPOINTS
  6
BYBLOCK
 62
     0
100
AcDbPoint
 10
87.0
 20
176.661456
 30
0.0
  0
POINT
  5
61E
100
AcDbEntity
  8
DEFPOINTS
  6
BYBLOCK
 62
     0
100
AcDbPoint
 10
96.0
 20
144.217391
 30
0.0
  0
POINT
  5
61F
100
AcDbEntity
  8
DEFPOINTS
  6
BYBLOCK
 62
     0
100
AcDbPoint
 10
123.448368
 20
144.217391
 30
0.0
  0
ENDBLK
  5
620
100
AcDbEntity
  8
0
100
AcDbBlockEnd
  0
BLOCK
  5
60B
100
AcDbEntity
  8
0
100
AcDbBlockBegin
  2
*D19
 70
    65
 10
0.0
 20
0.0
 30
0.0
  3
*D19
  1

  0
LINE
  5
60C
100
AcDbEntity
  8
0
  6
BYBLOCK
 62
     0
100
AcDbLine
 10
47.4739
 20
176.516381
 30
0.0
 11
26.231923
 21
176.516381
 31
0.0
  0
LINE
  5
60D
100
AcDbEntity
  8
0
  6
BYBLOCK
 62
     0
100
AcDbLine
 10
42.4739
 20
144.217391
 30
0.0
 11
26.231923
 21
144.217391
 31
0.0
  0
LINE
  5
60E
100
AcDbEntity
  8
0
  6
BYBLOCK
 62
     0
100
AcDbLine
 10
27.284123
 20
173.916381
 30
0.0
 11
27.284123
 21
146.817391
 31
0.0
  0
SOLID
  5
60F
100
AcDbEntity
  8
0
  6
BYBLOCK
 62
     0
100
AcDbTrace
 10
26.85079
 20
173.916381
 30
0.0
 11
27.717457
 21
173.916381
 31
0.0
 12
27.284123
 22
176.516381
 32
0.0
 13
27.284123
 23
176.516381
 33
0.0
  0
SOLID
  5
610
100
AcDbEntity
  8
0
  6
BYBLOCK
 62
     0
100
AcDbTrace
 10
26.85079
 20
146.817391
 30
0.0
 11
27.717457
 21
146.817391
 31
0.0
 12
27.284123
 22
144.217391
 32
0.0
 13
27.284123
 23
144.217391
 33
0.0
  0
MTEXT
  5
611
100
AcDbEntity
  8
0
  6
BYBLOCK
 62
     0
100
AcDbMText
 10
23.402942
 20
160.366886
 30
0.0
 40
3.0
 41
0.0
 71
     5
 72
     1
  1
\A1;32.3\S+0.05^  0.00;
 11
0.0
 21
1.0
 31
0.0
  0
POINT
  5
612
100
AcDbEntity
  8
DEFPOINTS
  6
BYBLOCK
 62
     0
100
AcDbPoint
 10
48.0
 20
176.516381
 30
0.0
  0
POINT
  5
613
100
AcDbEntity
  8
DEFPOINTS
  6
BYBLOCK
 62
     0
100
AcDbPoint
 10
43.0
 20
144.217391
 30
0.0
  0
POINT
  5
614
100
AcDbEntity
  8
DEFPOINTS
  6
BYBLOCK
 62
     0
100
AcDbPoint
 10
27.284123
 20
144.217391
 30
0.0
  0
ENDBLK
  5
615
100
AcDbEntity
  8
0
100
AcDbBlockEnd
  0
BLOCK
  5
827
100
AcDbEntity
  8
0
100
AcDbBlockBegin
  2
*D21
 70
    65
 10
0.0
 20
0.0
 30
0.0
  3
*D21
  1

  0
LINE
  5
828
100
AcDbEntity
  8
0
  6
BYBLOCK
 62
     0
100
AcDbLine
 10
48.0
 20
143.691291
 30
0.0
 11
48.0
 21
125.232176
 31
0.0
  0
LINE
  5
829
100
AcDbEntity
  8
0
  6
BYBLOCK
 62
     0
100
AcDbLine
 10
87.0
 20
143.691291
 30
0.0
 11
87.0
 21
125.232176
 31
0.0
  0
LINE
  5
82A
100
AcDbEntity
  8
0
  6
BYBLOCK
 62
     0
100
AcDbLine
 10
50.6
 20
126.284376
 30
0.0
 11
84.4
 21
126.284376
 31
0.0
  0
SOLID
  5
82B
100
AcDbEntity
  8
0
  6
BYBLOCK
 62
     0
100
AcDbTrace
 10
50.6
 20
126.717709
 30
0.0
 11
50.6
 21
125.851042
 31
0.0
 12
48.0
 22
126.284376
 32
0.0
 13
48.0
 23
126.284376
 33
0.0
  0
SOLID
  5
82C
100
AcDbEntity
  8
0
  6
BYBLOCK
 62
     0
100
AcDbTrace
 10
84.4
 20
126.717709
 30
0.0
 11
84.4
 21
125.851042
 31
0.0
 12
87.0
 22
126.284376
 32
0.0
 13
87.0
 23
126.284376
 33
0.0
  0
MTEXT
  5
82D
100
AcDbEntity
  8
0
  6
BYBLOCK
 62
     0
100
AcDbMText
 10
67.5
 20
128.314671
 30
0.0
 40
3.0
 41
0.0
 71
     5
 72
     1
  1
\A1;39±0.02
  0
POINT
  5
82E
100
AcDbEntity
  8
DEFPOINTS
  6
BYBLOCK
 62
     0
100
AcDbPoint
 10
48.0
 20
144.217391
 30
0.0
  0
POINT
  5
82F
100
AcDbEntity
  8
DEFPOINTS
  6
BYBLOCK
 62
     0
100
AcDbPoint
 10
87.0
 20
144.217391
 30
0.0
  0
POINT
  5
830
100
AcDbEntity
  8
DEFPOINTS
  6
BYBLOCK
 62
     0
100
AcDbPoint
 10
87.0
 20
126.284376
 30
0.0
  0
ENDBLK
  5
831
100
AcDbEntity
  8
0
100
AcDbBlockEnd
  0
BLOCK
  5
7F0
100
AcDbEntity
  8
0
100
AcDbBlockBegin
  2
*D23
 70
    65
 10
0.0
 20
0.0
 30
0.0
  3
*D23
  1

  0
LINE
  5
7F1
100
AcDbEntity
  8
0
  6
BYBLOCK
 62
     0
100
AcDbLine
 10
125.345413
 20
213.810852
 30
0.0
 11
109.91009
 21
204.89722
 31
0.0
  0
LINE
  5
7F2
100
AcDbEntity
  8
0
  6
BYBLOCK
 62
     0
100
AcDbLine
 10
128.029938
 20
215.361118
 30
0.0
 11
127.59695
 21
215.111075
 31
0.0
  0
SOLID
  5
7F3
100
AcDbEntity
  8
0
  6
BYBLOCK
 62
     0
100
AcDbTrace
 10
125.128709
 20
214.186108
 30
0.0
 11
125.562117
 21
213.435596
 31
0.0
 12
127.59695
 22
215.111075
 32
0.0
 13
127.59695
 23
215.111075
 33
0.0
  0
MTEXT
  5
7F4
100
AcDbEntity
  8
0
  6
BYBLOCK
 62
     0
100
AcDbMText
 10
112.211603
 20
208.57048
 30
0.0
 40
3.0
 41
0.0
 71
     5
 72
     1
  1
\A1;{R0.8}
 11
0.865976
 21
0.500086
 31
0.0
  0
LINE
  5
7F5
100
AcDbEntity
  8
0
  6
BYBLOCK
 62
     0
100
AcDbLine
 10
125.925538
 20
215.361118
 30
0.0
 11
130.134338
 21
215.361118
 31
0.0
  0
LINE
  5
7F6
100
AcDbEntity
  8
0
  6
BYBLOCK
 62
     0
100
AcDbLine
 10
128.029938
 20
213.256718
 30
0.0
 11
128.029938
 21
217.465518
 31
0.0
  0
POINT
  5
7F7
100
AcDbEntity
  8
DEFPOINTS
  6
BYBLOCK
 62
     0
100
AcDbPoint
 10
127.59695
 20
215.111075
 30
0.0
  0
POINT
  5
7F8
100
AcDbEntity
  8
DEFPOINTS
  6
BYBLOCK
 62
     0
100
AcDbPoint
 10
128.029938
 20
215.361118
 30
0.0
  0
ENDBLK
  5
7F9
100
AcDbEntity
  8
0
100
AcDbBlockEnd
  0
BLOCK
  5
677
100
AcDbEntity
  8
0
100
AcDbBlockBegin
  2
*D24
 70
    65
 10
0.0
 20
0.0
 30
0.0
  3
*D24
  1

  0
LINE
  5
678
100
AcDbEntity
  8
0
  6
BYBLOCK
 62
     0
100
AcDbLine
 10
45.5
 20
174.542481
 30
0.0
 11
45.5
 21
183.229913
 31
0.0
  0
LINE
  5
679
100
AcDbEntity
  8
0
  6
BYBLOCK
 62
     0
100
AcDbLine
 10
50.5
 20
174.542481
 30
0.0
 11
50.5
 21
183.229913
 31
0.0
  0
LINE
  5
67A
100
AcDbEntity
  8
0
  6
BYBLOCK
 62
     0
100
AcDbLine
 10
42.9
 20
182.177713
 30
0.0
 11
40.3
 21
182.177713
 31
0.0
  0
LINE
  5
67B
100
AcDbEntity
  8
0
  6
BYBLOCK
 62
     0
100
AcDbLine
 10
53.1
 20
182.177713
 30
0.0
 11
62.16
 21
182.177713
 31
0.0
  0
LINE
  5
67C
100
AcDbEntity
  8
0
  6
BYBLOCK
 62
     0
100
AcDbLine
 10
45.5
 20
182.177713
 30
0.0
 11
50.5
 21
182.177713
 31
0.0
  0
SOLID
  5
67D
100
AcDbEntity
  8
0
  6
BYBLOCK
 62
     0
100
AcDbTrace
 10
42.9
 20
182.611047
 30
0.0
 11
42.9
 21
181.74438
 31
0.0
 12
45.5
 22
182.177713
 32
0.0
 13
45.5
 23
182.177713
 33
0.0
  0
SOLID
  5
67E
100
AcDbEntity
  8
0
  6
BYBLOCK
 62
     0
100
AcDbTrace
 10
53.1
 20
182.611047
 30
0.0
 11
53.1
 21
181.74438
 31
0.0
 12
50.5
 22
182.177713
 32
0.0
 13
50.5
 23
182.177713
 33
0.0
  0
MTEXT
  5
67F
100
AcDbEntity
  8
0
  6
BYBLOCK
 62
     0
100
AcDbMText
 10
58.93
 20
184.207713
 30
0.0
 40
3.0
 41
0.0
 71
     5
 72
     1
  1
\A1;{5h7}
  0
POINT
  5
680
100
AcDbEntity
  8
DEFPOINTS
  6
BYBLOCK
 62
     0
100
AcDbPoint
 10
45.5
 20
174.016381
 30
0.0
  0
POINT
  5
681
100
AcDbEntity
  8
DEFPOINTS
  6
BYBLOCK
 62
     0
100
AcDbPoint
 10
50.5
 20
174.016381
 30
0.0
  0
POINT
  5
682
100
AcDbEntity
  8
DEFPOINTS
  6
BYBLOCK
 62
     0
100
AcDbPoint
 10
50.5
 20
182.177713
 30
0.0
  0
ENDBLK
  5
683
100
AcDbEntity
  8
0
100
AcDbBlockEnd
  0
BLOCK
  5
684
100
AcDbEntity
  8
0
100
AcDbBlockBegin
  2
*D25
 70
    65
 10
0.0
 20
0.0
 30
0.0
  3
*D25
  1

  0
LINE
  5
685
100
AcDbEntity
  8
0
  6
BYBLOCK
 62
     0
100
AcDbLine
 10
83.0
 20
173.187556
 30
0.0
 11
83.0
 21
183.229913
 31
0.0
  0
LINE
  5
686
100
AcDbEntity
  8
0
  6
BYBLOCK
 62
     0
100
AcDbLine
 10
91.0
 20
173.187556
 30
0.0
 11
91.0
 21
183.229913
 31
0.0
  0
LINE
  5
687
100
AcDbEntity
  8
0
  6
BYBLOCK
 62
     0
100
AcDbLine
 10
80.4
 20
182.177713
 30
0.0
 11
77.8
 21
182.177713
 31
0.0
  0
LINE
  5
688
100
AcDbEntity
  8
0
  6
BYBLOCK
 62
     0
100
AcDbLine
 10
93.6
 20
182.177713
 30
0.0
 11
96.2
 21
182.177713
 31
0.0
  0
LINE
  5
689
100
AcDbEntity
  8
0
  6
BYBLOCK
 62
     0
100
AcDbLine
 10
83.0
 20
182.177713
 30
0.0
 11
91.0
 21
182.177713
 31
0.0
  0
SOLID
  5
68A
100
AcDbEntity
  8
0
  6
BYBLOCK
 62
     0
100
AcDbTrace
 10
80.4
 20
182.611047
 30
0.0
 11
80.4
 21
181.74438
 31
0.0
 12
83.0
 22
182.177713
 32
0.0
 13
83.0
 23
182.177713
 33
0.0
  0
SOLID
  5
68B
100
AcDbEntity
  8
0
  6
BYBLOCK
 62
     0
100
AcDbTrace
 10
93.6
 20
182.611047
 30
0.0
 11
93.6
 21
181.74438
 31
0.0
 12
91.0
 22
182.177713
 32
0.0
 13
91.0
 23
182.177713
 33
0.0
  0
MTEXT
  5
68C
100
AcDbEntity
  8
0
  6
BYBLOCK
 62
     0
100
AcDbMText
 10
87.0
 20
184.207713
 30
0.0
 40
3.0
 41
0.0
 71
     5
 72
     1
  1
\A1;{8h7}
  0
POINT
  5
68D
100
AcDbEntity
  8
DEFPOINTS
  6
BYBLOCK
 62
     0
100
AcDbPoint
 10
83.0
 20
172.661456
 30
0.0
  0
POINT
  5
68E
100
AcDbEntity
  8
DEFPOINTS
  6
BYBLOCK
 62
     0
100
AcDbPoint
 10
91.0
 20
172.661456
 30
0.0
  0
POINT
  5
68F
100
AcDbEntity
  8
DEFPOINTS
  6
BYBLOCK
 62
     0
100
AcDbPoint
 10
91.0
 20
182.177713
 30
0.0
  0
ENDBLK
  5
690
100
AcDbEntity
  8
0
100
AcDbBlockEnd
  0
BLOCK
  5
63E
100
AcDbEntity
  8
0
100
AcDbBlockBegin
  2
*D26
 70
    65
 10
0.0
 20
0.0
 30
0.0
  3
*D26
  1

  0
LINE
  5
63F
100
AcDbEntity
  8
0
  6
BYBLOCK
 62
     0
100
AcDbLine
 10
45.0
 20
175.743491
 30
0.0
 11
45.0
 21
190.927171
 31
0.0
  0
LINE
  5
640
100
AcDbEntity
  8
0
  6
BYBLOCK
 62
     0
100
AcDbLine
 10
51.0
 20
175.743491
 30
0.0
 11
51.0
 21
190.927171
 31
0.0
  0
LINE
  5
641
100
AcDbEntity
  8
0
  6
BYBLOCK
 62
     0
100
AcDbLine
 10
42.4
 20
189.874971
 30
0.0
 11
39.8
 21
189.874971
 31
0.0
  0
LINE
  5
642
100
AcDbEntity
  8
0
  6
BYBLOCK
 62
     0
100
AcDbLine
 10
53.6
 20
189.874971
 30
0.0
 11
56.2
 21
189.874971
 31
0.0
  0
LINE
  5
643
100
AcDbEntity
  8
0
  6
BYBLOCK
 62
     0
100
AcDbLine
 10
45.0
 20
189.874971
 30
0.0
 11
51.0
 21
189.874971
 31
0.0
  0
SOLID
  5
644
100
AcDbEntity
  8
0
  6
BYBLOCK
 62
     0
100
AcDbTrace
 10
42.4
 20
190.308304
 30
0.0
 11
42.4
 21
189.441638
 31
0.0
 12
45.0
 22
189.874971
 32
0.0
 13
45.0
 23
189.874971
 33
0.0
  0
SOLID
  5
645
100
AcDbEntity
  8
0
  6
BYBLOCK
 62
     0
100
AcDbTrace
 10
53.6
 20
190.308304
 30
0.0
 11
53.6
 21
189.441638
 31
0.0
 12
51.0
 22
189.874971
 32
0.0
 13
51.0
 23
189.874971
 33
0.0
  0
MTEXT
  5
646
100
AcDbEntity
  8
0
  6
BYBLOCK
 62
     0
100
AcDbMText
 10
48.0
 20
191.904971
 30
0.0
 40
3.0
 41
0.0
 71
     5
 72
     1
  1
\A1;6
  0
POINT
  5
647
100
AcDbEntity
  8
DEFPOINTS
  6
BYBLOCK
 62
     0
100
AcDbPoint
 10
45.0
 20
175.217391
 30
0.0
  0
POINT
  5
648
100
AcDbEntity
  8
DEFPOINTS
  6
BYBLOCK
 62
     0
100
AcDbPoint
 10
51.0
 20
175.217391
 30
0.0
  0
POINT
  5
649
100
AcDbEntity
  8
DEFPOINTS
  6
BYBLOCK
 62
     0
100
AcDbPoint
 10
51.0
 20
189.874971
 30
0.0
  0
ENDBLK
  5
64A
100
AcDbEntity
  8
0
100
AcDbBlockEnd
  0
BLOCK
  5
64D
100
AcDbEntity
  8
0
100
AcDbBlockBegin
  2
*D27
 70
    65
 10
0.0
 20
0.0
 30
0.0
  3
*D27
  1

  0
LINE
  5
64E
100
AcDbEntity
  8
0
  6
BYBLOCK
 62
     0
100
AcDbLine
 10
82.0
 20
175.743491
 30
0.0
 11
82.0
 21
190.927171
 31
0.0
  0
LINE
  5
64F
100
AcDbEntity
  8
0
  6
BYBLOCK
 62
     0
100
AcDbLine
 10
92.0
 20
175.743491
 30
0.0
 11
92.0
 21
190.927171
 31
0.0
  0
LINE
  5
650
100
AcDbEntity
  8
0
  6
BYBLOCK
 62
     0
100
AcDbLine
 10
84.6
 20
189.874971
 30
0.0
 11
89.4
 21
189.874971
 31
0.0
  0
SOLID
  5
651
100
AcDbEntity
  8
0
  6
BYBLOCK
 62
     0
100
AcDbTrace
 10
84.6
 20
190.308304
 30
0.0
 11
84.6
 21
189.441638
 31
0.0
 12
82.0
 22
189.874971
 32
0.0
 13
82.0
 23
189.874971
 33
0.0
  0
SOLID
  5
652
100
AcDbEntity
  8
0
  6
BYBLOCK
 62
     0
100
AcDbTrace
 10
89.4
 20
190.308304
 30
0.0
 11
89.4
 21
189.441638
 31
0.0
 12
92.0
 22
189.874971
 32
0.0
 13
92.0
 23
189.874971
 33
0.0
  0
MTEXT
  5
653
100
AcDbEntity
  8
0
  6
BYBLOCK
 62
     0
100
AcDbMText
 10
87.0
 20
191.904971
 30
0.0
 40
3.0
 41
0.0
 71
     5
 72
     1
  1
\A1;10
  0
POINT
  5
654
100
AcDbEntity
  8
DEFPOINTS
  6
BYBLOCK
 62
     0
100
AcDbPoint
 10
82.0
 20
175.217391
 30
0.0
  0
POINT
  5
655
100
AcDbEntity
  8
DEFPOINTS
  6
BYBLOCK
 62
     0
100
AcDbPoint
 10
92.0
 20
175.217391
 30
0.0
  0
POINT
  5
656
100
AcDbEntity
  8
DEFPOINTS
  6
BYBLOCK
 62
     0
100
AcDbPoint
 10
92.0
 20
189.874971
 30
0.0
  0
ENDBLK
  5
657
100
AcDbEntity
  8
0
100
AcDbBlockEnd
  0
BLOCK
  5
65A
100
AcDbEntity
  8
0
100
AcDbBlockBegin
  2
*D28
 70
    65
 10
0.0
 20
0.0
 30
0.0
  3
*D28
  1

  0
LINE
  5
65B
100
AcDbEntity
  8
0
  6
BYBLOCK
 62
     0
100
AcDbLine
 10
51.158201
 20
175.719142
 30
0.0
 11
58.40467
 21
198.702004
 31
0.0
  0
LINE
  5
65C
100
AcDbEntity
  8
0
  6
BYBLOCK
 62
     0
100
AcDbLine
 10
44.841799
 20
175.719142
 30
0.0
 11
37.59533
 21
198.702004
 31
0.0
  0
ARC
  5
65D
100
AcDbEntity
  8
0
  6
BYBLOCK
 62
     0
100
AcDbCircle
 10
48.0
 20
165.702607
 30
0.0
 40
33.548628
100
AcDbArc
 50
76.941503
 51
103.058497
  0
SOLID
  5
65E
100
AcDbEntity
  8
0
  6
BYBLOCK
 62
     0
100
AcDbTrace
 10
55.694363
 20
198.801681
 30
0.0
 11
55.465976
 21
197.965648
 31
0.0
 12
58.088267
 22
197.698503
 32
0.0
 13
58.088267
 23
197.698503
 33
0.0
  0
SOLID
  5
65F
100
AcDbEntity
  8
0
  6
BYBLOCK
 62
     0
100
AcDbTrace
 10
40.534024
 20
197.965648
 30
0.0
 11
40.305637
 21
198.801681
 31
0.0
 12
37.911733
 22
197.698503
 32
0.0
 13
37.911733
 23
197.698503
 33
0.0
  0
MTEXT
  5
660
100
AcDbEntity
  8
0
  6
BYBLOCK
 62
     0
100
AcDbMText
 10
48.0
 20
201.281236
 30
0.0
 40
3.0
 41
0.0
 71
     5
 72
     1
  1
\A1;35°
  0
POINT
  5
661
100
AcDbEntity
  8
DEFPOINTS
  6
BYBLOCK
 62
     0
100
AcDbPoint
 10
51.409717
 20
199.077512
 30
0.0
  0
POINT
  5
662
100
AcDbEntity
  8
DEFPOINTS
  6
BYBLOCK
 62
     0
100
AcDbPoint
 10
45.0
 20
175.217391
 30
0.0
  0
POINT
  5
663
100
AcDbEntity
  8
DEFPOINTS
  6
BYBLOCK
 62
     0
100
AcDbPoint
 10
51.0
 20
175.217391
 30
0.0
  0
POINT
  5
664
100
AcDbEntity
  8
DEFPOINTS
  6
BYBLOCK
 62
     0
100
AcDbPoint
 10
48.0
 20
165.702607
 30
0.0
  0
POINT
  5
665
100
AcDbEntity
  8
DEFPOINTS
  6
BYBLOCK
 62
     0
100
AcDbPoint
 10
48.0
 20
165.702607
 30
0.0
  0
ENDBLK
  5
666
100
AcDbEntity
  8
0
100
AcDbBlockEnd
  0
BLOCK
  5
669
100
AcDbEntity
  8
0
100
AcDbBlockBegin
  2
*D29
 70
    65
 10
0.0
 20
0.0
 30
0.0
  3
*D29
  1

  0
LINE
  5
66A
100
AcDbEntity
  8
0
  6
BYBLOCK
 62
     0
100
AcDbLine
 10
92.158201
 20
175.719142
 30
0.0
 11
99.257539
 21
198.235363
 31
0.0
  0
LINE
  5
66B
100
AcDbEntity
  8
0
  6
BYBLOCK
 62
     0
100
AcDbLine
 10
81.841799
 20
175.719142
 30
0.0
 11
74.742461
 21
198.235363
 31
0.0
  0
ARC
  5
66C
100
AcDbEntity
  8
0
  6
BYBLOCK
 62
     0
100
AcDbCircle
 10
87.0
 20
159.359417
 30
0.0
 40
39.710362
100
AcDbArc
 50
76.25206
 51
103.74794
  0
SOLID
  5
66D
100
AcDbEntity
  8
0
  6
BYBLOCK
 62
     0
100
AcDbTrace
 10
96.553913
 20
198.349423
 30
0.0
 11
96.3205
 21
197.51478
 31
0.0
 12
98.941136
 22
197.231863
 32
0.0
 13
98.941136
 23
197.231863
 33
0.0
  0
SOLID
  5
66E
100
AcDbEntity
  8
0
  6
BYBLOCK
 62
     0
100
AcDbTrace
 10
77.6795
 20
197.51478
 30
0.0
 11
77.446087
 21
198.349423
 31
0.0
 12
75.058864
 22
197.231863
 32
0.0
 13
75.058864
 23
197.231863
 33
0.0
  0
MTEXT
  5
66F
100
AcDbEntity
  8
0
  6
BYBLOCK
 62
     0
100
AcDbMText
 10
87.0
 20
201.099779
 30
0.0
 40
3.0
 41
0.0
 71
     5
 72
     1
  1
\A1;35°
  0
POINT
  5
670
100
AcDbEntity
  8
DEFPOINTS
  6
BYBLOCK
 62
     0
100
AcDbPoint
 10
91.035966
 20
198.864149
 30
0.0
  0
POINT
  5
671
100
AcDbEntity
  8
DEFPOINTS
  6
BYBLOCK
 62
     0
100
AcDbPoint
 10
92.0
 20
175.217391
 30
0.0
  0
POINT
  5
672
100
AcDbEntity
  8
DEFPOINTS
  6
BYBLOCK
 62
     0
100
AcDbPoint
 10
82.0
 20
175.217391
 30
0.0
  0
POINT
  5
673
100
AcDbEntity
  8
DEFPOINTS
  6
BYBLOCK
 62
     0
100
AcDbPoint
 10
87.0
 20
159.359417
 30
0.0
  0
POINT
  5
674
100
AcDbEntity
  8
DEFPOINTS
  6
BYBLOCK
 62
     0
100
AcDbPoint
 10
87.0
 20
159.359417
 30
0.0
  0
ENDBLK
  5
675
100
AcDbEntity
  8
0
100
AcDbBlockEnd
  0
BLOCK
  5
6DE
100
AcDbEntity
  8
0
100
AcDbBlockBegin
  2
*X30
 70
    65
 10
0.0
 20
0.0
 30
0.0
  3
*X30
  1

  0
LINE
  5
6E0
100
AcDbEntity
  8
0
  6
CONTINUOUS
 62
     0
100
AcDbLine
 10
44.235656
 20
172.653318
 30
0.0
 11
45.431425
 21
173.849087
 31
0.0
  0
LINE
  5
6E1
100
AcDbEntity
  8
0
  6
CONTINUOUS
 62
     0
100
AcDbLine
 10
44.181838
 20
172.824007
 30
0.0
 11
45.377607
 21
174.019776
 31
0.0
  0
LINE
  5
6E2
100
AcDbEntity
  8
0
  6
CONTINUOUS
 62
     0
100
AcDbLine
 10
44.12802
 20
172.994695
 30
0.0
 11
45.323789
 21
174.190464
 31
0.0
  0
LINE
  5
6E3
100
AcDbEntity
  8
0
  6
CONTINUOUS
 62
     0
100
AcDbLine
 10
44.074202
 20
173.165384
 30
0.0
 11
45.269971
 21
174.361153
 31
0.0
  0
LINE
  5
6E4
100
AcDbEntity
  8
0
  6
CONTINUOUS
 62
     0
100
AcDbLine
 10
44.020384
 20
173.336072
 30
0.0
 11
45.216153
 21
174.531841
 31
0.0
  0
LINE
  5
6E5
100
AcDbEntity
  8
0
  6
CONTINUOUS
 62
     0
100
AcDbLine
 10
43.966566
 20
173.506761
 30
0.0
 11
45.162335
 21
174.70253
 31
0.0
  0
LINE
  5
6E6
100
AcDbEntity
  8
0
  6
CONTINUOUS
 62
     0
100
AcDbLine
 10
43.912748
 20
173.677449
 30
0.0
 11
45.104612
 21
174.869313
 31
0.0
  0
LINE
  5
6E7
100
AcDbEntity
  8
0
  6
CONTINUOUS
 62
     0
100
AcDbLine
 10
43.728184
 20
173.717391
 30
0.0
 11
45.017018
 21
175.006225
 31
0.0
  0
LINE
  5
6E8
100
AcDbEntity
  8
0
  6
CONTINUOUS
 62
     0
100
AcDbLine
 10
43.503678
 20
173.717391
 30
0.0
 11
44.898866
 21
175.11258
 31
0.0
  0
LINE
  5
6E9
100
AcDbEntity
  8
0
  6
CONTINUOUS
 62
     0
100
AcDbLine
 10
43.279171
 20
173.717391
 30
0.0
 11
44.748735
 21
175.186955
 31
0.0
  0
LINE
  5
6EA
100
AcDbEntity
  8
0
  6
CONTINUOUS
 62
     0
100
AcDbLine
 10
43.054665
 20
173.717391
 30
0.0
 11
44.554665
 21
175.217391
 31
0.0
  0
LINE
  5
6EB
100
AcDbEntity
  8
0
  6
CONTINUOUS
 62
     0
100
AcDbLine
 10
42.830159
 20
173.717391
 30
0.0
 11
44.330159
 21
175.217391
 31
0.0
  0
LINE
  5
6EC
100
AcDbEntity
  8
0
  6
CONTINUOUS
 62
     0
100
AcDbLine
 10
42.605652
 20
173.717391
 30
0.0
 11
44.105652
 21
175.217391
 31
0.0
  0
LINE
  5
6ED
100
AcDbEntity
  8
0
  6
CONTINUOUS
 62
     0
100
AcDbLine
 10
42.381146
 20
173.717391
 30
0.0
 11
43.881146
 21
175.217391
 31
0.0
  0
LINE
  5
6EE
100
AcDbEntity
  8
0
  6
CONTINUOUS
 62
     0
100
AcDbLine
 10
42.156639
 20
173.717391
 30
0.0
 11
43.656639
 21
175.217391
 31
0.0
  0
LINE
  5
6EF
100
AcDbEntity
  8
0
  6
CONTINUOUS
 62
     0
100
AcDbLine
 10
42.0
 20
173.785259
 30
0.0
 11
43.432133
 21
175.217391
 31
0.0
  0
LINE
  5
6F0
100
AcDbEntity
  8
0
  6
CONTINUOUS
 62
     0
100
AcDbLine
 10
42.0
 20
174.009765
 30
0.0
 11
43.207626
 21
175.217391
 31
0.0
  0
LINE
  5
6F1
100
AcDbEntity
  8
0
  6
CONTINUOUS
 62
     0
100
AcDbLine
 10
42.0
 20
174.234271
 30
0.0
 11
42.98312
 21
175.217391
 31
0.0
  0
LINE
  5
6F2
100
AcDbEntity
  8
0
  6
CONTINUOUS
 62
     0
100
AcDbLine
 10
42.0
 20
174.458778
 30
0.0
 11
42.758614
 21
175.217391
 31
0.0
  0
LINE
  5
6F3
100
AcDbEntity
  8
0
  6
CONTINUOUS
 62
     0
100
AcDbLine
 10
42.0
 20
174.683284
 30
0.0
 11
42.534107
 21
175.217391
 31
0.0
  0
LINE
  5
6F4
100
AcDbEntity
  8
0
  6
CONTINUOUS
 62
     0
100
AcDbLine
 10
44.289473
 20
172.48263
 30
0.0
 11
45.485243
 21
173.678399
 31
0.0
  0
LINE
  5
6F5
100
AcDbEntity
  8
0
  6
CONTINUOUS
 62
     0
100
AcDbLine
 10
44.343291
 20
172.311941
 30
0.0
 11
45.53906
 21
173.50771
 31
0.0
  0
LINE
  5
6F6
100
AcDbEntity
  8
0
  6
CONTINUOUS
 62
     0
100
AcDbLine
 10
44.397109
 20
172.141253
 30
0.0
 11
45.592878
 21
173.337022
 31
0.0
  0
LINE
  5
6F7
100
AcDbEntity
  8
0
  6
CONTINUOUS
 62
     0
100
AcDbLine
 10
44.450927
 20
171.970564
 30
0.0
 11
45.646696
 21
173.166333
 31
0.0
  0
LINE
  5
6F8
100
AcDbEntity
  8
0
  6
CONTINUOUS
 62
     0
100
AcDbLine
 10
44.504745
 20
171.799875
 30
0.0
 11
45.700514
 21
172.995645
 31
0.0
  0
LINE
  5
6F9
100
AcDbEntity
  8
0
  6
CONTINUOUS
 62
     0
100
AcDbLine
 10
44.558563
 20
171.629187
 30
0.0
 11
45.754332
 21
172.824956
 31
0.0
  0
LINE
  5
6FA
100
AcDbEntity
  8
0
  6
CONTINUOUS
 62
     0
100
AcDbLine
 10
44.612381
 20
171.458498
 30
0.0
 11
45.80815
 21
172.654268
 31
0.0
  0
LINE
  5
6FB
100
AcDbEntity
  8
0
  6
CONTINUOUS
 62
     0
100
AcDbLine
 10
44.666199
 20
171.28781
 30
0.0
 11
45.861968
 21
172.483579
 31
0.0
  0
LINE
  5
6FC
100
AcDbEntity
  8
0
  6
CONTINUOUS
 62
     0
100
AcDbLine
 10
44.720017
 20
171.117121
 30
0.0
 11
45.915786
 21
172.312891
 31
0.0
  0
LINE
  5
6FD
100
AcDbEntity
  8
0
  6
CONTINUOUS
 62
     0
100
AcDbLine
 10
44.773834
 20
170.946433
 30
0.0
 11
45.969604
 21
172.142202
 31
0.0
  0
LINE
  5
6FE
100
AcDbEntity
  8
0
  6
CONTINUOUS
 62
     0
100
AcDbLine
 10
44.827652
 20
170.775744
 30
0.0
 11
46.023421
 21
171.971513
 31
0.0
  0
LINE
  5
6FF
100
AcDbEntity
  8
0
  6
CONTINUOUS
 62
     0
100
AcDbLine
 10
44.88147
 20
170.605056
 30
0.0
 11
46.077239
 21
171.800825
 31
0.0
  0
LINE
  5
700
100
AcDbEntity
  8
0
  6
CONTINUOUS
 62
     0
100
AcDbLine
 10
44.935288
 20
170.434367
 30
0.0
 11
46.131057
 21
171.630136
 31
0.0
  0
LINE
  5
701
100
AcDbEntity
  8
0
  6
CONTINUOUS
 62
     0
100
AcDbLine
 10
44.989106
 20
170.263679
 30
0.0
 11
46.184875
 21
171.459448
 31
0.0
  0
LINE
  5
702
100
AcDbEntity
  8
0
  6
CONTINUOUS
 62
     0
100
AcDbLine
 10
45.167325
 20
170.217391
 30
0.0
 11
46.238693
 21
171.288759
 31
0.0
  0
LINE
  5
703
100
AcDbEntity
  8
0
  6
CONTINUOUS
 62
     0
100
AcDbLine
 10
45.391831
 20
170.217391
 30
0.0
 11
46.292511
 21
171.118071
 31
0.0
  0
LINE
  5
704
100
AcDbEntity
  8
0
  6
CONTINUOUS
 62
     0
100
AcDbLine
 10
45.616338
 20
170.217391
 30
0.0
 11
46.346329
 21
170.947382
 31
0.0
  0
LINE
  5
705
100
AcDbEntity
  8
0
  6
CONTINUOUS
 62
     0
100
AcDbLine
 10
45.840844
 20
170.217391
 30
0.0
 11
46.400147
 21
170.776694
 31
0.0
  0
LINE
  5
706
100
AcDbEntity
  8
0
  6
CONTINUOUS
 62
     0
100
AcDbLine
 10
46.065351
 20
170.217391
 30
0.0
 11
46.453964
 21
170.606005
 31
0.0
  0
LINE
  5
707
100
AcDbEntity
  8
0
  6
CONTINUOUS
 62
     0
100
AcDbLine
 10
46.289857
 20
170.217391
 30
0.0
 11
46.507782
 21
170.435317
 31
0.0
  0
LINE
  5
708
100
AcDbEntity
  8
0
  6
CONTINUOUS
 62
     0
100
AcDbLine
 10
46.514363
 20
170.217391
 30
0.0
 11
46.5616
 21
170.264628
 31
0.0
  0
ENDBLK
  5
709
100
AcDbEntity
  8
0
100
AcDbBlockEnd
  0
BLOCK
  5
70B
100
AcDbEntity
  8
0
100
AcDbBlockBegin
  2
*X31
 70
    65
 10
0.0
 20
0.0
 30
0.0
  3
*X31
  1

  0
LINE
  5
70D
100
AcDbEntity
  8
0
  6
CONTINUOUS
 62
     0
100
AcDbLine
 10
49.432947
 20
170.217391
 30
0.0
 11
51.71621
 21
172.500655
 31
0.0
  0
LINE
  5
70E
100
AcDbEntity
  8
0
  6
CONTINUOUS
 62
     0
100
AcDbLine
 10
52.932947
 20
173.717391
 30
0.0
 11
54.0
 21
174.784445
 31
0.0
  0
LINE
  5
70F
100
AcDbEntity
  8
0
  6
CONTINUOUS
 62
     0
100
AcDbLine
 10
49.52615
 20
170.535102
 30
0.0
 11
51.819593
 21
172.828544
 31
0.0
  0
LINE
  5
710
100
AcDbEntity
  8
0
  6
CONTINUOUS
 62
     0
100
AcDbLine
 10
52.70844
 20
173.717391
 30
0.0
 11
54.0
 21
175.008951
 31
0.0
  0
LINE
  5
711
100
AcDbEntity
  8
0
  6
CONTINUOUS
 62
     0
100
AcDbLine
 10
49.633301
 20
170.866758
 30
0.0
 11
51.922976
 21
173.156434
 31
0.0
  0
LINE
  5
712
100
AcDbEntity
  8
0
  6
CONTINUOUS
 62
     0
100
AcDbLine
 10
52.483934
 20
173.717391
 30
0.0
 11
53.983934
 21
175.217391
 31
0.0
  0
LINE
  5
713
100
AcDbEntity
  8
0
  6
CONTINUOUS
 62
     0
100
AcDbLine
 10
49.740451
 20
171.198415
 30
0.0
 11
52.026359
 21
173.484323
 31
0.0
  0
LINE
  5
714
100
AcDbEntity
  8
0
  6
CONTINUOUS
 62
     0
100
AcDbLine
 10
52.259427
 20
173.717391
 30
0.0
 11
53.759427
 21
175.217391
 31
0.0
  0
LINE
  5
715
100
AcDbEntity
  8
0
  6
CONTINUOUS
 62
     0
100
AcDbLine
 10
49.847601
 20
171.530071
 30
0.0
 11
53.534921
 21
175.217391
 31
0.0
  0
LINE
  5
716
100
AcDbEntity
  8
0
  6
CONTINUOUS
 62
     0
100
AcDbLine
 10
49.954751
 20
171.861728
 30
0.0
 11
53.310415
 21
175.217391
 31
0.0
  0
LINE
  5
717
100
AcDbEntity
  8
0
  6
CONTINUOUS
 62
     0
100
AcDbLine
 10
50.061901
 20
172.193384
 30
0.0
 11
53.085908
 21
175.217391
 31
0.0
  0
LINE
  5
718
100
AcDbEntity
  8
0
  6
CONTINUOUS
 62
     0
100
AcDbLine
 10
50.169051
 20
172.525041
 30
0.0
 11
52.861402
 21
175.217391
 31
0.0
  0
LINE
  5
719
100
AcDbEntity
  8
0
  6
CONTINUOUS
 62
     0
100
AcDbLine
 10
50.276201
 20
172.856697
 30
0.0
 11
52.636895
 21
175.217391
 31
0.0
  0
LINE
  5
71A
100
AcDbEntity
  8
0
  6
CONTINUOUS
 62
     0
100
AcDbLine
 10
50.383351
 20
173.188354
 30
0.0
 11
52.412389
 21
175.217391
 31
0.0
  0
LINE
  5
71B
100
AcDbEntity
  8
0
  6
CONTINUOUS
 62
     0
100
AcDbLine
 10
50.490501
 20
173.52001
 30
0.0
 11
52.187883
 21
175.217391
 31
0.0
  0
LINE
  5
71C
100
AcDbEntity
  8
0
  6
CONTINUOUS
 62
     0
100
AcDbLine
 10
50.597652
 20
173.851667
 30
0.0
 11
51.963376
 21
175.217391
 31
0.0
  0
LINE
  5
71D
100
AcDbEntity
  8
0
  6
CONTINUOUS
 62
     0
100
AcDbLine
 10
50.704802
 20
174.183323
 30
0.0
 11
51.73887
 21
175.217391
 31
0.0
  0
LINE
  5
71E
100
AcDbEntity
  8
0
  6
CONTINUOUS
 62
     0
100
AcDbLine
 10
50.811952
 20
174.51498
 30
0.0
 11
51.514363
 21
175.217391
 31
0.0
  0
LINE
  5
71F
100
AcDbEntity
  8
0
  6
CONTINUOUS
 62
     0
100
AcDbLine
 10
49.657453
 20
170.217391
 30
0.0
 11
51.612827
 21
172.172765
 31
0.0
  0
LINE
  5
720
100
AcDbEntity
  8
0
  6
CONTINUOUS
 62
     0
100
AcDbLine
 10
53.157453
 20
173.717391
 30
0.0
 11
54.0
 21
174.559938
 31
0.0
  0
LINE
  5
721
100
AcDbEntity
  8
0
  6
CONTINUOUS
 62
     0
100
AcDbLine
 10
49.881959
 20
170.217391
 30
0.0
 11
51.509443
 21
171.844876
 31
0.0
  0
LINE
  5
722
100
AcDbEntity
  8
0
  6
CONTINUOUS
 62
     0
100
AcDbLine
 10
53.381959
 20
173.717391
 30
0.0
 11
54.0
 21
174.335432
 31
0.0
  0
LINE
  5
723
100
AcDbEntity
  8
0
  6
CONTINUOUS
 62
     0
100
AcDbLine
 10
50.106466
 20
170.217391
 30
0.0
 11
51.40606
 21
171.516986
 31
0.0
  0
LINE
  5
724
100
AcDbEntity
  8
0
  6
CONTINUOUS
 62
     0
100
AcDbLine
 10
53.606466
 20
173.717391
 30
0.0
 11
54.0
 21
174.110926
 31
0.0
  0
LINE
  5
725
100
AcDbEntity
  8
0
  6
CONTINUOUS
 62
     0
100
AcDbLine
 10
50.330972
 20
170.217391
 30
0.0
 11
51.302677
 21
171.189096
 31
0.0
  0
LINE
  5
726
100
AcDbEntity
  8
0
  6
CONTINUOUS
 62
     0
100
AcDbLine
 10
53.830972
 20
173.717391
 30
0.0
 11
54.0
 21
173.886419
 31
0.0
  0
LINE
  5
727
100
AcDbEntity
  8
0
  6
CONTINUOUS
 62
     0
100
AcDbLine
 10
50.555479
 20
170.217391
 30
0.0
 11
51.199294
 21
170.861207
 31
0.0
  0
LINE
  5
728
100
AcDbEntity
  8
0
  6
CONTINUOUS
 62
     0
100
AcDbLine
 10
50.779985
 20
170.217391
 30
0.0
 11
51.095911
 21
170.533317
 31
0.0
  0
ENDBLK
  5
729
100
AcDbEntity
  8
0
100
AcDbBlockEnd
  0
BLOCK
  5
72B
100
AcDbEntity
  8
0
100
AcDbBlockBegin
  2
*X32
 70
    65
 10
0.0
 20
0.0
 30
0.0
  3
*X32
  1

  0
LINE
  5
72D
100
AcDbEntity
  8
0
  6
CONTINUOUS
 62
     0
100
AcDbLine
 10
81.030825
 20
173.302957
 30
0.0
 11
82.226594
 21
174.498726
 31
0.0
  0
LINE
  5
72E
100
AcDbEntity
  8
0
  6
CONTINUOUS
 62
     0
100
AcDbLine
 10
80.977007
 20
173.473645
 30
0.0
 11
82.163444
 21
174.660082
 31
0.0
  0
LINE
  5
72F
100
AcDbEntity
  8
0
  6
CONTINUOUS
 62
     0
100
AcDbLine
 10
80.923189
 20
173.644334
 30
0.0
 11
82.079244
 21
174.800388
 31
0.0
  0
LINE
  5
730
100
AcDbEntity
  8
0
  6
CONTINUOUS
 62
     0
100
AcDbLine
 10
80.771741
 20
173.717391
 30
0.0
 11
81.976358
 21
174.922008
 31
0.0
  0
LINE
  5
731
100
AcDbEntity
  8
0
  6
CONTINUOUS
 62
     0
100
AcDbLine
 10
80.547234
 20
173.717391
 30
0.0
 11
81.855537
 21
175.025694
 31
0.0
  0
LINE
  5
732
100
AcDbEntity
  8
0
  6
CONTINUOUS
 62
     0
100
AcDbLine
 10
80.322728
 20
173.717391
 30
0.0
 11
81.716096
 21
175.110759
 31
0.0
  0
LINE
  5
733
100
AcDbEntity
  8
0
  6
CONTINUOUS
 62
     0
100
AcDbLine
 10
80.098221
 20
173.717391
 30
0.0
 11
81.555601
 21
175.174771
 31
0.0
  0
LINE
  5
734
100
AcDbEntity
  8
0
  6
CONTINUOUS
 62
     0
100
AcDbLine
 10
79.873715
 20
173.717391
 30
0.0
 11
81.368525
 21
175.212201
 31
0.0
  0
LINE
  5
735
100
AcDbEntity
  8
0
  6
CONTINUOUS
 62
     0
100
AcDbLine
 10
79.649209
 20
173.717391
 30
0.0
 11
81.149209
 21
175.217391
 31
0.0
  0
LINE
  5
736
100
AcDbEntity
  8
0
  6
CONTINUOUS
 62
     0
100
AcDbLine
 10
79.424702
 20
173.717391
 30
0.0
 11
80.924702
 21
175.217391
 31
0.0
  0
LINE
  5
737
100
AcDbEntity
  8
0
  6
CONTINUOUS
 62
     0
100
AcDbLine
 10
79.200196
 20
173.717391
 30
0.0
 11
80.700196
 21
175.217391
 31
0.0
  0
LINE
  5
738
100
AcDbEntity
  8
0
  6
CONTINUOUS
 62
     0
100
AcDbLine
 10
78.975689
 20
173.717391
 30
0.0
 11
80.475689
 21
175.217391
 31
0.0
  0
LINE
  5
739
100
AcDbEntity
  8
0
  6
CONTINUOUS
 62
     0
100
AcDbLine
 10
78.751183
 20
173.717391
 30
0.0
 11
80.251183
 21
175.217391
 31
0.0
  0
LINE
  5
73A
100
AcDbEntity
  8
0
  6
CONTINUOUS
 62
     0
100
AcDbLine
 10
78.526677
 20
173.717391
 30
0.0
 11
80.026677
 21
175.217391
 31
0.0
  0
LINE
  5
73B
100
AcDbEntity
  8
0
  6
CONTINUOUS
 62
     0
100
AcDbLine
 10
78.30217
 20
173.717391
 30
0.0
 11
79.80217
 21
175.217391
 31
0.0
  0
LINE
  5
73C
100
AcDbEntity
  8
0
  6
CONTINUOUS
 62
     0
100
AcDbLine
 10
78.077664
 20
173.717391
 30
0.0
 11
79.577664
 21
175.217391
 31
0.0
  0
LINE
  5
73D
100
AcDbEntity
  8
0
  6
CONTINUOUS
 62
     0
100
AcDbLine
 10
77.853157
 20
173.717391
 30
0.0
 11
79.353157
 21
175.217391
 31
0.0
  0
LINE
  5
73E
100
AcDbEntity
  8
0
  6
CONTINUOUS
 62
     0
100
AcDbLine
 10
77.628651
 20
173.717391
 30
0.0
 11
79.128651
 21
175.217391
 31
0.0
  0
LINE
  5
73F
100
AcDbEntity
  8
0
  6
CONTINUOUS
 62
     0
100
AcDbLine
 10
77.404145
 20
173.717391
 30
0.0
 11
78.904145
 21
175.217391
 31
0.0
  0
LINE
  5
740
100
AcDbEntity
  8
0
  6
CONTINUOUS
 62
     0
100
AcDbLine
 10
77.179638
 20
173.717391
 30
0.0
 11
78.679638
 21
175.217391
 31
0.0
  0
LINE
  5
741
100
AcDbEntity
  8
0
  6
CONTINUOUS
 62
     0
100
AcDbLine
 10
77.0
 20
173.76226
 30
0.0
 11
78.455132
 21
175.217391
 31
0.0
  0
LINE
  5
742
100
AcDbEntity
  8
0
  6
CONTINUOUS
 62
     0
100
AcDbLine
 10
77.0
 20
173.986766
 30
0.0
 11
78.230625
 21
175.217391
 31
0.0
  0
LINE
  5
743
100
AcDbEntity
  8
0
  6
CONTINUOUS
 62
     0
100
AcDbLine
 10
77.0
 20
174.211273
 30
0.0
 11
78.006119
 21
175.217391
 31
0.0
  0
LINE
  5
744
100
AcDbEntity
  8
0
  6
CONTINUOUS
 62
     0
100
AcDbLine
 10
77.0
 20
174.435779
 30
0.0
 11
77.781613
 21
175.217391
 31
0.0
  0
LINE
  5
745
100
AcDbEntity
  8
0
  6
CONTINUOUS
 62
     0
100
AcDbLine
 10
77.0
 20
174.660285
 30
0.0
 11
77.557106
 21
175.217391
 31
0.0
  0
LINE
  5
746
100
AcDbEntity
  8
0
  6
CONTINUOUS
 62
     0
100
AcDbLine
 10
77.0
 20
174.884792
 30
0.0
 11
77.3326
 21
175.217391
 31
0.0
  0
LINE
  5
747
100
AcDbEntity
  8
0
  6
CONTINUOUS
 62
     0
100
AcDbLine
 10
77.0
 20
175.109298
 30
0.0
 11
77.108093
 21
175.217391
 31
0.0
  0
LINE
  5
748
100
AcDbEntity
  8
0
  6
CONTINUOUS
 62
     0
100
AcDbLine
 10
81.084643
 20
173.132268
 30
0.0
 11
82.280412
 21
174.328037
 31
0.0
  0
LINE
  5
749
100
AcDbEntity
  8
0
  6
CONTINUOUS
 62
     0
100
AcDbLine
 10
81.138461
 20
172.96158
 30
0.0
 11
82.33423
 21
174.157349
 31
0.0
  0
LINE
  5
74A
100
AcDbEntity
  8
0
  6
CONTINUOUS
 62
     0
100
AcDbLine
 10
81.192279
 20
172.790891
 30
0.0
 11
82.388048
 21
173.98666
 31
0.0
  0
LINE
  5
74B
100
AcDbEntity
  8
0
  6
CONTINUOUS
 62
     0
100
AcDbLine
 10
81.246097
 20
172.620203
 30
0.0
 11
82.441866
 21
173.815972
 31
0.0
  0
LINE
  5
74C
100
AcDbEntity
  8
0
  6
CONTINUOUS
 62
     0
100
AcDbLine
 10
81.299915
 20
172.449514
 30
0.0
 11
82.495684
 21
173.645283
 31
0.0
  0
LINE
  5
74D
100
AcDbEntity
  8
0
  6
CONTINUOUS
 62
     0
100
AcDbLine
 10
81.353733
 20
172.278826
 30
0.0
 11
82.549502
 21
173.474595
 31
0.0
  0
LINE
  5
74E
100
AcDbEntity
  8
0
  6
CONTINUOUS
 62
     0
100
AcDbLine
 10
81.40755
 20
172.108137
 30
0.0
 11
82.60332
 21
173.303906
 31
0.0
  0
LINE
  5
74F
100
AcDbEntity
  8
0
  6
CONTINUOUS
 62
     0
100
AcDbLine
 10
81.461368
 20
171.937449
 30
0.0
 11
82.657137
 21
173.133218
 31
0.0
  0
LINE
  5
750
100
AcDbEntity
  8
0
  6
CONTINUOUS
 62
     0
100
AcDbLine
 10
81.515186
 20
171.76676
 30
0.0
 11
82.710955
 21
172.962529
 31
0.0
  0
LINE
  5
751
100
AcDbEntity
  8
0
  6
CONTINUOUS
 62
     0
100
AcDbLine
 10
81.569004
 20
171.596072
 30
0.0
 11
82.764773
 21
172.791841
 31
0.0
  0
LINE
  5
752
100
AcDbEntity
  8
0
  6
CONTINUOUS
 62
     0
100
AcDbLine
 10
81.622822
 20
171.425383
 30
0.0
 11
82.818591
 21
172.621152
 31
0.0
  0
LINE
  5
753
100
AcDbEntity
  8
0
  6
CONTINUOUS
 62
     0
100
AcDbLine
 10
81.67664
 20
171.254695
 30
0.0
 11
82.872409
 21
172.450464
 31
0.0
  0
LINE
  5
754
100
AcDbEntity
  8
0
  6
CONTINUOUS
 62
     0
100
AcDbLine
 10
81.730458
 20
171.084006
 30
0.0
 11
82.926227
 21
172.279775
 31
0.0
  0
LINE
  5
755
100
AcDbEntity
  8
0
  6
CONTINUOUS
 62
     0
100
AcDbLine
 10
81.784276
 20
170.913318
 30
0.0
 11
82.980045
 21
172.109087
 31
0.0
  0
LINE
  5
756
100
AcDbEntity
  8
0
  6
CONTINUOUS
 62
     0
100
AcDbLine
 10
81.838093
 20
170.742629
 30
0.0
 11
83.033863
 21
171.938398
 31
0.0
  0
LINE
  5
757
100
AcDbEntity
  8
0
  6
CONTINUOUS
 62
     0
100
AcDbLine
 10
81.891911
 20
170.571941
 30
0.0
 11
83.08768
 21
171.76771
 31
0.0
  0
LINE
  5
758
100
AcDbEntity
  8
0
  6
CONTINUOUS
 62
     0
100
AcDbLine
 10
81.945729
 20
170.401252
 30
0.0
 11
83.141498
 21
171.597021
 31
0.0
  0
LINE
  5
759
100
AcDbEntity
  8
0
  6
CONTINUOUS
 62
     0
100
AcDbLine
 10
81.999547
 20
170.230564
 30
0.0
 11
83.195316
 21
171.426333
 31
0.0
  0
LINE
  5
75A
100
AcDbEntity
  8
0
  6
CONTINUOUS
 62
     0
100
AcDbLine
 10
82.210881
 20
170.217391
 30
0.0
 11
83.249134
 21
171.255644
 31
0.0
  0
LINE
  5
75B
100
AcDbEntity
  8
0
  6
CONTINUOUS
 62
     0
100
AcDbLine
 10
82.435388
 20
170.217391
 30
0.0
 11
83.302952
 21
171.084956
 31
0.0
  0
LINE
  5
75C
100
AcDbEntity
  8
0
  6
CONTINUOUS
 62
     0
100
AcDbLine
 10
82.659894
 20
170.217391
 30
0.0
 11
83.35677
 21
170.914267
 31
0.0
  0
LINE
  5
75D
100
AcDbEntity
  8
0
  6
CONTINUOUS
 62
     0
100
AcDbLine
 10
82.884401
 20
170.217391
 30
0.0
 11
83.410588
 21
170.743579
 31
0.0
  0
LINE
  5
75E
100
AcDbEntity
  8
0
  6
CONTINUOUS
 62
     0
100
AcDbLine
 10
83.108907
 20
170.217391
 30
0.0
 11
83.464406
 21
170.57289
 31
0.0
  0
LINE
  5
75F
100
AcDbEntity
  8
0
  6
CONTINUOUS
 62
     0
100
AcDbLine
 10
83.333414
 20
170.217391
 30
0.0
 11
83.518224
 21
170.402202
 31
0.0
  0
LINE
  5
760
100
AcDbEntity
  8
0
  6
CONTINUOUS
 62
     0
100
AcDbLine
 10
83.55792
 20
170.217391
 30
0.0
 11
83.572041
 21
170.231513
 31
0.0
  0
ENDBLK
  5
761
100
AcDbEntity
  8
0
100
AcDbBlockEnd
  0
BLOCK
  5
763
100
AcDbEntity
  8
0
100
AcDbBlockBegin
  2
*X33
 70
    65
 10
0.0
 20
0.0
 30
0.0
  3
*X33
  1

  0
LINE
  5
765
100
AcDbEntity
  8
0
  6
CONTINUOUS
 62
     0
100
AcDbLine
 10
91.415644
 20
170.217391
 30
0.0
 11
92.263687
 21
171.065434
 31
0.0
  0
LINE
  5
766
100
AcDbEntity
  8
0
  6
CONTINUOUS
 62
     0
100
AcDbLine
 10
94.915644
 20
173.717391
 30
0.0
 11
96.415644
 21
175.217391
 31
0.0
  0
LINE
  5
767
100
AcDbEntity
  8
0
  6
CONTINUOUS
 62
     0
100
AcDbLine
 10
91.191138
 20
170.217391
 30
0.0
 11
92.36707
 21
171.393324
 31
0.0
  0
LINE
  5
768
100
AcDbEntity
  8
0
  6
CONTINUOUS
 62
     0
100
AcDbLine
 10
94.691138
 20
173.717391
 30
0.0
 11
96.191138
 21
175.217391
 31
0.0
  0
LINE
  5
769
100
AcDbEntity
  8
0
  6
CONTINUOUS
 62
     0
100
AcDbLine
 10
90.966631
 20
170.217391
 30
0.0
 11
92.470453
 21
171.721213
 31
0.0
  0
LINE
  5
76A
100
AcDbEntity
  8
0
  6
CONTINUOUS
 62
     0
100
AcDbLine
 10
94.466631
 20
173.717391
 30
0.0
 11
95.966631
 21
175.217391
 31
0.0
  0
LINE
  5
76B
100
AcDbEntity
  8
0
  6
CONTINUOUS
 62
     0
100
AcDbLine
 10
90.742125
 20
170.217391
 30
0.0
 11
92.573836
 21
172.049103
 31
0.0
  0
LINE
  5
76C
100
AcDbEntity
  8
0
  6
CONTINUOUS
 62
     0
100
AcDbLine
 10
94.242125
 20
173.717391
 30
0.0
 11
95.742125
 21
175.217391
 31
0.0
  0
LINE
  5
76D
100
AcDbEntity
  8
0
  6
CONTINUOUS
 62
     0
100
AcDbLine
 10
90.517618
 20
170.217391
 30
0.0
 11
92.677219
 21
172.376992
 31
0.0
  0
LINE
  5
76E
100
AcDbEntity
  8
0
  6
CONTINUOUS
 62
     0
100
AcDbLine
 10
94.017618
 20
173.717391
 30
0.0
 11
95.517618
 21
175.217391
 31
0.0
  0
LINE
  5
76F
100
AcDbEntity
  8
0
  6
CONTINUOUS
 62
     0
100
AcDbLine
 10
90.483551
 20
170.407831
 30
0.0
 11
92.780602
 21
172.704882
 31
0.0
  0
LINE
  5
770
100
AcDbEntity
  8
0
  6
CONTINUOUS
 62
     0
100
AcDbLine
 10
93.793112
 20
173.717391
 30
0.0
 11
95.293112
 21
175.217391
 31
0.0
  0
LINE
  5
771
100
AcDbEntity
  8
0
  6
CONTINUOUS
 62
     0
100
AcDbLine
 10
90.586935
 20
170.73572
 30
0.0
 11
92.883986
 21
173.032772
 31
0.0
  0
LINE
  5
772
100
AcDbEntity
  8
0
  6
CONTINUOUS
 62
     0
100
AcDbLine
 10
93.568606
 20
173.717391
 30
0.0
 11
95.068606
 21
175.217391
 31
0.0
  0
LINE
  5
773
100
AcDbEntity
  8
0
  6
CONTINUOUS
 62
     0
100
AcDbLine
 10
90.690318
 20
171.06361
 30
0.0
 11
92.987369
 21
173.360661
 31
0.0
  0
LINE
  5
774
100
AcDbEntity
  8
0
  6
CONTINUOUS
 62
     0
100
AcDbLine
 10
93.344099
 20
173.717391
 30
0.0
 11
94.844099
 21
175.217391
 31
0.0
  0
LINE
  5
775
100
AcDbEntity
  8
0
  6
CONTINUOUS
 62
     0
100
AcDbLine
 10
90.793701
 20
171.3915
 30
0.0
 11
93.090752
 21
173.688551
 31
0.0
  0
LINE
  5
776
100
AcDbEntity
  8
0
  6
CONTINUOUS
 62
     0
100
AcDbLine
 10
93.119593
 20
173.717391
 30
0.0
 11
94.619593
 21
175.217391
 31
0.0
  0
LINE
  5
777
100
AcDbEntity
  8
0
  6
CONTINUOUS
 62
     0
100
AcDbLine
 10
90.897084
 20
171.719389
 30
0.0
 11
94.395086
 21
175.217391
 31
0.0
  0
LINE
  5
778
100
AcDbEntity
  8
0
  6
CONTINUOUS
 62
     0
100
AcDbLine
 10
91.000467
 20
172.047279
 30
0.0
 11
94.17058
 21
175.217391
 31
0.0
  0
LINE
  5
779
100
AcDbEntity
  8
0
  6
CONTINUOUS
 62
     0
100
AcDbLine
 10
91.103851
 20
172.375168
 30
0.0
 11
93.946074
 21
175.217391
 31
0.0
  0
LINE
  5
77A
100
AcDbEntity
  8
0
  6
CONTINUOUS
 62
     0
100
AcDbLine
 10
91.207234
 20
172.703058
 30
0.0
 11
93.721567
 21
175.217391
 31
0.0
  0
LINE
  5
77B
100
AcDbEntity
  8
0
  6
CONTINUOUS
 62
     0
100
AcDbLine
 10
91.310617
 20
173.030948
 30
0.0
 11
93.497061
 21
175.217391
 31
0.0
  0
LINE
  5
77C
100
AcDbEntity
  8
0
  6
CONTINUOUS
 62
     0
100
AcDbLine
 10
91.414
 20
173.358837
 30
0.0
 11
93.272554
 21
175.217391
 31
0.0
  0
LINE
  5
77D
100
AcDbEntity
  8
0
  6
CONTINUOUS
 62
     0
100
AcDbLine
 10
91.517383
 20
173.686727
 30
0.0
 11
93.048048
 21
175.217391
 31
0.0
  0
LINE
  5
77E
100
AcDbEntity
  8
0
  6
CONTINUOUS
 62
     0
100
AcDbLine
 10
91.620766
 20
174.014616
 30
0.0
 11
92.823542
 21
175.217391
 31
0.0
  0
LINE
  5
77F
100
AcDbEntity
  8
0
  6
CONTINUOUS
 62
     0
100
AcDbLine
 10
91.72415
 20
174.342506
 30
0.0
 11
92.588507
 21
175.206864
 31
0.0
  0
LINE
  5
780
100
AcDbEntity
  8
0
  6
CONTINUOUS
 62
     0
100
AcDbLine
 10
91.85771
 20
174.700573
 30
0.0
 11
92.250049
 21
175.092912
 31
0.0
  0
LINE
  5
781
100
AcDbEntity
  8
0
  6
CONTINUOUS
 62
     0
100
AcDbLine
 10
91.64015
 20
170.217391
 30
0.0
 11
92.160303
 21
170.737544
 31
0.0
  0
LINE
  5
782
100
AcDbEntity
  8
0
  6
CONTINUOUS
 62
     0
100
AcDbLine
 10
95.14015
 20
173.717391
 30
0.0
 11
96.570075
 21
175.147316
 31
0.0
  0
LINE
  5
783
100
AcDbEntity
  8
0
  6
CONTINUOUS
 62
     0
100
AcDbLine
 10
91.864657
 20
170.217391
 30
0.0
 11
92.05692
 21
170.409655
 31
0.0
  0
LINE
  5
784
100
AcDbEntity
  8
0
  6
CONTINUOUS
 62
     0
100
AcDbLine
 10
95.364657
 20
173.717391
 30
0.0
 11
96.682328
 21
175.035063
 31
0.0
  0
LINE
  5
785
100
AcDbEntity
  8
0
  6
CONTINUOUS
 62
     0
100
AcDbLine
 10
95.589163
 20
173.717391
 30
0.0
 11
96.794582
 21
174.92281
 31
0.0
  0
LINE
  5
786
100
AcDbEntity
  8
0
  6
CONTINUOUS
 62
     0
100
AcDbLine
 10
95.81367
 20
173.717391
 30
0.0
 11
96.906835
 21
174.810557
 31
0.0
  0
LINE
  5
787
100
AcDbEntity
  8
0
  6
CONTINUOUS
 62
     0
100
AcDbLine
 10
96.038176
 20
173.717391
 30
0.0
 11
97.0
 21
174.679215
 31
0.0
  0
LINE
  5
788
100
AcDbEntity
  8
0
  6
CONTINUOUS
 62
     0
100
AcDbLine
 10
96.262682
 20
173.717391
 30
0.0
 11
97.0
 21
174.454709
 31
0.0
  0
LINE
  5
789
100
AcDbEntity
  8
0
  6
CONTINUOUS
 62
     0
100
AcDbLine
 10
96.487189
 20
173.717391
 30
0.0
 11
97.0
 21
174.230203
 31
0.0
  0
LINE
  5
78A
100
AcDbEntity
  8
0
  6
CONTINUOUS
 62
     0
100
AcDbLine
 10
96.711695
 20
173.717391
 30
0.0
 11
97.0
 21
174.005696
 31
0.0
  0
LINE
  5
78B
100
AcDbEntity
  8
0
  6
CONTINUOUS
 62
     0
100
AcDbLine
 10
96.936202
 20
173.717391
 30
0.0
 11
97.0
 21
173.78119
 31
0.0
  0
ENDBLK
  5
78C
100
AcDbEntity
  8
0
100
AcDbBlockEnd
  0
BLOCK
  5
84F
100
AcDbEntity
  8
0
100
AcDbBlockBegin
  2
*D34
 70
    65
 10
0.0
 20
0.0
 30
0.0
  3
*D34
  1

  0
LINE
  5
850
100
AcDbEntity
  8
0
  6
BYBLOCK
 62
     0
100
AcDbLine
 10
42.0
 20
144.691291
 30
0.0
 11
42.0
 21
125.27695
 31
0.0
  0
LINE
  5
851
100
AcDbEntity
  8
0
  6
BYBLOCK
 62
     0
100
AcDbLine
 10
48.0
 20
133.935634
 30
0.0
 11
48.0
 21
125.27695
 31
0.0
  0
LINE
  5
852
100
AcDbEntity
  8
0
  6
BYBLOCK
 62
     0
100
AcDbLine
 10
50.6
 20
126.32915
 30
0.0
 11
53.2
 21
126.32915
 31
0.0
  0
LINE
  5
853
100
AcDbEntity
  8
0
  6
BYBLOCK
 62
     0
100
AcDbLine
 10
39.4
 20
126.32915
 30
0.0
 11
21.230113
 21
126.32915
 31
0.0
  0
LINE
  5
854
100
AcDbEntity
  8
0
  6
BYBLOCK
 62
     0
100
AcDbLine
 10
48.0
 20
126.32915
 30
0.0
 11
42.0
 21
126.32915
 31
0.0
  0
SOLID
  5
855
100
AcDbEntity
  8
0
  6
BYBLOCK
 62
     0
100
AcDbTrace
 10
50.6
 20
126.762483
 30
0.0
 11
50.6
 21
125.895816
 31
0.0
 12
48.0
 22
126.32915
 32
0.0
 13
48.0
 23
126.32915
 33
0.0
  0
SOLID
  5
856
100
AcDbEntity
  8
0
  6
BYBLOCK
 62
     0
100
AcDbTrace
 10
39.4
 20
126.762483
 30
0.0
 11
39.4
 21
125.895816
 31
0.0
 12
42.0
 22
126.32915
 32
0.0
 13
42.0
 23
126.32915
 33
0.0
  0
MTEXT
  5
857
100
AcDbEntity
  8
0
  6
BYBLOCK
 62
     0
100
AcDbMText
 10
27.072245
 20
128.35915
 30
0.0
 40
3.0
 41
0.0
 71
     5
 72
     1
  1
\A1;6±0.05
  0
POINT
  5
858
100
AcDbEntity
  8
DEFPOINTS
  6
BYBLOCK
 62
     0
100
AcDbPoint
 10
42.0
 20
145.217391
 30
0.0
  0
POINT
  5
859
100
AcDbEntity
  8
DEFPOINTS
  6
BYBLOCK
 62
     0
100
AcDbPoint
 10
48.0
 20
134.461734
 30
0.0
  0
POINT
  5
85A
100
AcDbEntity
  8
DEFPOINTS
  6
BYBLOCK
 62
     0
100
AcDbPoint
 10
48.0
 20
126.32915
 30
0.0
  0
ENDBLK
  5
85B
100
AcDbEntity
  8
0
100
AcDbBlockEnd
  0
BLOCK
  5
85C
100
AcDbEntity
  8
0
100
AcDbBlockBegin
  2
*D35
 70
    65
 10
0.0
 20
0.0
 30
0.0
  3
*D35
  1

  0
LINE
  5
85D
100
AcDbEntity
  8
0
  6
BYBLOCK
 62
     0
100
AcDbLine
 10
87.0
 20
143.691291
 30
0.0
 11
87.0
 21
125.443216
 31
0.0
  0
LINE
  5
85E
100
AcDbEntity
  8
0
  6
BYBLOCK
 62
     0
100
AcDbLine
 10
97.0
 20
144.691291
 30
0.0
 11
97.0
 21
125.443216
 31
0.0
  0
LINE
  5
85F
100
AcDbEntity
  8
0
  6
BYBLOCK
 62
     0
100
AcDbLine
 10
89.6
 20
126.495416
 30
0.0
 11
94.4
 21
126.495416
 31
0.0
  0
LINE
  5
860
100
AcDbEntity
  8
0
  6
BYBLOCK
 62
     0
100
AcDbLine
 10
97.0
 20
126.495416
 30
0.0
 11
118.752307
 21
126.495416
 31
0.0
  0
SOLID
  5
861
100
AcDbEntity
  8
0
  6
BYBLOCK
 62
     0
100
AcDbTrace
 10
89.6
 20
126.928749
 30
0.0
 11
89.6
 21
126.062082
 31
0.0
 12
87.0
 22
126.495416
 32
0.0
 13
87.0
 23
126.495416
 33
0.0
  0
SOLID
  5
862
100
AcDbEntity
  8
0
  6
BYBLOCK
 62
     0
100
AcDbTrace
 10
94.4
 20
126.928749
 30
0.0
 11
94.4
 21
126.062082
 31
0.0
 12
97.0
 22
126.495416
 32
0.0
 13
97.0
 23
126.495416
 33
0.0
  0
MTEXT
  5
863
100
AcDbEntity
  8
0
  6
BYBLOCK
 62
     0
100
AcDbMText
 10
112.160175
 20
128.525416
 30
0.0
 40
3.0
 41
0.0
 71
     5
 72
     1
  1
\A1;10±0.05
  0
POINT
  5
864
100
AcDbEntity
  8
DEFPOINTS
  6
BYBLOCK
 62
     0
100
AcDbPoint
 10
87.0
 20
144.217391
 30
0.0
  0
POINT
  5
865
100
AcDbEntity
  8
DEFPOINTS
  6
BYBLOCK
 62
     0
100
AcDbPoint
 10
97.0
 20
145.217391
 30
0.0
  0
POINT
  5
866
100
AcDbEntity
  8
DEFPOINTS
  6
BYBLOCK
 62
     0
100
AcDbPoint
 10
97.0
 20
126.495416
 30
0.0
  0
ENDBLK
  5
867
100
AcDbEntity
  8
0
100
AcDbBlockEnd
  0
ENDSEC
  0
SECTION
  2
ENTITIES
  0
LINE
  5
8A
100
AcDbEntity
  8
OGGETTO
  6
CONTINUOUS
100
AcDbLine
 10
44.560062
 20
175.217391
 30
0.0
 11
42.5
 21
175.217391
 31
0.0
  0
LINE
  5
8B
100
AcDbEntity
  8
OGGETTO
  6
CONTINUOUS
100
AcDbLine
 10
42.0
 20
174.717391
 30
0.0
 11
42.0
 21
145.217391
 31
0.0
  0
LINE
  5
8C
100
AcDbEntity
  8
OGGETTO
  6
CONTINUOUS
100
AcDbLine
 10
43.0
 20
144.217391
 30
0.0
 11
96.0
 21
144.217391
 31
0.0
  0
LINE
  5
8D
100
AcDbEntity
  8
OGGETTO
  6
CONTINUOUS
100
AcDbLine
 10
97.0
 20
145.217391
 30
0.0
 11
97.0
 21
174.717391
 31
0.0
  0
LINE
  5
8E
100
AcDbEntity
  8
OGGETTO
  6
CONTINUOUS
100
AcDbLine
 10
96.5
 20
175.217391
 30
0.0
 11
92.73323
 21
175.217391
 31
0.0
  0
LINE
  5
9A
100
AcDbEntity
  8
OGGETTO
  6
CONTINUOUS
100
AcDbLine
 10
81.26677
 20
175.217391
 30
0.0
 11
54.73323
 21
175.217391
 31
0.0
  0
LINE
  5
BE
100
AcDbEntity
  8
OGGETTO
  6
CONTINUOUS
100
AcDbLine
 10
96.5
 20
175.217391
 30
0.0
 11
97.0
 21
174.717391
 31
0.0
  0
LINE
  5
BF
100
AcDbEntity
  8
OGGETTO
  6
CONTINUOUS
100
AcDbLine
 10
42.5
 20
175.217391
 30
0.0
 11
42.0
 21
174.717391
 31
0.0
  0
LINE
  5
C0
100
AcDbEntity
  8
OGGETTO
  6
CONTINUOUS
100
AcDbLine
 10
42.0
 20
145.217391
 30
0.0
 11
43.0
 21
144.217391
 31
0.0
  0
LINE
  5
C1
100
AcDbEntity
  8
OGGETTO
  6
CONTINUOUS
100
AcDbLine
 10
97.0
 20
145.217391
 30
0.0
 11
96.0
 21
144.217391
 31
0.0
  0
LINE
  5
C4
100
AcDbEntity
  8
OGGETTO
  6
CONTINUOUS
100
AcDbLine
 10
69.5
 20
160.217391
 30
0.0
 11
72.9
 21
160.217391
 31
0.0
  0
LINE
  5
C5
100
AcDbEntity
  8
OGGETTO
  6
CONTINUOUS
100
AcDbLine
 10
72.9
 20
160.217391
 30
0.0
 11
72.9
 21
144.217391
 31
0.0
1001
ACAD
1000
ASC_BOUNDS
1002
{
1070
    19
1002
}
  0
LINE
  5
C6
100
AcDbEntity
  8
OGGETTO
  6
CONTINUOUS
100
AcDbLine
 10
69.5
 20
160.217391
 30
0.0
 11
66.1
 21
160.217391
 31
0.0
  0
LINE
  5
C7
100
AcDbEntity
  8
OGGETTO
  6
CONTINUOUS
100
AcDbLine
 10
66.1
 20
160.217391
 30
0.0
 11
66.1
 21
144.217391
 31
0.0
1001
ACAD
1000
ASC_BOUNDS
1002
{
1070
    19
1002
}
  0
LINE
  5
C9
100
AcDbEntity
  8
OGGETTO
  6
CONTINUOUS
100
AcDbLine
 10
66.1
 20
160.217391
 30
0.0
 11
69.5
 21
162.180382
 31
0.0
1001
ACAD
1000
ASC_BOUNDS
1002
{
1070
    19
1002
}
  0
LINE
  5
CA
100
AcDbEntity
  8
OGGETTO
  6
CONTINUOUS
100
AcDbLine
 10
72.9
 20
160.217391
 30
0.0
 11
69.5
 21
162.180382
 31
0.0
1001
ACAD
1000
ASC_BOUNDS
1002
{
1070
    19
1002
}
  0
MTEXT
  5
17C
100
AcDbEntity
  8
QUOTE
  6
CONTINUOUS
100
AcDbMText
 10
70.132523
 20
112.106046
 30
0.0
 40
2.6
 41
0.0
 71
     7
 72
     1
  1

  0
MTEXT
  5
17E
100
AcDbEntity
  8
QUOTE
  6
CONTINUOUS
100
AcDbMText
 10
69.778676
 20
112.106046
 30
0.0
 40
2.6
 41
0.0
 71
     9
 72
     1
  1

  0
LINE
  5
5FF
100
AcDbEntity
  8
OGGETTO
  6
CONTINUOUS
100
AcDbLine
 10
51.439938
 20
175.217391
 30
0.0
 11
56.0
 21
175.217391
 31
0.0
  0
LINE
  5
601
100
AcDbEntity
  8
OGGETTO
  6
CONTINUOUS
100
AcDbLine
 10
50.867708
 20
174.797815
 30
0.0
 11
48.762974
 21
168.12245
 31
0.0
  0
LINE
  5
603
100
AcDbEntity
  8
OGGETTO
  6
CONTINUOUS
100
AcDbLine
 10
45.132292
 20
174.797815
 30
0.0
 11
47.237026
 21
168.12245
 31
0.0
  0
LINE
  5
605
100
AcDbEntity
  8
OGGETTO
  6
CONTINUOUS
100
AcDbLine
 10
91.779513
 20
174.518097
 30
0.0
 11
87.762974
 21
161.77926
 31
0.0
  0
LINE
  5
607
100
AcDbEntity
  8
OGGETTO
  6
CONTINUOUS
100
AcDbLine
 10
82.220487
 20
174.518097
 30
0.0
 11
86.237026
 21
161.77926
 31
0.0
  0
LINE
  5
608
100
AcDbEntity
  8
OGGETTO
  6
CONTINUOUS
100
AcDbLine
 10
81.26677
 20
175.217391
 30
0.0
 11
73.879876
 21
175.217391
 31
0.0
  0
LINE
  5
6A1
100
AcDbEntity
  8
OGGETTO
  6
CONTINUOUS
100
AcDbLine
 10
81.26677
 20
175.217391
 30
0.0
 11
77.0
 21
175.217391
 31
0.0
  0
LINE
  5
6AB
100
AcDbEntity
  8
OGGETTO
  6
CONTINUOUS
100
AcDbLine
 10
51.439938
 20
175.217391
 30
0.0
 11
56.0
 21
175.217391
 31
0.0
  0
LINE
  5
6B2
100
AcDbEntity
  8
OGGETTO
  6
CONTINUOUS
100
AcDbLine
 10
45.517943
 20
173.717391
 30
0.0
 11
45.472948
 21
173.717391
 31
0.0
  0
LINE
  5
6B3
100
AcDbEntity
  8
OGGETTO
  6
CONTINUOUS
100
AcDbLine
 10
50.527052
 20
173.717391
 30
0.0
 11
50.482057
 21
173.717391
 31
0.0
  0
ARC
  5
6B9
100
AcDbEntity
  8
OGGETTO
  6
CONTINUOUS
100
AcDbCircle
 10
51.439938
 20
174.617391
 30
0.0
 40
0.6
100
AcDbArc
 50
90.0
 51
162.5
1001
ACAD
1000
ASC_BOUNDS
1002
{
1070
    19
1002
}
  0
ARC
  5
6BA
100
AcDbEntity
  8
OGGETTO
  6
CONTINUOUS
100
AcDbCircle
 10
44.560062
 20
174.617391
 30
0.0
 40
0.6
100
AcDbArc
 50
17.5
 51
90.0
1001
ACAD
1000
ASC_BOUNDS
1002
{
1070
    19
1002
}
  0
ARC
  5
6BB
100
AcDbEntity
  8
OGGETTO
  6
CONTINUOUS
100
AcDbCircle
 10
48.0
 20
168.363015
 30
0.0
 40
0.8
100
AcDbArc
 50
197.5
 51
342.5
  0
ARC
  5
6BC
100
AcDbEntity
  8
OGGETTO
  6
CONTINUOUS
100
AcDbCircle
 10
87.0
 20
162.019825
 30
0.0
 40
0.8
100
AcDbArc
 50
197.5
 51
342.5
  0
ARC
  5
6BD
100
AcDbEntity
  8
OGGETTO
  6
CONTINUOUS
100
AcDbCircle
 10
81.26677
 20
174.217391
 30
0.0
 40
1.0
100
AcDbArc
 50
17.5
 51
90.0
1001
ACAD
1000
ASC_BOUNDS
1002
{
1070
    19
1002
}
  0
ARC
  5
6BE
100
AcDbEntity
  8
OGGETTO
  6
CONTINUOUS
100
AcDbCircle
 10
92.73323
 20
174.217391
 30
0.0
 40
1.0
100
AcDbArc
 50
90.0
 51
162.5
1001
ACAD
1000
ASC_BOUNDS
1002
{
1070
    19
1002
}
  0
LINE
  5
6BF
100
AcDbEntity
  8
OGGETTO
  6
CONTINUOUS
100
AcDbLine
 10
44.560062
 20
175.217391
 30
0.0
 11
42.5
 21
175.217391
 31
0.0
1001
ACAD
1000
ASC_BOUNDS
1002
{
1070
    19
1002
}
  0
LINE
  5
6C0
100
AcDbEntity
  8
OGGETTO
  6
CONTINUOUS
100
AcDbLine
 10
42.5
 20
175.217391
 30
0.0
 11
42.0
 21
174.717391
 31
0.0
1001
ACAD
1000
ASC_BOUNDS
1002
{
1070
    19
1002
}
  0
LINE
  5
6C1
100
AcDbEntity
  8
OGGETTO
  6
CONTINUOUS
100
AcDbLine
 10
42.0
 20
174.717391
 30
0.0
 11
42.0
 21
173.717391
 31
0.0
1001
ACAD
1000
ASC_BOUNDS
1002
{
1070
    19
1002
}
  0
LINE
  5
6C5
100
AcDbEntity
  8
OGGETTO
  6
CONTINUOUS
100
AcDbLine
 10
46.576494
 20
170.217391
 30
0.0
 11
45.132292
 21
174.797815
 31
0.0
1001
ACAD
1000
ASC_BOUNDS
1002
{
1070
    19
1002
}
  0
LINE
  5
6C6
100
AcDbEntity
  8
OGGETTO
  6
CONTINUOUS
100
AcDbLine
 10
51.439938
 20
175.217391
 30
0.0
 11
54.0
 21
175.217391
 31
0.0
1001
ACAD
1000
ASC_BOUNDS
1002
{
1070
    19
1002
}
  0
LINE
  5
6CE
100
AcDbEntity
  8
OGGETTO
  6
CONTINUOUS
100
AcDbLine
 10
81.26677
 20
175.217391
 30
0.0
 11
77.0
 21
175.217391
 31
0.0
1001
ACAD
1000
ASC_BOUNDS
1002
{
1070
    19
1002
}
  0
LINE
  5
6D4
100
AcDbEntity
  8
OGGETTO
  6
CONTINUOUS
100
AcDbLine
 10
83.576494
 20
170.217391
 30
0.0
 11
82.220487
 21
174.518097
 31
0.0
1001
ACAD
1000
ASC_BOUNDS
1002
{
1070
    19
1002
}
  0
LINE
  5
6D5
100
AcDbEntity
  8
OGGETTO
  6
CONTINUOUS
100
AcDbLine
 10
92.73323
 20
175.217391
 30
0.0
 11
96.5
 21
175.217391
 31
0.0
1001
ACAD
1000
ASC_BOUNDS
1002
{
1070
    19
1002
}
  0
LINE
  5
6D6
100
AcDbEntity
  8
OGGETTO
  6
CONTINUOUS
100
AcDbLine
 10
96.5
 20
175.217391
 30
0.0
 11
97.0
 21
174.717391
 31
0.0
1001
ACAD
1000
ASC_BOUNDS
1002
{
1070
    19
1002
}
  0
LINE
  5
6D7
100
AcDbEntity
  8
OGGETTO
  6
CONTINUOUS
100
AcDbLine
 10
97.0
 20
174.717391
 30
0.0
 11
97.0
 21
173.717391
 31
0.0
1001
ACAD
1000
ASC_BOUNDS
1002
{
1070
    19
1002
}
  0
LINE
  5
6DB
100
AcDbEntity
  8
OGGETTO
  6
CONTINUOUS
100
AcDbLine
 10
90.423506
 20
170.217391
 30
0.0
 11
91.779513
 21
174.518097
 31
0.0
1001
ACAD
1000
ASC_BOUNDS
1002
{
1070
    19
1002
}
  0
VIEWPORT
  5
22
100
AcDbEntity
 67
     1
  8
0
100
AcDbViewport
 10
261.517699
 20
154.724298
 30
0.0
 40
523.035398
 41
309.448596
 68
    -1
 69
     1
1001
ACAD
1000
MVIEW
1002
{
1070
    16
1010
0.0
1020
0.0
1030
0.0
1010
0.0
1020
0.0
1030
1.0
1040
0.0
1040
309.448596
1040
261.517699
1040
154.724298
1040
50.0
1040
0.0
1040
0.0
1070
     0
1070
   100
1070
     1
1070
     0
1070
     0
1070
     0
1070
     0
1070
     0
1040
0.0
1040
0.0
1040
0.0
1040
1.0
1040
1.0
1040
10.0
1040
10.0
1070
     0
1002
{
1002
}
1002
}
  0
ENDSEC
  0
SECTION
  2
OBJECTS
  0
DICTIONARY
  5
C
100
AcDbDictionary
  3
ACAD_GROUP
350
D
  3
ACAD_MLINESTYLE
350
E
  0
DICTIONARY
  5
D
102
{ACAD_REACTORS
330
C
102
}
100
AcDbDictionary
  0
DICTIONARY
  5
E
102
{ACAD_REACTORS
330
C
102
}
100
AcDbDictionary
  3
STANDARD
350
13
  0
MLINESTYLE
  5
13
102
{ACAD_REACTORS
330
E
102
}
100
AcDbMlineStyle
  2
STANDARD
 70
     0
  3

 62
     0
 51
90.0
 52
90.0
 71
     2
 49
0.5
 62
   256
  6
BYLAYER
 49
-0.5
 62
   256
  6
BYLAYER
  0
ENDSEC
  0
EOF
