  0
SECTION
  2
HEADER
  9
$ACADVER
  1
AC1012
  9
$DWGCODEPAGE
  3
iso8859-1
  9
$INSBASE
 10
0.0
 20
0.0
 30
0.0
  9
$EXTMIN
 10
-1940.234365
 20
-1659.251698
 30
0.0
  9
$EXTMAX
 10
-1499.519521
 20
-1372.037392
 30
0.0
  9
$LIMMIN
 10
0.0
 20
0.0
  9
$LIMMAX
 10
210.0
 20
297.0
  9
$ORTHOMODE
 70
     0
  9
$REGENMODE
 70
     1
  9
$FILLMODE
 70
     1
  9
$QTEXTMODE
 70
     0
  9
$MIRRTEXT
 70
     1
  9
$DRAGMODE
 70
     2
  9
$LTSCALE
 40
1.0
  9
$OSMODE
 70
     0
  9
$ATTMODE
 70
     1
  9
$TEXTSIZE
 40
3.0
  9
$TRACEWID
 40
0.05
  9
$TEXTSTYLE
  7
STANDARD
  9
$CLAYER
  8
TEMPRA
  9
$CELTYPE
  6
BYLAYER
  9
$CECOLOR
 62
   256
  9
$CELTSCALE
 40
1.0
  9
$DELOBJ
 70
     1
  9
$DISPSILH
 70
     0
  9
$DIMSCALE
 40
1.0
  9
$DIMASZ
 40
2.5
  9
$DIMEXO
 40
0.625
  9
$DIMDLI
 40
3.75
  9
$DIMRND
 40
0.0
  9
$DIMDLE
 40
0.0
  9
$DIMEXE
 40
1.25
  9
$DIMTP
 40
0.0
  9
$DIMTM
 40
0.0
  9
$DIMTXT
 40
3.5
  9
$DIMCEN
 40
0.0
  9
$DIMTSZ
 40
0.0
  9
$DIMTOL
 70
     0
  9
$DIMLIM
 70
     0
  9
$DIMTIH
 70
     0
  9
$DIMTOH
 70
     0
  9
$DIMSE1
 70
     0
  9
$DIMSE2
 70
     0
  9
$DIMTAD
 70
     1
  9
$DIMZIN
 70
     8
  9
$DIMBLK
  1

  9
$DIMASO
 70
     1
  9
$DIMSHO
 70
     1
  9
$DIMPOST
  1

  9
$DIMAPOST
  1

  9
$DIMALT
 70
     0
  9
$DIMALTD
 70
     2
  9
$DIMALTF
 40
0.03937
  9
$DIMLFAC
 40
1.0
  9
$DIMTOFL
 70
     0
  9
$DIMTVP
 40
0.0
  9
$DIMTIX
 70
     0
  9
$DIMSOXD
 70
     0
  9
$DIMSAH
 70
     0
  9
$DIMBLK1
  1

  9
$DIMBLK2
  1

  9
$DIMSTYLE
  2
STANDARD
  9
$DIMCLRD
 70
     0
  9
$DIMCLRE
 70
     0
  9
$DIMCLRT
 70
     0
  9
$DIMTFAC
 40
1.0
  9
$DIMGAP
 40
0.625
  9
$DIMJUST
 70
     0
  9
$DIMSD1
 70
     0
  9
$DIMSD2
 70
     0
  9
$DIMTOLJ
 70
     1
  9
$DIMTZIN
 70
     8
  9
$DIMALTZ
 70
     0
  9
$DIMALTTZ
 70
     0
  9
$DIMFIT
 70
     3
  9
$DIMUPT
 70
     0
  9
$DIMUNIT
 70
     2
  9
$DIMDEC
 70
     2
  9
$DIMTDEC
 70
     2
  9
$DIMALTU
 70
     2
  9
$DIMALTTD
 70
     2
  9
$DIMTXSTY
  7
STANDARD
  9
$DIMAUNIT
 70
     0
  9
$LUNITS
 70
     2
  9
$LUPREC
 70
     4
  9
$SKETCHINC
 40
0.1
  9
$FILLETRAD
 40
6.0
  9
$AUNITS
 70
     0
  9
$AUPREC
 70
     0
  9
$MENU
  1
acad
  9
$ELEVATION
 40
0.0
  9
$PELEVATION
 40
0.0
  9
$THICKNESS
 40
0.0
  9
$LIMCHECK
 70
     0
  9
$BLIPMODE
 70
     1
  9
$CHAMFERA
 40
0.0
  9
$CHAMFERB
 40
0.0
  9
$CHAMFERC
 40
20.0
  9
$CHAMFERD
 40
0.0
  9
$SKPOLY
 70
     0
  9
$TDCREATE
 40
2452354.314848842
  9
$TDUPDATE
 40
2452630.525319097
  9
$TDINDWG
 40
0.0296362269
  9
$TDUSRTIMER
 40
0.0296362269
  9
$USRTIMER
 70
     1
  9
$ANGBASE
 50
0.0
  9
$ANGDIR
 70
     0
  9
$PDMODE
 70
     0
  9
$PDSIZE
 40
0.0
  9
$PLINEWID
 40
0.0
  9
$COORDS
 70
     1
  9
$SPLFRAME
 70
     0
  9
$SPLINETYPE
 70
     6
  9
$SPLINESEGS
 70
     8
  9
$ATTDIA
 70
     0
  9
$ATTREQ
 70
     1
  9
$HANDLING
 70
     1
  9
$HANDSEED
  5
EDA
  9
$SURFTAB1
 70
     6
  9
$SURFTAB2
 70
     6
  9
$SURFTYPE
 70
     6
  9
$SURFU
 70
     6
  9
$SURFV
 70
     6
  9
$UCSNAME
  2

  9
$UCSORG
 10
0.0
 20
0.0
 30
0.0
  9
$UCSXDIR
 10
1.0
 20
0.0
 30
0.0
  9
$UCSYDIR
 10
0.0
 20
1.0
 30
0.0
  9
$PUCSNAME
  2

  9
$PUCSORG
 10
0.0
 20
0.0
 30
0.0
  9
$PUCSXDIR
 10
1.0
 20
0.0
 30
0.0
  9
$PUCSYDIR
 10
0.0
 20
1.0
 30
0.0
  9
$USERI1
 70
     0
  9
$USERI2
 70
     0
  9
$USERI3
 70
     0
  9
$USERI4
 70
     0
  9
$USERI5
 70
     0
  9
$USERR1
 40
0.0
  9
$USERR2
 40
0.0
  9
$USERR3
 40
0.0
  9
$USERR4
 40
0.0
  9
$USERR5
 40
0.0
  9
$WORLDVIEW
 70
     1
  9
$SHADEDGE
 70
     3
  9
$SHADEDIF
 70
    70
  9
$TILEMODE
 70
     1
  9
$MAXACTVP
 70
    16
  9
$PINSBASE
 10
0.0
 20
0.0
 30
0.0
  9
$PLIMCHECK
 70
     0
  9
$PEXTMIN
 10
1.000000E+20
 20
1.000000E+20
 30
1.000000E+20
  9
$PEXTMAX
 10
-1.000000E+20
 20
-1.000000E+20
 30
-1.000000E+20
  9
$PLIMMIN
 10
0.0
 20
0.0
  9
$PLIMMAX
 10
12.0
 20
9.0
  9
$UNITMODE
 70
     0
  9
$VISRETAIN
 70
     0
  9
$PLINEGEN
 70
     0
  9
$PSLTSCALE
 70
     1
  9
$TREEDEPTH
 70
  3020
  9
$PICKSTYLE
 70
     1
  9
$CMLSTYLE
  2
STANDARD
  9
$CMLJUST
 70
     0
  9
$CMLSCALE
 40
20.0
  9
$SAVEIMAGES
 70
     0
  0
ENDSEC
  0
SECTION
  2
CLASSES
  0
ENDSEC
  0
SECTION
  2
TABLES
  0
TABLE
  2
VPORT
  5
8
100
AcDbSymbolTable
 70
     3
  0
VPORT
  5
ED9
100
AcDbSymbolTableRecord
100
AcDbViewportTableRecord
  2
*ACTIVE
 70
     0
 10
0.0
 20
0.0
 11
1.0
 21
1.0
 12
-1757.841063
 22
-1490.551855
 13
0.0
 23
0.0
 14
10.0
 24
10.0
 15
10.0
 25
10.0
 16
0.0
 26
0.0
 36
1.0
 17
0.0
 27
0.0
 37
0.0
 40
271.021699
 41
1.873134
 42
50.0
 43
0.0
 44
0.0
 50
0.0
 51
0.0
 71
     0
 72
   100
 73
     1
 74
     0
 75
     0
 76
     0
 77
     0
 78
     0
  0
ENDTAB
  0
TABLE
  2
LTYPE
  5
5
100
AcDbSymbolTable
 70
     4
  0
LTYPE
  5
13
100
AcDbSymbolTableRecord
100
AcDbLinetypeTableRecord
  2
BYBLOCK
 70
     0
  3

 72
    65
 73
     0
 40
0.0
  0
LTYPE
  5
14
100
AcDbSymbolTableRecord
100
AcDbLinetypeTableRecord
  2
BYLAYER
 70
     0
  3

 72
    65
 73
     0
 40
0.0
  0
LTYPE
  5
15
100
AcDbSymbolTableRecord
100
AcDbLinetypeTableRecord
  2
CONTINUOUS
 70
    64
  3
Solid line
 72
    65
 73
     0
 40
0.0
  0
LTYPE
  5
94
100
AcDbSymbolTableRecord
100
AcDbLinetypeTableRecord
  2
ACAD_ISO04W100
 70
    64
  3
____ . ____ . ____ . ____ . ____ . ____ . ____ 
 72
    65
 73
     4
 40
30.5
 49
24.0
 74
     0
 49
-3.0
 74
     0
 49
0.5
 74
     0
 49
-3.0
 74
     0
  0
LTYPE
  5
225
100
AcDbSymbolTableRecord
100
AcDbLinetypeTableRecord
  2
TRATTEGGIATAX2
 70
    64
  3
____  ____  ____  ____  ____  ____  ____  ____ 
 72
    65
 73
     2
 40
1.5
 49
1.0
 74
     0
 49
-0.5
 74
     0
  0
LTYPE
  5
226
100
AcDbSymbolTableRecord
100
AcDbLinetypeTableRecord
  2
NASCOSTA
 70
    64
  3
__ __ __ __ __ __ __ __ __ __ __ __ __ __ __ __
 72
    65
 73
     2
 40
0.375
 49
0.25
 74
     0
 49
-0.125
 74
     0
  0
ENDTAB
  0
TABLE
  2
LAYER
  5
2
100
AcDbSymbolTable
 70
    12
  0
LAYER
  5
F
100
AcDbSymbolTableRecord
100
AcDbLayerTableRecord
  2
0
 70
     0
 62
     7
  6
CONTINUOUS
  0
LAYER
  5
95
100
AcDbSymbolTableRecord
100
AcDbLayerTableRecord
  2
DISEGNO
 70
    64
 62
     7
  6
CONTINUOUS
  0
LAYER
  5
96
100
AcDbSymbolTableRecord
100
AcDbLayerTableRecord
  2
ASSI
 70
    64
 62
     1
  6
ACAD_ISO04W100
  0
LAYER
  5
97
100
AcDbSymbolTableRecord
100
AcDbLayerTableRecord
  2
SEZIONE
 70
    64
 62
     3
  6
CONTINUOUS
  0
LAYER
  5
98
100
AcDbSymbolTableRecord
100
AcDbLayerTableRecord
  2
TEMPRA
 70
    64
 62
     2
  6
CONTINUOUS
  0
LAYER
  5
99
100
AcDbSymbolTableRecord
100
AcDbLayerTableRecord
  2
QUOTE
 70
    64
 62
     5
  6
CONTINUOUS
  0
LAYER
  5
1A3
100
AcDbSymbolTableRecord
100
AcDbLayerTableRecord
  2
TRATTO
 70
    64
 62
     6
  6
NASCOSTA
  0
LAYER
  5
28A
100
AcDbSymbolTableRecord
100
AcDbLayerTableRecord
  2
DEFPOINTS
 70
    64
 62
     7
  6
CONTINUOUS
  0
LAYER
  5
4A6
100
AcDbSymbolTableRecord
100
AcDbLayerTableRecord
  2
TABELLA
 70
    64
 62
     8
  6
CONTINUOUS
  0
LAYER
  5
55B
100
AcDbSymbolTableRecord
100
AcDbLayerTableRecord
  2
MARCATURA
 70
    64
 62
   136
  6
CONTINUOUS
  0
LAYER
  5
55C
100
AcDbSymbolTableRecord
100
AcDbLayerTableRecord
  2
TESTO
 70
    64
 62
   140
  6
CONTINUOUS
  0
LAYER
  5
658
100
AcDbSymbolTableRecord
100
AcDbLayerTableRecord
  2
OGGETTO
 70
    64
 62
   250
  6
CONTINUOUS
  0
ENDTAB
  0
TABLE
  2
STYLE
  5
3
100
AcDbSymbolTable
 70
     2
  0
STYLE
  5
10
100
AcDbSymbolTableRecord
100
AcDbTextStyleTableRecord
  2
STANDARD
 70
    64
 40
0.0
 41
1.1
 50
0.0
 71
     0
 42
3.0
  3
C:\Programmi\AutoCAD LT\isocp.shx
  4

  0
STYLE
  5
B0
100
AcDbSymbolTableRecord
100
AcDbTextStyleTableRecord
  2
STYLE3
 70
    64
 40
0.0
 41
1.1
 50
0.0
 71
     0
 42
1.0
  3
C:\Programmi\AutoCAD LT\isocp.shx
  4

  0
ENDTAB
  0
TABLE
  2
VIEW
  5
6
100
AcDbSymbolTable
 70
     0
  0
ENDTAB
  0
TABLE
  2
UCS
  5
7
100
AcDbSymbolTable
 70
     0
  0
ENDTAB
  0
TABLE
  2
APPID
  5
9
100
AcDbSymbolTable
 70
     1
  0
APPID
  5
11
100
AcDbSymbolTableRecord
100
AcDbRegAppTableRecord
  2
ACAD
 70
     0
  0
ENDTAB
  0
TABLE
  2
DIMSTYLE
  5
A
100
AcDbSymbolTable
 70
    24
  0
DIMSTYLE
105
1D
100
AcDbSymbolTableRecord
100
AcDbDimStyleTableRecord
  2
STANDARD
 70
     0
  3

  4

  5

  6

  7

 40
1.0
 41
2.5
 42
0.625
 43
3.75
 44
1.25
 45
0.0
 46
0.0
 47
0.0
 48
0.0
140
3.5
141
2.5
142
0.0
143
0.03937
144
1.0
145
0.0
146
1.0
147
0.625
 71
     0
 72
     0
 73
     0
 74
     0
 75
     0
 76
     0
 77
     1
 78
     8
170
     0
171
     2
172
     0
173
     0
174
     0
175
     0
176
     0
177
     0
178
     0
270
     2
271
     2
272
     2
273
     2
274
     2
340
10
275
     0
280
     0
281
     0
282
     0
283
     1
284
     8
285
     0
286
     0
287
     3
288
     0
  0
DIMSTYLE
105
234
100
AcDbSymbolTableRecord
100
AcDbDimStyleTableRecord
  2
TOLL-04
 70
     0
  3

  4

  5

  6

  7

 40
1.0
 41
2.5
 42
0.625
 43
3.75
 44
1.25
 45
0.0
 46
0.0
 47
0.02
 48
0.02
140
3.5
141
2.5
142
0.0
143
0.03937
144
1.0
145
0.0
146
0.8
147
0.625
 71
     1
 72
     0
 73
     0
 74
     0
 75
     0
 76
     0
 77
     1
 78
     8
170
     0
171
     2
172
     0
173
     0
174
     0
175
     0
176
     0
177
     0
178
     0
270
     2
271
     2
272
     2
273
     2
274
     2
340
10
275
     0
280
     0
281
     0
282
     0
283
     2
284
     8
285
     0
286
     0
287
     3
288
     0
  0
DIMSTYLE
105
4A7
100
AcDbSymbolTableRecord
100
AcDbDimStyleTableRecord
  2
ISO-25
 70
     0
  3

  4

  5

  6

  7

 40
1.0
 41
2.5
 42
0.625
 43
3.75
 44
1.25
 45
0.0
 46
0.0
 47
0.0
 48
0.0
140
2.5
141
2.5
142
0.0
143
0.0394
144
1.0
145
1.0
146
1.0
147
0.625
 71
     0
 72
     0
 73
     1
 74
     0
 75
     0
 76
     0
 77
     1
 78
     8
170
     0
171
     2
172
     1
173
     0
174
     0
175
     0
176
     0
177
     0
178
     0
270
     2
271
     4
272
     4
273
     2
274
     2
340
10
275
     0
280
     0
281
     0
282
     0
283
     1
284
     0
285
     0
286
     0
287
     3
288
     0
  0
DIMSTYLE
105
574
100
AcDbSymbolTableRecord
100
AcDbDimStyleTableRecord
  2
TOLL-01
 70
     0
  3

  4

  5

  6

  7

 40
1.0
 41
2.5
 42
0.625
 43
3.75
 44
1.25
 45
0.0
 46
0.0
 47
0.01
 48
0.01
140
3.5
141
2.5
142
0.0
143
0.03937
144
1.0
145
0.0
146
0.8
147
0.625
 71
     1
 72
     0
 73
     0
 74
     0
 75
     0
 76
     0
 77
     1
 78
     8
170
     0
171
     2
172
     0
173
     0
174
     0
175
     0
176
     0
177
     0
178
     0
270
     2
271
     2
272
     2
273
     2
274
     2
340
10
275
     0
280
     0
281
     0
282
     0
283
     2
284
     8
285
     0
286
     0
287
     3
288
     0
  0
DIMSTYLE
105
575
100
AcDbSymbolTableRecord
100
AcDbDimStyleTableRecord
  2
TOLL-02
 70
     0
  3

  4

  5

  6

  7

 40
1.0
 41
2.5
 42
0.625
 43
3.75
 44
1.25
 45
0.0
 46
0.0
 47
0.01
 48
0.0
140
3.5
141
2.5
142
0.0
143
0.03937
144
1.0
145
0.0
146
0.8
147
0.625
 71
     1
 72
     0
 73
     0
 74
     0
 75
     0
 76
     0
 77
     1
 78
     8
170
     0
171
     2
172
     0
173
     0
174
     0
175
     0
176
     0
177
     0
178
     0
270
     2
271
     2
272
     2
273
     2
274
     2
340
10
275
     0
280
     0
281
     0
282
     0
283
     2
284
     8
285
     0
286
     0
287
     3
288
     0
  0
DIMSTYLE
105
576
100
AcDbSymbolTableRecord
100
AcDbDimStyleTableRecord
  2
TOLL-03
 70
     0
  3

  4

  5

  6

  7

 40
1.0
 41
2.5
 42
0.625
 43
3.75
 44
1.25
 45
0.0
 46
0.0
 47
-0.01
 48
0.0
140
3.5
141
2.5
142
0.0
143
0.03937
144
1.0
145
0.0
146
0.8
147
0.625
 71
     1
 72
     0
 73
     0
 74
     0
 75
     0
 76
     0
 77
     1
 78
     8
170
     0
171
     2
172
     0
173
     0
174
     0
175
     0
176
     0
177
     0
178
     0
270
     2
271
     2
272
     2
273
     2
274
     2
340
10
275
     0
280
     0
281
     0
282
     0
283
     2
284
     8
285
     0
286
     0
287
     3
288
     0
  0
DIMSTYLE
105
577
100
AcDbSymbolTableRecord
100
AcDbDimStyleTableRecord
  2
TOLL-05
 70
     0
  3

  4

  5

  6

  7

 40
1.0
 41
2.5
 42
0.625
 43
3.75
 44
1.25
 45
0.0
 46
0.0
 47
0.02
 48
0.0
140
3.5
141
2.5
142
0.0
143
0.03937
144
1.0
145
0.0
146
0.8
147
0.625
 71
     1
 72
     0
 73
     0
 74
     0
 75
     0
 76
     0
 77
     1
 78
     8
170
     0
171
     2
172
     0
173
     0
174
     0
175
     0
176
     0
177
     0
178
     0
270
     2
271
     2
272
     2
273
     2
274
     2
340
10
275
     0
280
     0
281
     0
282
     0
283
     2
284
     8
285
     0
286
     0
287
     3
288
     0
  0
DIMSTYLE
105
578
100
AcDbSymbolTableRecord
100
AcDbDimStyleTableRecord
  2
TOLL-06
 70
     0
  3

  4

  5

  6

  7

 40
1.0
 41
2.5
 42
0.625
 43
3.75
 44
1.25
 45
0.0
 46
0.0
 47
-0.02
 48
0.0
140
3.5
141
2.5
142
0.0
143
0.03937
144
1.0
145
0.0
146
0.8
147
0.625
 71
     1
 72
     0
 73
     0
 74
     0
 75
     0
 76
     0
 77
     1
 78
     8
170
     0
171
     2
172
     0
173
     0
174
     0
175
     0
176
     0
177
     0
178
     0
270
     2
271
     2
272
     2
273
     2
274
     2
340
10
275
     0
280
     0
281
     0
282
     0
283
     2
284
     8
285
     0
286
     0
287
     3
288
     0
  0
DIMSTYLE
105
579
100
AcDbSymbolTableRecord
100
AcDbDimStyleTableRecord
  2
TOLL-07
 70
     0
  3

  4

  5

  6

  7

 40
1.0
 41
2.5
 42
0.625
 43
3.75
 44
1.25
 45
0.0
 46
0.0
 47
0.05
 48
0.05
140
3.5
141
2.5
142
0.0
143
0.03937
144
1.0
145
0.0
146
0.8
147
0.625
 71
     1
 72
     0
 73
     0
 74
     0
 75
     0
 76
     0
 77
     1
 78
     8
170
     0
171
     2
172
     0
173
     0
174
     0
175
     0
176
     0
177
     0
178
     0
270
     2
271
     2
272
     2
273
     2
274
     2
340
10
275
     0
280
     0
281
     0
282
     0
283
     2
284
     8
285
     0
286
     0
287
     3
288
     0
  0
DIMSTYLE
105
57A
100
AcDbSymbolTableRecord
100
AcDbDimStyleTableRecord
  2
TOLL-08
 70
     0
  3

  4

  5

  6

  7

 40
1.0
 41
2.5
 42
0.625
 43
3.75
 44
1.25
 45
0.0
 46
0.0
 47
0.05
 48
0.0
140
3.5
141
2.5
142
0.0
143
0.03937
144
1.0
145
0.0
146
0.8
147
0.625
 71
     1
 72
     0
 73
     0
 74
     0
 75
     0
 76
     0
 77
     1
 78
     8
170
     0
171
     2
172
     0
173
     0
174
     0
175
     0
176
     0
177
     0
178
     0
270
     2
271
     2
272
     2
273
     2
274
     2
340
10
275
     0
280
     0
281
     0
282
     0
283
     2
284
     8
285
     0
286
     0
287
     3
288
     0
  0
DIMSTYLE
105
57B
100
AcDbSymbolTableRecord
100
AcDbDimStyleTableRecord
  2
TOLL-09
 70
     0
  3

  4

  5

  6

  7

 40
1.0
 41
2.5
 42
0.625
 43
3.75
 44
1.25
 45
0.0
 46
0.0
 47
-0.05
 48
0.0
140
3.5
141
2.5
142
0.0
143
0.03937
144
1.0
145
0.0
146
0.8
147
0.625
 71
     1
 72
     0
 73
     0
 74
     0
 75
     0
 76
     0
 77
     1
 78
     8
170
     0
171
     2
172
     0
173
     0
174
     0
175
     0
176
     0
177
     0
178
     0
270
     2
271
     2
272
     2
273
     2
274
     2
340
10
275
     0
280
     0
281
     0
282
     0
283
     2
284
     8
285
     0
286
     0
287
     3
288
     0
  0
DIMSTYLE
105
57C
100
AcDbSymbolTableRecord
100
AcDbDimStyleTableRecord
  2
TOLL-10
 70
     0
  3

  4

  5

  6

  7

 40
1.0
 41
2.5
 42
0.625
 43
3.75
 44
1.25
 45
0.0
 46
0.0
 47
0.1
 48
0.1
140
3.5
141
2.5
142
0.0
143
0.03937
144
1.0
145
0.0
146
0.8
147
0.625
 71
     1
 72
     0
 73
     0
 74
     0
 75
     0
 76
     0
 77
     1
 78
     8
170
     0
171
     2
172
     0
173
     0
174
     0
175
     0
176
     0
177
     0
178
     0
270
     2
271
     2
272
     2
273
     2
274
     2
340
10
275
     0
280
     0
281
     0
282
     0
283
     2
284
     8
285
     0
286
     0
287
     3
288
     0
  0
DIMSTYLE
105
57D
100
AcDbSymbolTableRecord
100
AcDbDimStyleTableRecord
  2
TOLL-11
 70
     0
  3

  4

  5

  6

  7

 40
1.0
 41
2.5
 42
0.625
 43
3.75
 44
1.25
 45
0.0
 46
0.0
 47
0.1
 48
0.0
140
3.5
141
2.5
142
0.0
143
0.03937
144
1.0
145
0.0
146
0.8
147
0.625
 71
     1
 72
     0
 73
     0
 74
     0
 75
     0
 76
     0
 77
     1
 78
     8
170
     0
171
     2
172
     0
173
     0
174
     0
175
     0
176
     0
177
     0
178
     0
270
     2
271
     2
272
     2
273
     2
274
     2
340
10
275
     0
280
     0
281
     0
282
     0
283
     2
284
     8
285
     0
286
     0
287
     3
288
     0
  0
DIMSTYLE
105
57E
100
AcDbSymbolTableRecord
100
AcDbDimStyleTableRecord
  2
TOLL-12
 70
     0
  3

  4

  5

  6

  7

 40
1.0
 41
2.5
 42
0.625
 43
3.75
 44
1.25
 45
0.0
 46
0.0
 47
-0.1
 48
0.0
140
3.5
141
2.5
142
0.0
143
0.03937
144
1.0
145
0.0
146
0.8
147
0.625
 71
     1
 72
     0
 73
     0
 74
     0
 75
     0
 76
     0
 77
     1
 78
     8
170
     0
171
     2
172
     0
173
     0
174
     0
175
     0
176
     0
177
     0
178
     0
270
     2
271
     2
272
     2
273
     2
274
     2
340
10
275
     0
280
     0
281
     0
282
     0
283
     2
284
     8
285
     0
286
     0
287
     3
288
     0
  0
DIMSTYLE
105
57F
100
AcDbSymbolTableRecord
100
AcDbDimStyleTableRecord
  2
TOLL-13
 70
     0
  3

  4

  5

  6

  7

 40
1.0
 41
2.5
 42
0.625
 43
3.75
 44
1.25
 45
0.0
 46
0.0
 47
0.2
 48
0.2
140
3.5
141
2.5
142
0.0
143
0.03937
144
1.0
145
0.0
146
0.8
147
0.625
 71
     1
 72
     0
 73
     0
 74
     0
 75
     0
 76
     0
 77
     1
 78
     8
170
     0
171
     2
172
     0
173
     0
174
     0
175
     0
176
     0
177
     0
178
     0
270
     2
271
     2
272
     2
273
     2
274
     2
340
10
275
     0
280
     0
281
     0
282
     0
283
     2
284
     8
285
     0
286
     0
287
     3
288
     0
  0
DIMSTYLE
105
580
100
AcDbSymbolTableRecord
100
AcDbDimStyleTableRecord
  2
TOLL-14
 70
     0
  3

  4

  5

  6

  7

 40
1.0
 41
2.5
 42
0.625
 43
3.75
 44
1.25
 45
0.0
 46
0.0
 47
0.2
 48
0.0
140
3.5
141
2.5
142
0.0
143
0.03937
144
1.0
145
0.0
146
0.8
147
0.625
 71
     1
 72
     0
 73
     0
 74
     0
 75
     0
 76
     0
 77
     1
 78
     8
170
     0
171
     2
172
     0
173
     0
174
     0
175
     0
176
     0
177
     0
178
     0
270
     2
271
     2
272
     2
273
     2
274
     2
340
10
275
     0
280
     0
281
     0
282
     0
283
     2
284
     8
285
     0
286
     0
287
     3
288
     0
  0
DIMSTYLE
105
581
100
AcDbSymbolTableRecord
100
AcDbDimStyleTableRecord
  2
TOLL-15
 70
     0
  3

  4

  5

  6

  7

 40
1.0
 41
2.5
 42
0.625
 43
3.75
 44
1.25
 45
0.0
 46
0.0
 47
-0.2
 48
0.0
140
3.5
141
2.5
142
0.0
143
0.03937
144
1.0
145
0.0
146
0.8
147
0.625
 71
     1
 72
     0
 73
     0
 74
     0
 75
     0
 76
     0
 77
     1
 78
     8
170
     0
171
     2
172
     0
173
     0
174
     0
175
     0
176
     0
177
     0
178
     0
270
     2
271
     2
272
     2
273
     2
274
     2
340
10
275
     0
280
     0
281
     0
282
     0
283
     2
284
     8
285
     0
286
     0
287
     3
288
     0
  0
DIMSTYLE
105
582
100
AcDbSymbolTableRecord
100
AcDbDimStyleTableRecord
  2
TOLL-16
 70
     0
  3

  4

  5

  6

  7

 40
1.0
 41
2.5
 42
0.625
 43
3.75
 44
1.25
 45
0.0
 46
0.0
 47
0.5
 48
0.5
140
3.5
141
2.5
142
0.0
143
0.03937
144
1.0
145
0.0
146
0.8
147
0.625
 71
     1
 72
     0
 73
     0
 74
     0
 75
     0
 76
     0
 77
     1
 78
     8
170
     0
171
     2
172
     0
173
     0
174
     0
175
     0
176
     0
177
     0
178
     0
270
     2
271
     2
272
     2
273
     2
274
     2
340
10
275
     0
280
     0
281
     0
282
     0
283
     2
284
     8
285
     0
286
     0
287
     3
288
     0
  0
DIMSTYLE
105
583
100
AcDbSymbolTableRecord
100
AcDbDimStyleTableRecord
  2
TOLL-17
 70
     0
  3

  4

  5

  6

  7

 40
1.0
 41
2.5
 42
0.625
 43
3.75
 44
1.25
 45
0.0
 46
0.0
 47
0.5
 48
0.0
140
3.5
141
2.5
142
0.0
143
0.03937
144
1.0
145
0.0
146
0.8
147
0.625
 71
     1
 72
     0
 73
     0
 74
     0
 75
     0
 76
     0
 77
     1
 78
     8
170
     0
171
     2
172
     0
173
     0
174
     0
175
     0
176
     0
177
     0
178
     0
270
     2
271
     2
272
     2
273
     2
274
     2
340
10
275
     0
280
     0
281
     0
282
     0
283
     2
284
     8
285
     0
286
     0
287
     3
288
     0
  0
DIMSTYLE
105
584
100
AcDbSymbolTableRecord
100
AcDbDimStyleTableRecord
  2
TOLL-18
 70
     0
  3

  4

  5

  6

  7

 40
1.0
 41
2.5
 42
0.625
 43
3.75
 44
1.25
 45
0.0
 46
0.0
 47
-0.5
 48
0.0
140
3.5
141
2.5
142
0.0
143
0.03937
144
1.0
145
0.0
146
0.8
147
0.625
 71
     1
 72
     0
 73
     0
 74
     0
 75
     0
 76
     0
 77
     1
 78
     8
170
     0
171
     2
172
     0
173
     0
174
     0
175
     0
176
     0
177
     0
178
     0
270
     2
271
     2
272
     2
273
     2
274
     2
340
10
275
     0
280
     0
281
     0
282
     0
283
     2
284
     8
285
     0
286
     0
287
     3
288
     0
  0
DIMSTYLE
105
585
100
AcDbSymbolTableRecord
100
AcDbDimStyleTableRecord
  2
TOLL-19
 70
     0
  3

  4

  5

  6

  7

 40
1.0
 41
2.5
 42
0.625
 43
3.75
 44
1.25
 45
0.0
 46
0.0
 47
0.16
 48
0.0
140
3.5
141
2.5
142
0.0
143
0.03937
144
1.0
145
0.0
146
0.8
147
0.625
 71
     1
 72
     0
 73
     0
 74
     0
 75
     0
 76
     0
 77
     1
 78
     8
170
     0
171
     2
172
     0
173
     0
174
     0
175
     0
176
     0
177
     0
178
     0
270
     2
271
     0
272
     2
273
     2
274
     2
340
10
275
     1
280
     0
281
     0
282
     0
283
     2
284
     8
285
     0
286
     0
287
     3
288
     0
  0
DIMSTYLE
105
5E5
100
AcDbSymbolTableRecord
100
AcDbDimStyleTableRecord
  2
TOLL-20
 70
     0
  3

  4

  5

  6

  7

 40
1.0
 41
2.5
 42
0.625
 43
3.75
 44
1.25
 45
0.0
 46
0.0
 47
-0.16
 48
0.0
140
3.5
141
2.5
142
0.0
143
0.03937
144
1.0
145
0.0
146
0.8
147
0.625
 71
     1
 72
     0
 73
     0
 74
     0
 75
     0
 76
     0
 77
     1
 78
     8
170
     0
171
     2
172
     0
173
     0
174
     0
175
     0
176
     0
177
     0
178
     0
270
     2
271
     0
272
     2
273
     2
274
     2
340
10
275
     1
280
     0
281
     0
282
     0
283
     2
284
     8
285
     0
286
     0
287
     3
288
     0
  0
DIMSTYLE
105
5E6
100
AcDbSymbolTableRecord
100
AcDbDimStyleTableRecord
  2
TOLL-21
 70
     0
  3

  4

  5

  6

  7

 40
1.0
 41
2.5
 42
0.625
 43
3.75
 44
1.25
 45
0.0
 46
0.0
 47
0.033
 48
0.0
140
3.5
141
2.5
142
0.0
143
0.03937
144
1.0
145
0.0
146
0.8
147
0.625
 71
     1
 72
     0
 73
     0
 74
     0
 75
     0
 76
     0
 77
     1
 78
     8
170
     0
171
     2
172
     0
173
     0
174
     0
175
     0
176
     0
177
     0
178
     0
270
     2
271
     0
272
     2
273
     2
274
     2
340
10
275
     1
280
     0
281
     0
282
     0
283
     2
284
     8
285
     0
286
     0
287
     3
288
     0
  0
DIMSTYLE
105
60E
100
AcDbSymbolTableRecord
100
AcDbDimStyleTableRecord
  2
TOLL-22
 70
     0
  3

  4

  5

  6

  7

 40
1.0
 41
2.5
 42
0.625
 43
3.75
 44
1.25
 45
0.0
 46
0.0
 47
-0.033
 48
0.0
140
3.5
141
2.5
142
0.0
143
0.03937
144
1.0
145
0.0
146
0.8
147
0.625
 71
     1
 72
     0
 73
     0
 74
     0
 75
     0
 76
     0
 77
     1
 78
     8
170
     0
171
     2
172
     0
173
     0
174
     0
175
     0
176
     0
177
     0
178
     0
270
     2
271
     0
272
     2
273
     2
274
     2
340
10
275
     1
280
     0
281
     0
282
     0
283
     2
284
     8
285
     0
286
     0
287
     3
288
     0
  0
ENDTAB
  0
TABLE
  2
BLOCK_RECORD
  5
1
100
AcDbSymbolTable
 70
    48
  0
BLOCK_RECORD
  5
19
100
AcDbSymbolTableRecord
100
AcDbBlockTableRecord
  2
*MODEL_SPACE
  0
BLOCK_RECORD
  5
16
100
AcDbSymbolTableRecord
100
AcDbBlockTableRecord
  2
*PAPER_SPACE
  0
BLOCK_RECORD
  5
3A2
100
AcDbSymbolTableRecord
100
AcDbBlockTableRecord
  2
RUGOSITA
  0
BLOCK_RECORD
  5
4A8
100
AcDbSymbolTableRecord
100
AcDbBlockTableRecord
  2
A$C52B2
  0
BLOCK_RECORD
  5
626
100
AcDbSymbolTableRecord
100
AcDbBlockTableRecord
  2
*X2
  0
BLOCK_RECORD
  5
659
100
AcDbSymbolTableRecord
100
AcDbBlockTableRecord
  2
A$C1125
  0
BLOCK_RECORD
  5
68F
100
AcDbSymbolTableRecord
100
AcDbBlockTableRecord
  2
*D4
  0
BLOCK_RECORD
  5
69C
100
AcDbSymbolTableRecord
100
AcDbBlockTableRecord
  2
*D5
  0
BLOCK_RECORD
  5
6BF
100
AcDbSymbolTableRecord
100
AcDbBlockTableRecord
  2
*D6
  0
BLOCK_RECORD
  5
6CC
100
AcDbSymbolTableRecord
100
AcDbBlockTableRecord
  2
*D7
  0
BLOCK_RECORD
  5
6D9
100
AcDbSymbolTableRecord
100
AcDbBlockTableRecord
  2
*D8
  0
BLOCK_RECORD
  5
6E7
100
AcDbSymbolTableRecord
100
AcDbBlockTableRecord
  2
*D9
  0
BLOCK_RECORD
  5
6F5
100
AcDbSymbolTableRecord
100
AcDbBlockTableRecord
  2
*D10
  0
BLOCK_RECORD
  5
730
100
AcDbSymbolTableRecord
100
AcDbBlockTableRecord
  2
*D11
  0
BLOCK_RECORD
  5
73E
100
AcDbSymbolTableRecord
100
AcDbBlockTableRecord
  2
*D12
  0
BLOCK_RECORD
  5
770
100
AcDbSymbolTableRecord
100
AcDbBlockTableRecord
  2
*D13
  0
BLOCK_RECORD
  5
794
100
AcDbSymbolTableRecord
100
AcDbBlockTableRecord
  2
*D14
  0
BLOCK_RECORD
  5
7AD
100
AcDbSymbolTableRecord
100
AcDbBlockTableRecord
  2
*D15
  0
BLOCK_RECORD
  5
7D4
100
AcDbSymbolTableRecord
100
AcDbBlockTableRecord
  2
*D16
  0
BLOCK_RECORD
  5
7E1
100
AcDbSymbolTableRecord
100
AcDbBlockTableRecord
  2
*D17
  0
BLOCK_RECORD
  5
7F1
100
AcDbSymbolTableRecord
100
AcDbBlockTableRecord
  2
*D18
  0
BLOCK_RECORD
  5
7FA
100
AcDbSymbolTableRecord
100
AcDbBlockTableRecord
  2
*D19
  0
BLOCK_RECORD
  5
864
100
AcDbSymbolTableRecord
100
AcDbBlockTableRecord
  2
*X20
  0
BLOCK_RECORD
  5
8CA
100
AcDbSymbolTableRecord
100
AcDbBlockTableRecord
  2
*D21
  0
BLOCK_RECORD
  5
8FA
100
AcDbSymbolTableRecord
100
AcDbBlockTableRecord
  2
*D22
  0
BLOCK_RECORD
  5
938
100
AcDbSymbolTableRecord
100
AcDbBlockTableRecord
  2
*D23
  0
BLOCK_RECORD
  5
97E
100
AcDbSymbolTableRecord
100
AcDbBlockTableRecord
  2
*D24
  0
BLOCK_RECORD
  5
9AD
100
AcDbSymbolTableRecord
100
AcDbBlockTableRecord
  2
*D25
  0
BLOCK_RECORD
  5
9BB
100
AcDbSymbolTableRecord
100
AcDbBlockTableRecord
  2
*D26
  0
BLOCK_RECORD
  5
A2C
100
AcDbSymbolTableRecord
100
AcDbBlockTableRecord
  2
A$C73B1
  0
BLOCK_RECORD
  5
BA5
100
AcDbSymbolTableRecord
100
AcDbBlockTableRecord
  2
*D28
  0
BLOCK_RECORD
  5
BB1
100
AcDbSymbolTableRecord
100
AcDbBlockTableRecord
  2
*D29
  0
BLOCK_RECORD
  5
BBE
100
AcDbSymbolTableRecord
100
AcDbBlockTableRecord
  2
*D30
  0
BLOCK_RECORD
  5
C75
100
AcDbSymbolTableRecord
100
AcDbBlockTableRecord
  2
*D31
  0
BLOCK_RECORD
  5
C82
100
AcDbSymbolTableRecord
100
AcDbBlockTableRecord
  2
*D32
  0
BLOCK_RECORD
  5
C90
100
AcDbSymbolTableRecord
100
AcDbBlockTableRecord
  2
*D33
  0
BLOCK_RECORD
  5
CB7
100
AcDbSymbolTableRecord
100
AcDbBlockTableRecord
  2
*D34
  0
BLOCK_RECORD
  5
CC6
100
AcDbSymbolTableRecord
100
AcDbBlockTableRecord
  2
*D35
  0
BLOCK_RECORD
  5
CE1
100
AcDbSymbolTableRecord
100
AcDbBlockTableRecord
  2
*D36
  0
BLOCK_RECORD
  5
CEE
100
AcDbSymbolTableRecord
100
AcDbBlockTableRecord
  2
*D37
  0
BLOCK_RECORD
  5
CFC
100
AcDbSymbolTableRecord
100
AcDbBlockTableRecord
  2
*D38
  0
BLOCK_RECORD
  5
D30
100
AcDbSymbolTableRecord
100
AcDbBlockTableRecord
  2
*D39
  0
BLOCK_RECORD
  5
D3D
100
AcDbSymbolTableRecord
100
AcDbBlockTableRecord
  2
*D40
  0
BLOCK_RECORD
  5
D61
100
AcDbSymbolTableRecord
100
AcDbBlockTableRecord
  2
*D41
  0
BLOCK_RECORD
  5
D91
100
AcDbSymbolTableRecord
100
AcDbBlockTableRecord
  2
*D42
  0
BLOCK_RECORD
  5
DCF
100
AcDbSymbolTableRecord
100
AcDbBlockTableRecord
  2
*D43
  0
BLOCK_RECORD
  5
DDC
100
AcDbSymbolTableRecord
100
AcDbBlockTableRecord
  2
*D44
  0
BLOCK_RECORD
  5
DEA
100
AcDbSymbolTableRecord
100
AcDbBlockTableRecord
  2
*D45
  0
BLOCK_RECORD
  5
E1C
100
AcDbSymbolTableRecord
100
AcDbBlockTableRecord
  2
*D46
  0
BLOCK_RECORD
  5
E5A
100
AcDbSymbolTableRecord
100
AcDbBlockTableRecord
  2
*X47
  0
ENDTAB
  0
ENDSEC
  0
SECTION
  2
BLOCKS
  0
BLOCK
  5
1A
100
AcDbEntity
  8
0
100
AcDbBlockBegin
  2
*MODEL_SPACE
 70
     0
 10
0.0
 20
0.0
 30
0.0
  3
*MODEL_SPACE
  1

  0
ENDBLK
  5
1B
100
AcDbEntity
  8
0
100
AcDbBlockEnd
  0
BLOCK
  5
17
100
AcDbEntity
 67
     1
  8
0
100
AcDbBlockBegin
  2
*PAPER_SPACE
 70
     0
 10
0.0
 20
0.0
 30
0.0
  3
*PAPER_SPACE
  1

  0
ENDBLK
  5
18
100
AcDbEntity
 67
     1
  8
0
100
AcDbBlockEnd
  0
BLOCK
  5
3A7
100
AcDbEntity
  8
DISEGNO
100
AcDbBlockBegin
  2
RUGOSITA
 70
     2
 10
0.0
 20
0.0
 30
0.0
  3
RUGOSITA
  1

  0
ATTDEF
  5
3A3
100
AcDbEntity
  8
QUOTE
100
AcDbText
 10
-1.071886
 20
3.214106
 30
0.0
 40
1.5
  1
0.8
100
AcDbAttributeDefinition
  3
CHE RUGOSITA ?
  2
RUGOSITA
 70
     0
  0
LINE
  5
3A4
100
AcDbEntity
  8
QUOTE
100
AcDbLine
 10
0.0
 20
0.0
 30
0.0
 11
4.0
 21
6.928203
 31
0.0
  0
LINE
  5
3A5
100
AcDbEntity
  8
QUOTE
100
AcDbLine
 10
0.0
 20
0.0
 30
0.0
 11
-1.75
 21
3.031089
 31
0.0
  0
LINE
  5
3A6
100
AcDbEntity
  8
QUOTE
100
AcDbLine
 10
-1.75
 20
3.031089
 30
0.0
 11
1.75
 21
3.031089
 31
0.0
  0
ENDBLK
  5
3A8
100
AcDbEntity
  8
DISEGNO
100
AcDbBlockEnd
  0
BLOCK
  5
547
100
AcDbEntity
  8
QUOTE
100
AcDbBlockBegin
  2
A$C52B2
 70
     0
 10
0.0
 20
0.0
 30
0.0
  3
A$C52B2
  1

  0
LINE
  5
4A9
100
AcDbEntity
  8
TABELLA
  6
CONTINUOUS
100
AcDbLine
 10
100.781064
 20
5.387067
 30
0.0
 11
103.281064
 21
0.387067
 31
0.0
  0
LINE
  5
4AA
100
AcDbEntity
  8
TABELLA
  6
CONTINUOUS
100
AcDbLine
 10
100.781064
 20
0.387067
 30
0.0
 11
103.281064
 21
0.387067
 31
0.0
  0
LINE
  5
4AB
100
AcDbEntity
  8
TABELLA
  6
CONTINUOUS
100
AcDbLine
 10
103.281064
 20
287.387067
 30
0.0
 11
100.781064
 21
282.387067
 31
0.0
  0
LINE
  5
4AC
100
AcDbEntity
  8
TABELLA
  6
CONTINUOUS
100
AcDbLine
 10
100.781064
 20
287.387067
 30
0.0
 11
103.281064
 21
287.387067
 31
0.0
  0
TEXT
  5
4AD
100
AcDbEntity
  8
TABELLA
  6
CONTINUOUS
100
AcDbText
 10
83.891226
 20
14.123583
 30
0.0
 40
6.0
  1
ROLLERI
100
AcDbText
  0
LINE
  5
4AE
100
AcDbEntity
  8
TABELLA
  6
CONTINUOUS
100
AcDbLine
 10
115.706968
 20
22.612261
 30
0.0
 11
84.107383
 21
22.612261
 31
0.0
1001
ACAD
1000
ASC_BOUNDS
1002
{
1070
    19
1002
}
  0
LINE
  5
4AF
100
AcDbEntity
  8
TABELLA
  6
CONTINUOUS
100
AcDbLine
 10
82.055262
 20
11.456564
 30
0.0
 11
113.654847
 21
11.456564
 31
0.0
1001
ACAD
1000
ASC_BOUNDS
1002
{
1070
    19
1002
}
  0
LINE
  5
4B0
100
AcDbEntity
  8
TABELLA
  6
CONTINUOUS
100
AcDbLine
 10
116.407176
 20
23.612261
 30
0.0
 11
83.407176
 21
23.612261
 31
0.0
1001
ACAD
1000
ASC_BOUNDS
1002
{
1070
    19
1002
}
  0
LINE
  5
4B1
100
AcDbEntity
  8
TABELLA
  6
CONTINUOUS
100
AcDbLine
 10
81.355055
 20
10.456564
 30
0.0
 11
114.355055
 21
10.456564
 31
0.0
1001
ACAD
1000
ASC_BOUNDS
1002
{
1070
    19
1002
}
  0
TEXT
  5
4B2
100
AcDbEntity
  8
TABELLA
  6
CONTINUOUS
100
AcDbText
 10
79.770815
 20
6.679292
 30
0.0
 40
2.0
  1
Vigolzone ( Piacenza ) - ITALIA
100
AcDbText
  0
LINE
  5
4B3
100
AcDbEntity
  8
TABELLA
  6
CONTINUOUS
100
AcDbLine
 10
125.782064
 20
35.387067
 30
0.0
 11
75.782064
 21
35.387067
 31
0.0
  0
LINE
  5
4B4
100
AcDbEntity
  8
TABELLA
  6
CONTINUOUS
100
AcDbLine
 10
195.782064
 20
45.387067
 30
0.0
 11
5.697058
 21
45.395351
 31
0.0
  0
LINE
  5
4B5
100
AcDbEntity
  8
TABELLA
  6
CONTINUOUS
100
AcDbLine
 10
125.782064
 20
25.387067
 30
0.0
 11
75.782064
 21
25.387067
 31
0.0
  0
LINE
  5
4B6
100
AcDbEntity
  8
TABELLA
  6
CONTINUOUS
100
AcDbLine
 10
195.782064
 20
5.387067
 30
0.0
 11
5.782064
 21
5.387067
 31
0.0
  0
LINE
  5
4B7
100
AcDbEntity
  8
TABELLA
  6
CONTINUOUS
100
AcDbLine
 10
5.782064
 20
282.387067
 30
0.0
 11
195.782064
 21
282.387067
 31
0.0
  0
LINE
  5
4B8
100
AcDbEntity
  8
TABELLA
  6
CONTINUOUS
100
AcDbLine
 10
5.782064
 20
143.887067
 30
0.0
 11
0.782064
 21
141.387067
 31
0.0
  0
LINE
  5
4B9
100
AcDbEntity
  8
TABELLA
  6
CONTINUOUS
100
AcDbLine
 10
0.782064
 20
143.887067
 30
0.0
 11
0.782064
 21
141.387067
 31
0.0
  0
LINE
  5
4BA
100
AcDbEntity
  8
TABELLA
  6
CONTINUOUS
100
AcDbLine
 10
5.782064
 20
5.387067
 30
0.0
 11
5.782064
 21
282.387067
 31
0.0
  0
POLYLINE
  5
4BB
100
AcDbEntity
  8
QUOTE
100
AcDb2dPolyline
 66
     1
 10
0.0
 20
0.0
 30
0.0
 70
     1
  0
VERTEX
  5
4BC
100
AcDbEntity
  8
QUOTE
100
AcDbVertex
100
AcDb2dVertex
 10
11.507487
 20
62.582414
 30
0.0
  0
VERTEX
  5
4BD
100
AcDbEntity
  8
QUOTE
100
AcDbVertex
100
AcDb2dVertex
 10
11.507487
 20
49.867806
 30
0.0
  0
VERTEX
  5
4BE
100
AcDbEntity
  8
QUOTE
100
AcDbVertex
100
AcDb2dVertex
 10
52.626527
 20
49.867806
 30
0.0
  0
VERTEX
  5
4BF
100
AcDbEntity
  8
QUOTE
100
AcDbVertex
100
AcDb2dVertex
 10
52.626527
 20
62.582414
 30
0.0
  0
SEQEND
  5
4C0
100
AcDbEntity
  8
QUOTE
  0
TOLERANCE
  5
4C1
100
AcDbEntity
  8
QUOTE
  6
CONTINUOUS
100
AcDbFcf
  3
ISO-25
 10
30.863585
 20
54.182522
 30
0.0
  1
{\Fgdt;u}%%v0.02%%v%%v%%v%%v
1001
ACAD
1000
DSTYLE
1002
{
1070
   140
1040
2.6
1070
    47
1040
0.02
1070
    73
1070
     0
1070
   272
1070
     2
1070
   147
1040
0.53
1070
    42
1040
0.5261
1070
    44
1040
1.0522
1070
    43
1040
3.1566
1070
   271
1070
     2
1070
   141
1040
2.1044
1070
    41
1040
2.6
1002
}
  0
TEXT
  5
4C2
100
AcDbEntity
  8
QUOTE
100
AcDbText
 10
12.101072
 20
58.118453
 30
0.0
 40
2.5
  1
TOLLERANZE AL METRO
 41
1.1
100
AcDbText
  0
TEXT
  5
4C3
100
AcDbEntity
  8
TABELLA
  6
CONTINUOUS
100
AcDbText
 10
7.271803
 20
15.7314
 30
0.0
 40
2.0
  1
- Angoli su superfici lavorate = +/- 30'
100
AcDbText
  0
TEXT
  5
4C4
100
AcDbEntity
  8
TABELLA
  6
CONTINUOUS
100
AcDbText
 10
7.271803
 20
23.3314
 30
0.0
 40
2.0
  1
   da mm 151 a mm 500 = +/- 0.4
100
AcDbText
  0
TEXT
  5
4C5
100
AcDbEntity
  8
TABELLA
  6
CONTINUOUS
100
AcDbText
 10
7.271803
 20
27.1314
 30
0.0
 40
2.0
  1
   da mm 51 a mm 150 = +/- 0.3
100
AcDbText
  0
TEXT
  5
4C6
100
AcDbEntity
  8
TABELLA
  6
CONTINUOUS
100
AcDbText
 10
7.271803
 20
30.9314
 30
0.0
 40
2.0
  1
- Superfici lavorate da mm 1 a mm 50 = +/- 0.2
100
AcDbText
  0
TEXT
  5
4C7
100
AcDbEntity
  8
TABELLA
  6
CONTINUOUS
100
AcDbText
 10
7.271803
 20
34.7314
 30
0.0
 40
2.0
  1
- Parti fuse con spessori >10 mm = +/- 10%
100
AcDbText
  0
TEXT
  5
4C8
100
AcDbEntity
  8
TABELLA
  6
CONTINUOUS
100
AcDbText
 10
7.271803
 20
38.5314
 30
0.0
 40
2.0
  1
- Parti fuse con spessori <10 mm = +/- 1 mm
100
AcDbText
  0
TOLERANCE
  5
4C9
100
AcDbEntity
  8
QUOTE
  6
CONTINUOUS
100
AcDbFcf
  3
ISO-25
 10
15.305627
 20
54.182522
 30
0.0
  1
{\Fgdt;b}%%v0.02%%v%%v%%v%%v
1001
ACAD
1000
DSTYLE
1002
{
1070
   140
1040
2.6
1070
    47
1040
0.02
1070
    73
1070
     0
1070
   272
1070
     2
1070
   147
1040
0.53
1070
    42
1040
0.5261
1070
    44
1040
1.0522
1070
    43
1040
3.1566
1070
   271
1070
     2
1070
   141
1040
2.1044
1070
    41
1040
2.6
1002
}
  0
TEXT
  5
4CA
100
AcDbEntity
  8
TABELLA
  6
CONTINUOUS
100
AcDbText
 10
0.769342
 20
51.259863
 30
0.0
 40
4.0
  1
B
100
AcDbText
  0
TEXT
  5
4CB
100
AcDbEntity
  8
TABELLA
  6
CONTINUOUS
100
AcDbText
 10
0.353187
 20
15.100813
 30
0.0
 40
4.0
  1
A
100
AcDbText
  0
LINE
  5
4CC
100
AcDbEntity
  8
TABELLA
  6
CONTINUOUS
100
AcDbLine
 10
5.782064
 20
36.262067
 30
0.0
 11
0.782064
 21
36.262067
 31
0.0
  0
TEXT
  5
4CD
100
AcDbEntity
  8
TABELLA
  6
CONTINUOUS
100
AcDbText
 10
15.583223
 20
0.138446
 30
0.0
 40
4.0
  1
6
100
AcDbText
  0
LINE
  5
4CE
100
AcDbEntity
  8
TABELLA
  6
CONTINUOUS
100
AcDbLine
 10
34.115064
 20
5.387067
 30
0.0
 11
34.115064
 21
0.387067
 31
0.0
  0
TEXT
  5
4CF
100
AcDbEntity
  8
TABELLA
  6
CONTINUOUS
100
AcDbText
 10
7.271803
 20
11.9314
 30
0.0
 40
2.0
  1
- Interassi fori = +/- 0.25
100
AcDbText
  0
TEXT
  5
4D0
100
AcDbEntity
  8
TABELLA
  6
CONTINUOUS
100
AcDbText
 10
7.271803
 20
19.5314
 30
0.0
 40
2.0
  1
   oltre 500 mm = +/- 0.5
100
AcDbText
  0
TEXT
  5
4D1
100
AcDbEntity
  8
TABELLA
  6
CONTINUOUS
100
AcDbText
 10
7.271803
 20
42.3314
 30
0.0
 40
2.0
  1
TOLLERANZE GENERALI :
100
AcDbText
  0
LINE
  5
4D2
100
AcDbEntity
  8
TABELLA
  6
CONTINUOUS
100
AcDbLine
 10
5.782064
 20
72.137067
 30
0.0
 11
0.782064
 21
72.137067
 31
0.0
  0
TEXT
  5
4D3
100
AcDbEntity
  8
TABELLA
  6
CONTINUOUS
100
AcDbText
 10
0.769342
 20
87.459725
 30
0.0
 40
4.0
  1
C
100
AcDbText
  0
LINE
  5
4D4
100
AcDbEntity
  8
TABELLA
  6
CONTINUOUS
100
AcDbLine
 10
5.782064
 20
108.012067
 30
0.0
 11
0.782064
 21
108.012067
 31
0.0
  0
TEXT
  5
4D5
100
AcDbEntity
  8
TABELLA
  6
CONTINUOUS
100
AcDbText
 10
0.769342
 20
124.034397
 30
0.0
 40
4.0
  1
D
100
AcDbText
  0
LINE
  5
4D6
100
AcDbEntity
  8
TABELLA
  6
CONTINUOUS
100
AcDbLine
 10
65.792444
 20
45.394891
 30
0.0
 11
65.782064
 21
5.389662
 31
0.0
  0
TEXT
  5
4D7
100
AcDbEntity
  8
TABELLA
  6
CONTINUOUS
100
AcDbText
 10
68.438556
 20
7.454028
 30
0.0
 40
1.5
  1
A termine di legge la Rolleri si riserva la
 50
90.0
100
AcDbText
  0
TEXT
  5
4D8
100
AcDbEntity
  8
TABELLA
  6
CONTINUOUS
100
AcDbText
 10
49.29176
 20
0.138446
 30
0.0
 40
4.0
  1
5
100
AcDbText
  0
LINE
  5
4D9
100
AcDbEntity
  8
TABELLA
  6
CONTINUOUS
100
AcDbLine
 10
67.448064
 20
5.387067
 30
0.0
 11
67.448064
 21
0.387067
 31
0.0
  0
LINE
  5
4DA
100
AcDbEntity
  8
TABELLA
  6
CONTINUOUS
100
AcDbLine
 10
75.792442
 20
45.387067
 30
0.0
 11
75.792442
 21
5.387067
 31
0.0
  0
TEXT
  5
4DB
100
AcDbEntity
  8
TABELLA
  6
CONTINUOUS
100
AcDbText
 10
74.138556
 20
7.454028
 30
0.0
 40
1.5
  1
di riprodurlo e di comunicarlo a terzi.
 50
90.0
100
AcDbText
  0
TEXT
  5
4DC
100
AcDbEntity
  8
TABELLA
  6
CONTINUOUS
100
AcDbText
 10
71.288556
 20
7.454028
 30
0.0
 40
1.5
  1
proprietà di questo disegno, con divieto
 50
90.0
100
AcDbText
  0
TEXT
  5
4DD
100
AcDbEntity
  8
TABELLA
  6
CONTINUOUS
100
AcDbText
 10
83.416451
 20
0.554068
 30
0.0
 40
4.0
  1
4
100
AcDbText
  0
LINE
  5
4DE
100
AcDbEntity
  8
TABELLA
  6
CONTINUOUS
100
AcDbLine
 10
98.281064
 20
0.387067
 30
0.0
 11
100.781064
 21
5.387067
 31
0.0
  0
LINE
  5
4DF
100
AcDbEntity
  8
TABELLA
  6
CONTINUOUS
100
AcDbLine
 10
100.781064
 20
5.387067
 30
0.0
 11
100.781064
 21
0.387067
 31
0.0
  0
LINE
  5
4E0
100
AcDbEntity
  8
TABELLA
  6
CONTINUOUS
100
AcDbLine
 10
100.781064
 20
0.387067
 30
0.0
 11
98.281064
 21
0.387067
 31
0.0
  0
TEXT
  5
4E1
100
AcDbEntity
  8
TABELLA
  6
CONTINUOUS
100
AcDbText
 10
77.180326
 20
42.484843
 30
0.0
 40
2.0
  1
Materiale
100
AcDbText
  0
TEXT
  5
4E2
100
AcDbEntity
  8
TABELLA
  6
CONTINUOUS
100
AcDbText
 10
76.949018
 20
32.320687
 30
0.0
 40
2.0
  1
Disegnato da
100
AcDbText
  0
LINE
  5
4E3
100
AcDbEntity
  8
TABELLA
  6
CONTINUOUS
100
AcDbLine
 10
84.107383
 20
22.612261
 30
0.0
 11
81.051152
 21
14.215335
 31
0.0
1001
ACAD
1000
ASC_BOUNDS
1002
{
1070
    19
1002
}
  0
LINE
  5
4E4
100
AcDbEntity
  8
TABELLA
  6
CONTINUOUS
100
AcDbLine
 10
83.407176
 20
23.612261
 30
0.0
 11
79.986974
 21
14.215335
 31
0.0
1001
ACAD
1000
ASC_BOUNDS
1002
{
1070
    19
1002
}
  0
LINE
  5
4E5
100
AcDbEntity
  8
TABELLA
  6
CONTINUOUS
100
AcDbLine
 10
81.051152
 20
14.215335
 30
0.0
 11
82.055262
 21
11.456564
 31
0.0
1001
ACAD
1000
ASC_BOUNDS
1002
{
1070
    19
1002
}
  0
LINE
  5
4E6
100
AcDbEntity
  8
TABELLA
  6
CONTINUOUS
100
AcDbLine
 10
79.986974
 20
14.215335
 30
0.0
 11
81.355055
 21
10.456564
 31
0.0
1001
ACAD
1000
ASC_BOUNDS
1002
{
1070
    19
1002
}
  0
LINE
  5
4E7
100
AcDbEntity
  8
TABELLA
  6
CONTINUOUS
100
AcDbLine
 10
100.782064
 20
35.387067
 30
0.0
 11
100.782064
 21
25.387067
 31
0.0
  0
TEXT
  5
4E8
100
AcDbEntity
  8
TABELLA
  6
CONTINUOUS
100
AcDbText
 10
1.185497
 20
230.800736
 30
0.0
 40
4.0
  1
G
100
AcDbText
  0
LINE
  5
4E9
100
AcDbEntity
  8
TABELLA
  6
CONTINUOUS
100
AcDbLine
 10
0.782064
 20
146.387067
 30
0.0
 11
5.782064
 21
143.887067
 31
0.0
  0
LINE
  5
4EA
100
AcDbEntity
  8
TABELLA
  6
CONTINUOUS
100
AcDbLine
 10
5.782064
 20
143.887067
 30
0.0
 11
0.782064
 21
143.887067
 31
0.0
  0
LINE
  5
4EB
100
AcDbEntity
  8
TABELLA
  6
CONTINUOUS
100
AcDbLine
 10
0.782064
 20
143.887067
 30
0.0
 11
0.782064
 21
146.387067
 31
0.0
  0
TEXT
  5
4EC
100
AcDbEntity
  8
TABELLA
  6
CONTINUOUS
100
AcDbText
 10
1.601651
 20
158.319393
 30
0.0
 40
4.0
  1
E
100
AcDbText
  0
LINE
  5
4ED
100
AcDbEntity
  8
TABELLA
  6
CONTINUOUS
100
AcDbLine
 10
5.782064
 20
179.762067
 30
0.0
 11
0.782064
 21
179.762067
 31
0.0
  0
TEXT
  5
4EE
100
AcDbEntity
  8
TABELLA
  6
CONTINUOUS
100
AcDbText
 10
1.185497
 20
195.309687
 30
0.0
 40
4.0
  1
F
100
AcDbText
  0
LINE
  5
4EF
100
AcDbEntity
  8
TABELLA
  6
CONTINUOUS
100
AcDbLine
 10
5.782064
 20
215.637067
 30
0.0
 11
0.782064
 21
215.637067
 31
0.0
  0
LINE
  5
4F0
100
AcDbEntity
  8
TABELLA
  6
CONTINUOUS
100
AcDbLine
 10
5.782064
 20
251.512067
 30
0.0
 11
0.782064
 21
251.512067
 31
0.0
  0
TEXT
  5
4F1
100
AcDbEntity
  8
TABELLA
  6
CONTINUOUS
100
AcDbText
 10
1.185497
 20
268.206651
 30
0.0
 40
4.0
  1
H
100
AcDbText
  0
TEXT
  5
4F2
100
AcDbEntity
  8
TABELLA
  6
CONTINUOUS
100
AcDbText
 10
15.583224
 20
283.209827
 30
0.0
 40
4.0
  1
6
100
AcDbText
  0
LINE
  5
4F3
100
AcDbEntity
  8
TABELLA
  6
CONTINUOUS
100
AcDbLine
 10
34.115064
 20
282.387067
 30
0.0
 11
34.115064
 21
287.387067
 31
0.0
  0
TEXT
  5
4F4
100
AcDbEntity
  8
TABELLA
  6
CONTINUOUS
100
AcDbText
 10
50.12407
 20
283.250638
 30
0.0
 40
4.0
  1
5
100
AcDbText
  0
LINE
  5
4F5
100
AcDbEntity
  8
TABELLA
  6
CONTINUOUS
100
AcDbLine
 10
67.448064
 20
282.387067
 30
0.0
 11
67.448064
 21
287.387067
 31
0.0
  0
TEXT
  5
4F6
100
AcDbEntity
  8
TABELLA
  6
CONTINUOUS
100
AcDbText
 10
83.832607
 20
283.250638
 30
0.0
 40
4.0
  1
4
100
AcDbText
  0
LINE
  5
4F7
100
AcDbEntity
  8
TABELLA
  6
CONTINUOUS
100
AcDbLine
 10
100.781064
 20
282.387067
 30
0.0
 11
98.281064
 21
287.387067
 31
0.0
  0
LINE
  5
4F8
100
AcDbEntity
  8
TABELLA
  6
CONTINUOUS
100
AcDbLine
 10
100.781064
 20
282.387067
 30
0.0
 11
100.781064
 21
287.387067
 31
0.0
  0
LINE
  5
4F9
100
AcDbEntity
  8
TABELLA
  6
CONTINUOUS
100
AcDbLine
 10
100.781064
 20
287.387067
 30
0.0
 11
98.281064
 21
287.387067
 31
0.0
  0
LINE
  5
4FA
100
AcDbEntity
  8
TABELLA
  6
CONTINUOUS
100
AcDbLine
 10
200.782064
 20
141.387067
 30
0.0
 11
195.782064
 21
143.887067
 31
0.0
  0
LINE
  5
4FB
100
AcDbEntity
  8
TABELLA
  6
CONTINUOUS
100
AcDbLine
 10
200.782064
 20
143.887067
 30
0.0
 11
200.782064
 21
141.387067
 31
0.0
  0
LINE
  5
4FC
100
AcDbEntity
  8
TABELLA
  6
CONTINUOUS
100
AcDbLine
 10
191.781227
 20
165.387241
 30
0.0
 11
191.781227
 21
45.387241
 31
0.0
  0
LINE
  5
4FD
100
AcDbEntity
  8
TABELLA
  6
CONTINUOUS
100
AcDbLine
 10
195.782064
 20
5.387067
 30
0.0
 11
195.782064
 21
282.387067
 31
0.0
  0
TEXT
  5
4FE
100
AcDbEntity
  8
TABELLA
  6
CONTINUOUS
100
AcDbText
 10
147.267168
 20
42.484843
 30
0.0
 40
2.0
  1
Trattamento Termico
100
AcDbText
  0
TEXT
  5
4FF
100
AcDbEntity
  8
TABELLA
  6
CONTINUOUS
100
AcDbText
 10
161.83968
 20
32.089683
 30
0.0
 40
2.0
  1
Scala
100
AcDbText
  0
TEXT
  5
500
100
AcDbEntity
  8
TABELLA
  6
CONTINUOUS
100
AcDbText
 10
162.070991
 20
12.223377
 30
0.0
 40
2.0
  1
Data
100
AcDbText
  0
LINE
  5
501
100
AcDbEntity
  8
TABELLA
  6
CONTINUOUS
100
AcDbLine
 10
125.782064
 20
35.387067
 30
0.0
 11
195.782064
 21
35.387067
 31
0.0
  0
LINE
  5
502
100
AcDbEntity
  8
TABELLA
  6
CONTINUOUS
100
AcDbLine
 10
125.782064
 20
25.387067
 30
0.0
 11
195.782064
 21
25.387067
 31
0.0
  0
LINE
  5
503
100
AcDbEntity
  8
TABELLA
  6
CONTINUOUS
100
AcDbLine
 10
120.666552
 20
15.457427
 30
0.0
 11
195.782064
 21
15.387067
 31
0.0
  0
TEXT
  5
504
100
AcDbEntity
  8
TABELLA
  6
CONTINUOUS
100
AcDbText
 10
116.965597
 20
42.484843
 30
0.0
 40
2.0
  1
Dimensioni di prelievo
100
AcDbText
  0
TEXT
  5
505
100
AcDbEntity
  8
TABELLA
  6
CONTINUOUS
100
AcDbText
 10
126.911915
 20
32.089683
 30
0.0
 40
2.0
  1
Approvato da - data
100
AcDbText
  0
TEXT
  5
506
100
AcDbEntity
  8
TABELLA
  6
CONTINUOUS
100
AcDbText
 10
121.823101
 20
22.387534
 30
0.0
 40
2.0
  1
Particolare
100
AcDbText
  0
LINE
  5
507
100
AcDbEntity
  8
TABELLA
  6
CONTINUOUS
100
AcDbLine
 10
120.782064
 20
15.387067
 30
0.0
 11
120.782064
 21
5.387067
 31
0.0
  0
TEXT
  5
508
100
AcDbEntity
  8
TABELLA
  6
CONTINUOUS
100
AcDbText
 10
116.708833
 20
0.138446
 30
0.0
 40
4.0
  1
3
100
AcDbText
  0
LINE
  5
509
100
AcDbEntity
  8
TABELLA
  6
CONTINUOUS
100
AcDbLine
 10
116.711078
 20
19.853491
 30
0.0
 11
115.706968
 21
22.612261
 31
0.0
1001
ACAD
1000
ASC_BOUNDS
1002
{
1070
    19
1002
}
  0
LINE
  5
50A
100
AcDbEntity
  8
TABELLA
  6
CONTINUOUS
100
AcDbLine
 10
113.654847
 20
11.456564
 30
0.0
 11
116.711078
 21
19.853491
 31
0.0
1001
ACAD
1000
ASC_BOUNDS
1002
{
1070
    19
1002
}
  0
LINE
  5
50B
100
AcDbEntity
  8
TABELLA
  6
CONTINUOUS
100
AcDbLine
 10
114.355055
 20
10.456564
 30
0.0
 11
117.775256
 21
19.853491
 31
0.0
1001
ACAD
1000
ASC_BOUNDS
1002
{
1070
    19
1002
}
  0
TEXT
  5
50C
100
AcDbEntity
  8
TABELLA
  6
CONTINUOUS
100
AcDbText
 10
101.930465
 20
32.089683
 30
0.0
 40
2.0
  1
Controllato da
100
AcDbText
  0
LINE
  5
50D
100
AcDbEntity
  8
TABELLA
  6
CONTINUOUS
100
AcDbLine
 10
115.782064
 20
35.387067
 30
0.0
 11
115.782064
 21
45.387067
 31
0.0
  0
LINE
  5
50E
100
AcDbEntity
  8
TABELLA
  6
CONTINUOUS
100
AcDbLine
 10
125.782064
 20
35.387067
 30
0.0
 11
125.782064
 21
25.387067
 31
0.0
  0
TEXT
  5
50F
100
AcDbEntity
  8
TABELLA
  6
CONTINUOUS
100
AcDbText
 10
121.591791
 20
12.223377
 30
0.0
 40
2.0
  1
Disegno
100
AcDbText
  0
LINE
  5
510
100
AcDbEntity
  8
TABELLA
  6
CONTINUOUS
100
AcDbLine
 10
117.775256
 20
19.853491
 30
0.0
 11
116.407176
 21
23.612261
 31
0.0
1001
ACAD
1000
ASC_BOUNDS
1002
{
1070
    19
1002
}
  0
LINE
  5
511
100
AcDbEntity
  8
TABELLA
  6
CONTINUOUS
100
AcDbLine
 10
120.782064
 20
25.387067
 30
0.0
 11
120.782064
 21
15.387067
 31
0.0
  0
LINE
  5
512
100
AcDbEntity
  8
TABELLA
  6
CONTINUOUS
100
AcDbLine
 10
160.782064
 20
15.387067
 30
0.0
 11
160.782064
 21
5.387067
 31
0.0
  0
LINE
  5
513
100
AcDbEntity
  8
TABELLA
  6
CONTINUOUS
100
AcDbLine
 10
134.114064
 20
5.387067
 30
0.0
 11
134.114064
 21
0.387067
 31
0.0
  0
TEXT
  5
514
100
AcDbEntity
  8
TABELLA
  6
CONTINUOUS
100
AcDbText
 10
150.41737
 20
0.138446
 30
0.0
 40
4.0
  1
2
100
AcDbText
  0
LINE
  5
515
100
AcDbEntity
  8
TABELLA
  6
CONTINUOUS
100
AcDbLine
 10
145.782064
 20
35.387067
 30
0.0
 11
145.782064
 21
45.387067
 31
0.0
  0
LINE
  5
516
100
AcDbEntity
  8
TABELLA
  6
CONTINUOUS
100
AcDbLine
 10
160.782064
 20
35.387067
 30
0.0
 11
160.782064
 21
25.387067
 31
0.0
  0
TEXT
  5
517
100
AcDbEntity
  8
TABELLA
  6
CONTINUOUS
100
AcDbText
 10
197.026704
 20
51.259863
 30
0.0
 40
4.0
  1
B
100
AcDbText
  0
TEXT
  5
518
100
AcDbEntity
  8
TABELLA
  6
CONTINUOUS
100
AcDbText
 10
195.001816
 20
46.303578
 30
0.0
 40
2.0
  1
N° rev.
 50
90.0
100
AcDbText
  0
LINE
  5
519
100
AcDbEntity
  8
TABELLA
  6
CONTINUOUS
100
AcDbLine
 10
176.747411
 20
30.474182
 30
0.0
 11
194.673913
 21
30.474182
 31
0.0
  0
LINE
  5
51A
100
AcDbEntity
  8
TABELLA
  6
CONTINUOUS
100
AcDbLine
 10
180.782064
 20
15.387067
 30
0.0
 11
180.782064
 21
5.387067
 31
0.0
  0
LINE
  5
51B
100
AcDbEntity
  8
TABELLA
  6
CONTINUOUS
100
AcDbLine
 10
167.447064
 20
5.387067
 30
0.0
 11
167.447064
 21
0.387067
 31
0.0
  0
TEXT
  5
51C
100
AcDbEntity
  8
TABELLA
  6
CONTINUOUS
100
AcDbText
 10
184.542061
 20
0.138446
 30
0.0
 40
4.0
  1
1
100
AcDbText
  0
LINE
  5
51D
100
AcDbEntity
  8
TABELLA
  6
CONTINUOUS
100
AcDbLine
 10
176.747411
 20
31.974182
 30
0.0
 11
182.656258
 21
33.016071
 31
0.0
  0
LINE
  5
51E
100
AcDbEntity
  8
TABELLA
  6
CONTINUOUS
100
AcDbLine
 10
176.747411
 20
28.974182
 30
0.0
 11
182.656258
 21
27.932293
 31
0.0
  0
LINE
  5
51F
100
AcDbEntity
  8
TABELLA
  6
CONTINUOUS
100
AcDbLine
 10
176.747411
 20
31.974182
 30
0.0
 11
176.747411
 21
28.974182
 31
0.0
  0
LINE
  5
520
100
AcDbEntity
  8
TABELLA
  6
CONTINUOUS
100
AcDbLine
 10
175.782064
 20
35.387067
 30
0.0
 11
175.782064
 21
25.387067
 31
0.0
  0
CIRCLE
  5
521
100
AcDbEntity
  8
TABELLA
  6
CONTINUOUS
100
AcDbCircle
 10
189.932065
 20
30.474182
 30
0.0
 40
1.5
  0
LINE
  5
522
100
AcDbEntity
  8
TABELLA
  6
CONTINUOUS
100
AcDbLine
 10
189.932065
 20
28.369782
 30
0.0
 11
189.932065
 21
32.578582
 31
0.0
  0
CIRCLE
  5
523
100
AcDbEntity
  8
TABELLA
  6
CONTINUOUS
100
AcDbCircle
 10
189.932065
 20
30.474182
 30
0.0
 40
2.54
  0
LINE
  5
524
100
AcDbEntity
  8
TABELLA
  6
CONTINUOUS
100
AcDbLine
 10
182.656258
 20
33.016071
 30
0.0
 11
182.656258
 21
27.932293
 31
0.0
  0
TEXT
  5
525
100
AcDbEntity
  8
TABELLA
  6
CONTINUOUS
100
AcDbText
 10
181.963625
 20
11.992375
 30
0.0
 40
2.0
  1
Formato
100
AcDbText
  0
LINE
  5
526
100
AcDbEntity
  8
TABELLA
  6
CONTINUOUS
100
AcDbLine
 10
187.827665
 20
30.474182
 30
0.0
 11
192.036465
 21
30.474182
 31
0.0
  0
LINE
  5
527
100
AcDbEntity
  8
TABELLA
  6
CONTINUOUS
100
AcDbLine
 10
195.782064
 20
5.387067
 30
0.0
 11
195.782064
 21
35.387067
 31
0.0
  0
TEXT
  5
528
100
AcDbEntity
  8
TABELLA
  6
CONTINUOUS
100
AcDbText
 10
197.026704
 20
14.685191
 30
0.0
 40
4.0
  1
A
100
AcDbText
  0
LINE
  5
529
100
AcDbEntity
  8
TABELLA
  6
CONTINUOUS
100
AcDbLine
 10
195.782064
 20
36.262067
 30
0.0
 11
200.782064
 21
36.262067
 31
0.0
  0
TEXT
  5
52A
100
AcDbEntity
  8
TABELLA
  6
CONTINUOUS
100
AcDbText
 10
195.209894
 20
130.984517
 30
0.0
 40
2.0
  1
Data
 50
90.0
100
AcDbText
  0
TEXT
  5
52B
100
AcDbEntity
  8
TABELLA
  6
CONTINUOUS
100
AcDbText
 10
195.209894
 20
56.278486
 30
0.0
 40
2.0
  1
Nota di revisione
 50
90.0
100
AcDbText
  0
LINE
  5
52C
100
AcDbEntity
  8
TABELLA
  6
CONTINUOUS
100
AcDbLine
 10
191.781227
 20
55.387241
 30
0.0
 11
195.782064
 21
55.387241
 31
0.0
  0
LINE
  5
52D
100
AcDbEntity
  8
TABELLA
  6
CONTINUOUS
100
AcDbLine
 10
191.781227
 20
130.387241
 30
0.0
 11
195.782064
 21
130.387241
 31
0.0
  0
LINE
  5
52E
100
AcDbEntity
  8
TABELLA
  6
CONTINUOUS
100
AcDbLine
 10
195.782064
 20
72.137067
 30
0.0
 11
200.782064
 21
72.137067
 31
0.0
  0
TEXT
  5
52F
100
AcDbEntity
  8
TABELLA
  6
CONTINUOUS
100
AcDbText
 10
197.442859
 20
87.459725
 30
0.0
 40
4.0
  1
C
100
AcDbText
  0
LINE
  5
530
100
AcDbEntity
  8
TABELLA
  6
CONTINUOUS
100
AcDbLine
 10
195.782064
 20
108.012067
 30
0.0
 11
200.782064
 21
108.012067
 31
0.0
  0
TEXT
  5
531
100
AcDbEntity
  8
TABELLA
  6
CONTINUOUS
100
AcDbText
 10
197.442859
 20
123.618776
 30
0.0
 40
4.0
  1
D
100
AcDbText
  0
TEXT
  5
532
100
AcDbEntity
  8
TABELLA
  6
CONTINUOUS
100
AcDbText
 10
116.708835
 20
283.250638
 30
0.0
 40
4.0
  1
3
100
AcDbText
  0
LINE
  5
533
100
AcDbEntity
  8
TABELLA
  6
CONTINUOUS
100
AcDbLine
 10
134.114064
 20
282.387067
 30
0.0
 11
134.114064
 21
287.387067
 31
0.0
  0
TEXT
  5
534
100
AcDbEntity
  8
TABELLA
  6
CONTINUOUS
100
AcDbText
 10
150.417372
 20
283.250638
 30
0.0
 40
4.0
  1
2
100
AcDbText
  0
TEXT
  5
535
100
AcDbEntity
  8
TABELLA
  6
CONTINUOUS
100
AcDbText
 10
197.026704
 20
230.800736
 30
0.0
 40
4.0
  1
G
100
AcDbText
  0
TEXT
  5
536
100
AcDbEntity
  8
TABELLA
  6
CONTINUOUS
100
AcDbText
 10
195.209894
 20
155.7956
 30
0.0
 40
2.0
  1
Control.
 50
90.0
100
AcDbText
  0
TEXT
  5
537
100
AcDbEntity
  8
TABELLA
  6
CONTINUOUS
100
AcDbText
 10
195.209894
 20
146.028502
 30
0.0
 40
2.0
  1
Firma
 50
90.0
100
AcDbText
  0
LINE
  5
538
100
AcDbEntity
  8
TABELLA
  6
CONTINUOUS
100
AcDbLine
 10
191.781227
 20
145.387241
 30
0.0
 11
195.782064
 21
145.387241
 31
0.0
  0
LINE
  5
539
100
AcDbEntity
  8
TABELLA
  6
CONTINUOUS
100
AcDbLine
 10
191.781227
 20
155.387241
 30
0.0
 11
195.782064
 21
155.387241
 31
0.0
  0
LINE
  5
53A
100
AcDbEntity
  8
TABELLA
  6
CONTINUOUS
100
AcDbLine
 10
191.781227
 20
165.387241
 30
0.0
 11
195.782064
 21
165.387241
 31
0.0
  0
LINE
  5
53B
100
AcDbEntity
  8
TABELLA
  6
CONTINUOUS
100
AcDbLine
 10
195.782064
 20
143.887067
 30
0.0
 11
200.782064
 21
146.387067
 31
0.0
  0
LINE
  5
53C
100
AcDbEntity
  8
TABELLA
  6
CONTINUOUS
100
AcDbLine
 10
195.782064
 20
143.887067
 30
0.0
 11
200.782064
 21
143.887067
 31
0.0
  0
LINE
  5
53D
100
AcDbEntity
  8
TABELLA
  6
CONTINUOUS
100
AcDbLine
 10
200.782064
 20
143.887067
 30
0.0
 11
200.782064
 21
146.387067
 31
0.0
  0
TEXT
  5
53E
100
AcDbEntity
  8
TABELLA
  6
CONTINUOUS
100
AcDbText
 10
197.442859
 20
158.319393
 30
0.0
 40
4.0
  1
E
100
AcDbText
  0
LINE
  5
53F
100
AcDbEntity
  8
TABELLA
  6
CONTINUOUS
100
AcDbLine
 10
195.782064
 20
179.762067
 30
0.0
 11
200.782064
 21
179.762067
 31
0.0
  0
TEXT
  5
540
100
AcDbEntity
  8
TABELLA
  6
CONTINUOUS
100
AcDbText
 10
197.859013
 20
195.309687
 30
0.0
 40
4.0
  1
F
100
AcDbText
  0
LINE
  5
541
100
AcDbEntity
  8
TABELLA
  6
CONTINUOUS
100
AcDbLine
 10
195.782064
 20
215.637067
 30
0.0
 11
200.782064
 21
215.637067
 31
0.0
  0
LINE
  5
542
100
AcDbEntity
  8
TABELLA
  6
CONTINUOUS
100
AcDbLine
 10
167.447064
 20
282.387067
 30
0.0
 11
167.447064
 21
287.387067
 31
0.0
  0
TEXT
  5
543
100
AcDbEntity
  8
TABELLA
  6
CONTINUOUS
100
AcDbText
 10
184.958217
 20
283.250638
 30
0.0
 40
4.0
  1
1
100
AcDbText
  0
LINE
  5
544
100
AcDbEntity
  8
TABELLA
  6
CONTINUOUS
100
AcDbLine
 10
195.782064
 20
282.387067
 30
0.0
 11
195.782064
 21
278.387067
 31
0.0
  0
LINE
  5
545
100
AcDbEntity
  8
TABELLA
  6
CONTINUOUS
100
AcDbLine
 10
195.782064
 20
251.512067
 30
0.0
 11
200.782064
 21
251.512067
 31
0.0
  0
TEXT
  5
546
100
AcDbEntity
  8
TABELLA
  6
CONTINUOUS
100
AcDbText
 10
197.026704
 20
268.206651
 30
0.0
 40
4.0
  1
H
100
AcDbText
  0
ENDBLK
  5
548
100
AcDbEntity
  8
QUOTE
100
AcDbBlockEnd
  0
BLOCK
  5
656
100
AcDbEntity
  8
0
100
AcDbBlockBegin
  2
*X2
 70
    65
 10
0.0
 20
0.0
 30
0.0
  3
*X2
  1

  0
LINE
  5
627
100
AcDbEntity
  8
0
  6
CONTINUOUS
 62
     0
100
AcDbLine
 10
114.652202
 20
-147.750882
 30
0.0
 11
115.742109
 21
-146.660975
 31
0.0
  0
LINE
  5
628
100
AcDbEntity
  8
0
  6
CONTINUOUS
 62
     0
100
AcDbLine
 10
115.742109
 20
-146.660975
 30
0.0
 11
117.486325
 21
-144.916759
 31
0.0
  0
LINE
  5
629
100
AcDbEntity
  8
0
  6
CONTINUOUS
 62
     0
100
AcDbLine
 10
114.60167
 20
-147.532006
 30
0.0
 11
115.742109
 21
-146.391567
 31
0.0
  0
LINE
  5
62A
100
AcDbEntity
  8
0
  6
CONTINUOUS
 62
     0
100
AcDbLine
 10
117.305928
 20
-144.827748
 30
0.0
 11
117.567192
 21
-144.566484
 31
0.0
  0
LINE
  5
62B
100
AcDbEntity
  8
0
  6
CONTINUOUS
 62
     0
100
AcDbLine
 10
115.742109
 20
-146.391567
 30
0.0
 11
116.988892
 21
-145.144784
 31
0.0
  0
LINE
  5
62C
100
AcDbEntity
  8
0
  6
CONTINUOUS
 62
     0
100
AcDbLine
 10
114.551139
 20
-147.31313
 30
0.0
 11
115.742109
 21
-146.12216
 31
0.0
  0
LINE
  5
62D
100
AcDbEntity
  8
0
  6
CONTINUOUS
 62
     0
100
AcDbLine
 10
117.633659
 20
-144.23061
 30
0.0
 11
117.648059
 21
-144.216209
 31
0.0
  0
LINE
  5
62E
100
AcDbEntity
  8
0
  6
CONTINUOUS
 62
     0
100
AcDbLine
 10
115.742109
 20
-146.12216
 30
0.0
 11
116.391754
 21
-145.472514
 31
0.0
  0
LINE
  5
62F
100
AcDbEntity
  8
0
  6
CONTINUOUS
 62
     0
100
AcDbLine
 10
114.500607
 20
-147.094253
 30
0.0
 11
115.742109
 21
-145.852752
 31
0.0
  0
LINE
  5
630
100
AcDbEntity
  8
0
  6
CONTINUOUS
 62
     0
100
AcDbLine
 10
115.742109
 20
-145.852752
 30
0.0
 11
116.035539
 21
-145.559322
 31
0.0
  0
LINE
  5
631
100
AcDbEntity
  8
0
  6
CONTINUOUS
 62
     0
100
AcDbLine
 10
114.450076
 20
-146.875377
 30
0.0
 11
115.742109
 21
-145.583344
 31
0.0
  0
LINE
  5
632
100
AcDbEntity
  8
0
  6
CONTINUOUS
 62
     0
100
AcDbLine
 10
115.742109
 20
-145.583344
 30
0.0
 11
115.74449
 21
-145.580963
 31
0.0
  0
LINE
  5
633
100
AcDbEntity
  8
0
  6
CONTINUOUS
 62
     0
100
AcDbLine
 10
114.399544
 20
-146.656501
 30
0.0
 11
115.490918
 21
-145.565127
 31
0.0
  0
LINE
  5
634
100
AcDbEntity
  8
0
  6
CONTINUOUS
 62
     0
100
AcDbLine
 10
114.349013
 20
-146.437625
 30
0.0
 11
115.263728
 21
-145.52291
 31
0.0
  0
LINE
  5
635
100
AcDbEntity
  8
0
  6
CONTINUOUS
 62
     0
100
AcDbLine
 10
114.298481
 20
-146.218749
 30
0.0
 11
115.057198
 21
-145.460032
 31
0.0
  0
LINE
  5
636
100
AcDbEntity
  8
0
  6
CONTINUOUS
 62
     0
100
AcDbLine
 10
114.24795
 20
-145.999873
 30
0.0
 11
114.867992
 21
-145.379831
 31
0.0
  0
LINE
  5
637
100
AcDbEntity
  8
0
  6
CONTINUOUS
 62
     0
100
AcDbLine
 10
114.197418
 20
-145.780997
 30
0.0
 11
114.69405
 21
-145.284365
 31
0.0
  0
LINE
  5
638
100
AcDbEntity
  8
0
  6
CONTINUOUS
 62
     0
100
AcDbLine
 10
114.146887
 20
-145.56212
 30
0.0
 11
114.534089
 21
-145.174918
 31
0.0
  0
LINE
  5
639
100
AcDbEntity
  8
0
  6
CONTINUOUS
 62
     0
100
AcDbLine
 10
114.096355
 20
-145.343244
 30
0.0
 11
114.387359
 21
-145.05224
 31
0.0
  0
LINE
  5
63A
100
AcDbEntity
  8
0
  6
CONTINUOUS
 62
     0
100
AcDbLine
 10
114.045824
 20
-145.124368
 30
0.0
 11
114.253522
 21
-144.91667
 31
0.0
  0
LINE
  5
63B
100
AcDbEntity
  8
0
  6
CONTINUOUS
 62
     0
100
AcDbLine
 10
113.995292
 20
-144.905492
 30
0.0
 11
114.132602
 21
-144.768182
 31
0.0
  0
LINE
  5
63C
100
AcDbEntity
  8
0
  6
CONTINUOUS
 62
     0
100
AcDbLine
 10
113.94476
 20
-144.686616
 30
0.0
 11
114.024988
 21
-144.606389
 31
0.0
  0
LINE
  5
63D
100
AcDbEntity
  8
0
  6
CONTINUOUS
 62
     0
100
AcDbLine
 10
113.894229
 20
-144.46774
 30
0.0
 11
113.931493
 21
-144.430476
 31
0.0
  0
LINE
  5
63E
100
AcDbEntity
  8
0
  6
CONTINUOUS
 62
     0
100
AcDbLine
 10
113.843697
 20
-144.248864
 30
0.0
 11
113.853487
 21
-144.239074
 31
0.0
  0
LINE
  5
63F
100
AcDbEntity
  8
0
  6
CONTINUOUS
 62
     0
100
AcDbLine
 10
114.702734
 20
-147.969758
 30
0.0
 11
115.742109
 21
-146.930383
 31
0.0
  0
LINE
  5
640
100
AcDbEntity
  8
0
  6
CONTINUOUS
 62
     0
100
AcDbLine
 10
115.742109
 20
-146.930383
 30
0.0
 11
117.405457
 21
-145.267034
 31
0.0
  0
LINE
  5
641
100
AcDbEntity
  8
0
  6
CONTINUOUS
 62
     0
100
AcDbLine
 10
114.753265
 20
-148.188634
 30
0.0
 11
115.742109
 21
-147.19979
 31
0.0
  0
LINE
  5
642
100
AcDbEntity
  8
0
  6
CONTINUOUS
 62
     0
100
AcDbLine
 10
115.742109
 20
-147.19979
 30
0.0
 11
117.32459
 21
-145.617309
 31
0.0
  0
LINE
  5
643
100
AcDbEntity
  8
0
  6
CONTINUOUS
 62
     0
100
AcDbLine
 10
114.803797
 20
-148.40751
 30
0.0
 11
115.742109
 21
-147.469198
 31
0.0
  0
LINE
  5
644
100
AcDbEntity
  8
0
  6
CONTINUOUS
 62
     0
100
AcDbLine
 10
115.742109
 20
-147.469198
 30
0.0
 11
117.243723
 21
-145.967584
 31
0.0
  0
LINE
  5
645
100
AcDbEntity
  8
0
  6
CONTINUOUS
 62
     0
100
AcDbLine
 10
114.854328
 20
-148.626386
 30
0.0
 11
115.742109
 21
-147.738606
 31
0.0
  0
LINE
  5
646
100
AcDbEntity
  8
0
  6
CONTINUOUS
 62
     0
100
AcDbLine
 10
115.742109
 20
-147.738606
 30
0.0
 11
117.162855
 21
-146.317859
 31
0.0
  0
LINE
  5
647
100
AcDbEntity
  8
0
  6
CONTINUOUS
 62
     0
100
AcDbLine
 10
114.90486
 20
-148.845263
 30
0.0
 11
115.742109
 21
-148.008013
 31
0.0
  0
LINE
  5
648
100
AcDbEntity
  8
0
  6
CONTINUOUS
 62
     0
100
AcDbLine
 10
115.742109
 20
-148.008013
 30
0.0
 11
117.081988
 21
-146.668134
 31
0.0
  0
LINE
  5
649
100
AcDbEntity
  8
0
  6
CONTINUOUS
 62
     0
100
AcDbLine
 10
114.955391
 20
-149.064139
 30
0.0
 11
115.742109
 21
-148.277421
 31
0.0
  0
LINE
  5
64A
100
AcDbEntity
  8
0
  6
CONTINUOUS
 62
     0
100
AcDbLine
 10
115.742109
 20
-148.277421
 30
0.0
 11
117.00112
 21
-147.01841
 31
0.0
  0
LINE
  5
64B
100
AcDbEntity
  8
0
  6
CONTINUOUS
 62
     0
100
AcDbLine
 10
115.022978
 20
-149.265959
 30
0.0
 11
115.742109
 21
-148.546829
 31
0.0
  0
LINE
  5
64C
100
AcDbEntity
  8
0
  6
CONTINUOUS
 62
     0
100
AcDbLine
 10
115.742109
 20
-148.546829
 30
0.0
 11
116.920253
 21
-147.368685
 31
0.0
  0
LINE
  5
64D
100
AcDbEntity
  8
0
  6
CONTINUOUS
 62
     0
100
AcDbLine
 10
115.128992
 20
-149.429353
 30
0.0
 11
115.742109
 21
-148.816236
 31
0.0
  0
LINE
  5
64E
100
AcDbEntity
  8
0
  6
CONTINUOUS
 62
     0
100
AcDbLine
 10
115.742109
 20
-148.816236
 30
0.0
 11
116.839386
 21
-147.71896
 31
0.0
  0
LINE
  5
64F
100
AcDbEntity
  8
0
  6
CONTINUOUS
 62
     0
100
AcDbLine
 10
115.267953
 20
-149.5598
 30
0.0
 11
115.742109
 21
-149.085644
 31
0.0
  0
LINE
  5
650
100
AcDbEntity
  8
0
  6
CONTINUOUS
 62
     0
100
AcDbLine
 10
115.742109
 20
-149.085644
 30
0.0
 11
116.758518
 21
-148.069235
 31
0.0
  0
LINE
  5
651
100
AcDbEntity
  8
0
  6
CONTINUOUS
 62
     0
100
AcDbLine
 10
115.440667
 20
-149.656493
 30
0.0
 11
115.742109
 21
-149.355052
 31
0.0
  0
LINE
  5
652
100
AcDbEntity
  8
0
  6
CONTINUOUS
 62
     0
100
AcDbLine
 10
115.742109
 20
-149.355052
 30
0.0
 11
116.677651
 21
-148.41951
 31
0.0
  0
LINE
  5
653
100
AcDbEntity
  8
0
  6
CONTINUOUS
 62
     0
100
AcDbLine
 10
115.655782
 20
-149.710787
 30
0.0
 11
115.742109
 21
-149.624459
 31
0.0
  0
LINE
  5
654
100
AcDbEntity
  8
0
  6
CONTINUOUS
 62
     0
100
AcDbLine
 10
115.742109
 20
-149.624459
 30
0.0
 11
116.596784
 21
-148.769785
 31
0.0
  0
LINE
  5
655
100
AcDbEntity
  8
0
  6
CONTINUOUS
 62
     0
100
AcDbLine
 10
115.947273
 20
-149.688703
 30
0.0
 11
116.515354
 21
-149.120622
 31
0.0
  0
ENDBLK
  5
657
100
AcDbEntity
  8
0
100
AcDbBlockEnd
  0
BLOCK
  5
671
100
AcDbEntity
  8
DISEGNO
100
AcDbBlockBegin
  2
A$C1125
 70
     0
 10
0.0
 20
0.0
 30
0.0
  3
A$C1125
  1

  0
LINE
  5
65A
100
AcDbEntity
  8
OGGETTO
100
AcDbLine
 10
0.378519
 20
121.267138
 30
0.0
 11
0.878519
 21
121.767138
 31
0.0
  0
LINE
  5
65B
100
AcDbEntity
  8
OGGETTO
100
AcDbLine
 10
0.378519
 20
130.667138
 30
0.0
 11
0.878519
 21
130.167138
 31
0.0
  0
LINE
  5
65C
100
AcDbEntity
  8
OGGETTO
100
AcDbLine
 10
26.378519
 20
117.167138
 30
0.0
 11
27.378519
 21
116.167138
 31
0.0
  0
LINE
  5
65D
100
AcDbEntity
  8
OGGETTO
100
AcDbLine
 10
12.378519
 20
147.167138
 30
0.0
 11
13.378519
 21
146.167138
 31
0.0
  0
LINE
  5
65E
100
AcDbEntity
  8
OGGETTO
100
AcDbLine
 10
0.378519
 20
146.167138
 30
0.0
 11
1.378519
 21
147.167138
 31
0.0
  0
INSERT
  5
65F
100
AcDbEntity
  8
OGGETTO
  6
CONTINUOUS
100
AcDbBlockReference
  2
*X2
 10
-95.36359
 20
149.882596
 30
0.0
1001
ACAD
1000
HATCH
1002
{
1070
    19
1000
ANSI31
1040
0.06
1040
0.0
1000
ASC_BOUNDS
1070
     2
1070
     1
1070
     4
1005
660
1005
0
1005
661
1005
662
1070
     1
1070
     4
1005
660
1005
663
1005
661
1005
0
1000
ASC_SEEDPOINT
1011
19.880767
1021
3.118137
1031
0.0
1002
}
  0
ARC
  5
660
100
AcDbEntity
  8
OGGETTO
  6
CONTINUOUS
100
AcDbCircle
 10
20.378519
 20
6.301632
 30
0.0
 40
2.0
100
AcDbArc
 50
193.0
 51
347.0
1001
ACAD
1000
ASC_BOUNDS
1002
{
1070
    19
1005
65F
1005
65F
1002
}
  0
ARC
  5
661
100
AcDbEntity
  8
OGGETTO
100
AcDbCircle
 10
20.378519
 20
0.967138
 30
0.0
 40
0.8
100
AcDbArc
 50
193.0
 51
347.0
1001
ACAD
1000
ASC_BOUNDS
1002
{
1070
    19
1005
0
1005
65F
1005
65F
1002
}
  0
LINE
  5
662
100
AcDbEntity
  8
OGGETTO
100
AcDbLine
 10
21.158015
 20
0.787177
 30
0.0
 11
23.378519
 21
10.405236
 31
0.0
1001
ACAD
1000
ASC_BOUNDS
1002
{
1070
    19
1005
65F
1002
}
  0
LINE
  5
663
100
AcDbEntity
  8
OGGETTO
100
AcDbLine
 10
19.599023
 20
0.787177
 30
0.0
 11
17.378519
 21
10.405236
 31
0.0
1001
ACAD
1000
ASC_BOUNDS
1002
{
1070
    19
1005
65F
1002
}
  0
LINE
  5
664
100
AcDbEntity
  8
OGGETTO
100
AcDbLine
 10
26.378519
 20
117.167138
 30
0.0
 11
13.378519
 21
117.167138
 31
0.0
  0
LINE
  5
665
100
AcDbEntity
  8
OGGETTO
100
AcDbLine
 10
13.378519
 20
117.167138
 30
0.0
 11
13.378519
 21
146.167138
 31
0.0
  0
LINE
  5
666
100
AcDbEntity
  8
OGGETTO
100
AcDbLine
 10
12.378519
 20
147.167138
 30
0.0
 11
1.378519
 21
147.167138
 31
0.0
  0
LINE
  5
667
100
AcDbEntity
  8
OGGETTO
100
AcDbLine
 10
0.378519
 20
146.167138
 30
0.0
 11
0.378519
 21
130.667138
 31
0.0
  0
LINE
  5
668
100
AcDbEntity
  8
OGGETTO
100
AcDbLine
 10
0.878519
 20
130.167138
 30
0.0
 11
3.878519
 21
130.167138
 31
0.0
  0
LINE
  5
669
100
AcDbEntity
  8
OGGETTO
100
AcDbLine
 10
3.878519
 20
130.167138
 30
0.0
 11
3.878519
 21
121.767138
 31
0.0
  0
LINE
  5
66A
100
AcDbEntity
  8
OGGETTO
100
AcDbLine
 10
3.878519
 20
121.767138
 30
0.0
 11
0.878519
 21
121.767138
 31
0.0
  0
LINE
  5
66B
100
AcDbEntity
  8
OGGETTO
100
AcDbLine
 10
0.378519
 20
121.267138
 30
0.0
 11
0.378519
 21
104.167138
 31
0.0
  0
LINE
  5
66C
100
AcDbEntity
  8
OGGETTO
100
AcDbLine
 10
0.378519
 20
104.167138
 30
0.0
 11
17.378519
 21
87.167138
 31
0.0
  0
LINE
  5
66D
100
AcDbEntity
  8
OGGETTO
100
AcDbLine
 10
27.378519
 20
116.167138
 30
0.0
 11
27.378519
 21
91.167138
 31
0.0
  0
LINE
  5
66E
100
AcDbEntity
  8
OGGETTO
100
AcDbLine
 10
17.378519
 20
87.167138
 30
0.0
 11
17.378519
 21
10.405236
 31
0.0
  0
LINE
  5
66F
100
AcDbEntity
  8
OGGETTO
100
AcDbLine
 10
23.378519
 20
87.167138
 30
0.0
 11
23.378519
 21
10.405236
 31
0.0
  0
LINE
  5
670
100
AcDbEntity
  8
OGGETTO
100
AcDbLine
 10
23.378519
 20
87.167138
 30
0.0
 11
27.378519
 21
91.167138
 31
0.0
  0
ENDBLK
  5
672
100
AcDbEntity
  8
DISEGNO
100
AcDbBlockEnd
  0
BLOCK
  5
8A8
100
AcDbEntity
  8
0
100
AcDbBlockBegin
  2
*D4
 70
    65
 10
0.0
 20
0.0
 30
0.0
  3
*D4
  1

  0
LINE
  5
8A9
100
AcDbEntity
  8
0
  6
BYBLOCK
 62
     0
100
AcDbLine
 10
-1814.383766
 20
-1411.46537
 30
0.0
 11
-1759.969201
 21
-1411.46537
 31
0.0
  0
LINE
  5
8AA
100
AcDbEntity
  8
0
  6
BYBLOCK
 62
     0
100
AcDbLine
 10
-1806.383766
 20
-1558.46537
 30
0.0
 11
-1759.969201
 21
-1558.46537
 31
0.0
  0
LINE
  5
8AB
100
AcDbEntity
  8
0
  6
BYBLOCK
 62
     0
100
AcDbLine
 10
-1761.219201
 20
-1413.96537
 30
0.0
 11
-1761.219201
 21
-1555.96537
 31
0.0
  0
SOLID
  5
8AC
100
AcDbEntity
  8
0
  6
BYBLOCK
 62
     0
100
AcDbTrace
 10
-1761.635868
 20
-1413.96537
 30
0.0
 11
-1760.802535
 21
-1413.96537
 31
0.0
 12
-1761.219201
 22
-1411.46537
 32
0.0
 13
-1761.219201
 23
-1411.46537
 33
0.0
  0
SOLID
  5
8AD
100
AcDbEntity
  8
0
  6
BYBLOCK
 62
     0
100
AcDbTrace
 10
-1761.635868
 20
-1555.96537
 30
0.0
 11
-1760.802535
 21
-1555.96537
 31
0.0
 12
-1761.219201
 22
-1558.46537
 32
0.0
 13
-1761.219201
 23
-1558.46537
 33
0.0
  0
MTEXT
  5
8AE
100
AcDbEntity
  8
0
  6
BYBLOCK
 62
     0
100
AcDbMText
 10
-1763.594201
 20
-1484.96537
 30
0.0
 40
3.5
 41
0.0
 71
     5
 72
     1
  1
\A2;147{\H2.800000;±0.1}
 11
0.0
 21
1.0
 31
0.0
  0
POINT
  5
8AF
100
AcDbEntity
  8
DEFPOINTS
  6
BYBLOCK
 62
     0
100
AcDbPoint
 10
-1815.008766
 20
-1411.46537
 30
0.0
  0
POINT
  5
8B0
100
AcDbEntity
  8
DEFPOINTS
  6
BYBLOCK
 62
     0
100
AcDbPoint
 10
-1807.008766
 20
-1558.46537
 30
0.0
  0
POINT
  5
8B1
100
AcDbEntity
  8
DEFPOINTS
  6
BYBLOCK
 62
     0
100
AcDbPoint
 10
-1761.219201
 20
-1558.46537
 30
0.0
  0
ENDBLK
  5
8B2
100
AcDbEntity
  8
0
100
AcDbBlockEnd
  0
BLOCK
  5
764
100
AcDbEntity
  8
0
100
AcDbBlockBegin
  2
*D5
 70
    65
 10
0.0
 20
0.0
 30
0.0
  3
*D5
  1

  0
LINE
  5
765
100
AcDbEntity
  8
0
  6
BYBLOCK
 62
     0
100
AcDbLine
 10
-1800.383766
 20
-1441.46537
 30
0.0
 11
-1771.882754
 21
-1441.46537
 31
0.0
  0
LINE
  5
766
100
AcDbEntity
  8
0
  6
BYBLOCK
 62
     0
100
AcDbLine
 10
-1806.383766
 20
-1558.46537
 30
0.0
 11
-1771.882754
 21
-1558.46537
 31
0.0
  0
LINE
  5
767
100
AcDbEntity
  8
0
  6
BYBLOCK
 62
     0
100
AcDbLine
 10
-1773.132754
 20
-1443.96537
 30
0.0
 11
-1773.132754
 21
-1555.96537
 31
0.0
  0
SOLID
  5
768
100
AcDbEntity
  8
0
  6
BYBLOCK
 62
     0
100
AcDbTrace
 10
-1773.549421
 20
-1443.96537
 30
0.0
 11
-1772.716087
 21
-1443.96537
 31
0.0
 12
-1773.132754
 22
-1441.46537
 32
0.0
 13
-1773.132754
 23
-1441.46537
 33
0.0
  0
SOLID
  5
769
100
AcDbEntity
  8
0
  6
BYBLOCK
 62
     0
100
AcDbTrace
 10
-1773.549421
 20
-1555.96537
 30
0.0
 11
-1772.716087
 21
-1555.96537
 31
0.0
 12
-1773.132754
 22
-1558.46537
 32
0.0
 13
-1773.132754
 23
-1558.46537
 33
0.0
  0
MTEXT
  5
76A
100
AcDbEntity
  8
0
  6
BYBLOCK
 62
     0
100
AcDbMText
 10
-1776.955247
 20
-1499.96537
 30
0.0
 40
3.5
 41
0.0
 71
     5
 72
     1
  1
\A2;117{\H2.800000;\S+0.02^  0;}
 11
0.0
 21
1.0
 31
0.0
  0
POINT
  5
76B
100
AcDbEntity
  8
DEFPOINTS
  6
BYBLOCK
 62
     0
100
AcDbPoint
 10
-1801.008766
 20
-1441.46537
 30
0.0
  0
POINT
  5
76C
100
AcDbEntity
  8
DEFPOINTS
  6
BYBLOCK
 62
     0
100
AcDbPoint
 10
-1807.008766
 20
-1558.46537
 30
0.0
  0
POINT
  5
76D
100
AcDbEntity
  8
DEFPOINTS
  6
BYBLOCK
 62
     0
100
AcDbPoint
 10
-1773.132754
 20
-1558.46537
 30
0.0
  0
ENDBLK
  5
76E
100
AcDbEntity
  8
0
100
AcDbBlockEnd
  0
BLOCK
  5
6C0
100
AcDbEntity
  8
0
100
AcDbBlockBegin
  2
*D6
 70
    65
 10
0.0
 20
0.0
 30
0.0
  3
*D6
  1

  0
LINE
  5
6C1
100
AcDbEntity
  8
0
  6
BYBLOCK
 62
     0
100
AcDbLine
 10
-1814.383766
 20
-1411.46537
 30
0.0
 11
-1771.884426
 21
-1411.46537
 31
0.0
  0
LINE
  5
6C2
100
AcDbEntity
  8
0
  6
BYBLOCK
 62
     0
100
AcDbLine
 10
-1800.383766
 20
-1441.46537
 30
0.0
 11
-1771.884426
 21
-1441.46537
 31
0.0
  0
LINE
  5
6C3
100
AcDbEntity
  8
0
  6
BYBLOCK
 62
     0
100
AcDbLine
 10
-1773.134426
 20
-1413.96537
 30
0.0
 11
-1773.134426
 21
-1438.96537
 31
0.0
  0
SOLID
  5
6C4
100
AcDbEntity
  8
0
  6
BYBLOCK
 62
     0
100
AcDbTrace
 10
-1773.551093
 20
-1413.96537
 30
0.0
 11
-1772.71776
 21
-1413.96537
 31
0.0
 12
-1773.134426
 22
-1411.46537
 32
0.0
 13
-1773.134426
 23
-1411.46537
 33
0.0
  0
SOLID
  5
6C5
100
AcDbEntity
  8
0
  6
BYBLOCK
 62
     0
100
AcDbTrace
 10
-1773.551093
 20
-1438.96537
 30
0.0
 11
-1772.71776
 21
-1438.96537
 31
0.0
 12
-1773.134426
 22
-1441.46537
 32
0.0
 13
-1773.134426
 23
-1441.46537
 33
0.0
  0
MTEXT
  5
6C6
100
AcDbEntity
  8
0
  6
BYBLOCK
 62
     0
100
AcDbMText
 10
-1775.509426
 20
-1426.46537
 30
0.0
 40
3.5
 41
0.0
 71
     5
 72
     1
  1
\A1;30
 11
0.0
 21
1.0
 31
0.0
  0
POINT
  5
6C7
100
AcDbEntity
  8
DEFPOINTS
  6
BYBLOCK
 62
     0
100
AcDbPoint
 10
-1815.008766
 20
-1411.46537
 30
0.0
  0
POINT
  5
6C8
100
AcDbEntity
  8
DEFPOINTS
  6
BYBLOCK
 62
     0
100
AcDbPoint
 10
-1801.008766
 20
-1441.46537
 30
0.0
  0
POINT
  5
6C9
100
AcDbEntity
  8
DEFPOINTS
  6
BYBLOCK
 62
     0
100
AcDbPoint
 10
-1773.134426
 20
-1441.46537
 30
0.0
  0
ENDBLK
  5
6CA
100
AcDbEntity
  8
0
100
AcDbBlockEnd
  0
BLOCK
  5
6CD
100
AcDbEntity
  8
0
100
AcDbBlockBegin
  2
*D7
 70
    65
 10
0.0
 20
0.0
 30
0.0
  3
*D7
  1

  0
LINE
  5
6CE
100
AcDbEntity
  8
0
  6
BYBLOCK
 62
     0
100
AcDbLine
 10
-1800.383766
 20
-1441.46537
 30
0.0
 11
-1779.826794
 21
-1441.46537
 31
0.0
  0
LINE
  5
6CF
100
AcDbEntity
  8
0
  6
BYBLOCK
 62
     0
100
AcDbLine
 10
-1803.383766
 20
-1471.46537
 30
0.0
 11
-1779.826794
 21
-1471.46537
 31
0.0
  0
LINE
  5
6D0
100
AcDbEntity
  8
0
  6
BYBLOCK
 62
     0
100
AcDbLine
 10
-1781.076794
 20
-1443.96537
 30
0.0
 11
-1781.076794
 21
-1468.96537
 31
0.0
  0
SOLID
  5
6D1
100
AcDbEntity
  8
0
  6
BYBLOCK
 62
     0
100
AcDbTrace
 10
-1781.493461
 20
-1443.96537
 30
0.0
 11
-1780.660127
 21
-1443.96537
 31
0.0
 12
-1781.076794
 22
-1441.46537
 32
0.0
 13
-1781.076794
 23
-1441.46537
 33
0.0
  0
SOLID
  5
6D2
100
AcDbEntity
  8
0
  6
BYBLOCK
 62
     0
100
AcDbTrace
 10
-1781.493461
 20
-1468.96537
 30
0.0
 11
-1780.660127
 21
-1468.96537
 31
0.0
 12
-1781.076794
 22
-1471.46537
 32
0.0
 13
-1781.076794
 23
-1471.46537
 33
0.0
  0
MTEXT
  5
6D3
100
AcDbEntity
  8
0
  6
BYBLOCK
 62
     0
100
AcDbMText
 10
-1783.451794
 20
-1456.46537
 30
0.0
 40
3.5
 41
0.0
 71
     5
 72
     1
  1
\A1;30
 11
0.0
 21
1.0
 31
0.0
  0
POINT
  5
6D4
100
AcDbEntity
  8
DEFPOINTS
  6
BYBLOCK
 62
     0
100
AcDbPoint
 10
-1801.008766
 20
-1441.46537
 30
0.0
  0
POINT
  5
6D5
100
AcDbEntity
  8
DEFPOINTS
  6
BYBLOCK
 62
     0
100
AcDbPoint
 10
-1804.008766
 20
-1471.46537
 30
0.0
  0
POINT
  5
6D6
100
AcDbEntity
  8
DEFPOINTS
  6
BYBLOCK
 62
     0
100
AcDbPoint
 10
-1781.076794
 20
-1471.46537
 30
0.0
  0
ENDBLK
  5
6D7
100
AcDbEntity
  8
0
100
AcDbBlockEnd
  0
BLOCK
  5
6DA
100
AcDbEntity
  8
0
100
AcDbBlockBegin
  2
*D8
 70
    65
 10
0.0
 20
0.0
 30
0.0
  3
*D8
  1

  0
LINE
  5
6DB
100
AcDbEntity
  8
0
  6
BYBLOCK
 62
     0
100
AcDbLine
 10
-1799.566824
 20
-1467.023428
 30
0.0
 11
-1795.368591
 21
-1462.825195
 31
0.0
  0
ARC
  5
6DC
100
AcDbEntity
  8
0
  6
BYBLOCK
 62
     0
100
AcDbCircle
 10
-1804.008766
 20
-1471.46537
 30
0.0
 40
10.969053
100
AcDbArc
 50
283.086937
 51
31.913063
  0
SOLID
  5
6DD
100
AcDbEntity
  8
0
  6
BYBLOCK
 62
     0
100
AcDbTrace
 10
-1801.47757
 20
-1482.563482
 30
0.0
 11
-1801.572534
 21
-1481.735577
 31
0.0
 12
-1804.008766
 22
-1482.434422
 32
0.0
 13
-1804.008766
 23
-1482.434422
 33
0.0
  0
SOLID
  5
6DE
100
AcDbEntity
  8
0
  6
BYBLOCK
 62
     0
100
AcDbTrace
 10
-1795.023956
 20
-1465.925912
 30
0.0
 11
-1794.371389
 21
-1465.407645
 31
0.0
 12
-1796.252475
 22
-1463.709078
 32
0.0
 13
-1796.252475
 23
-1463.709078
 33
0.0
  0
MTEXT
  5
6DF
100
AcDbEntity
  8
0
  6
BYBLOCK
 62
     0
100
AcDbMText
 10
-1796.068897
 20
-1474.754171
 30
0.0
 40
3.5
 41
0.0
 71
     5
 72
     1
  1
\A1;135°
 11
0.382683
 21
0.92388
 31
0.0
  0
POINT
  5
6E0
100
AcDbEntity
  8
DEFPOINTS
  6
BYBLOCK
 62
     0
100
AcDbPoint
 10
-1796.252475
 20
-1479.221661
 30
0.0
  0
POINT
  5
6E1
100
AcDbEntity
  8
DEFPOINTS
  6
BYBLOCK
 62
     0
100
AcDbPoint
 10
-1804.008766
 20
-1471.46537
 30
0.0
  0
POINT
  5
6E2
100
AcDbEntity
  8
DEFPOINTS
  6
BYBLOCK
 62
     0
100
AcDbPoint
 10
-1804.008766
 20
-1471.46537
 30
0.0
  0
POINT
  5
6E3
100
AcDbEntity
  8
DEFPOINTS
  6
BYBLOCK
 62
     0
100
AcDbPoint
 10
-1800.008766
 20
-1467.46537
 30
0.0
  0
POINT
  5
6E4
100
AcDbEntity
  8
DEFPOINTS
  6
BYBLOCK
 62
     0
100
AcDbPoint
 10
-1804.008766
 20
-1548.227271
 30
0.0
  0
ENDBLK
  5
6E5
100
AcDbEntity
  8
0
100
AcDbBlockEnd
  0
BLOCK
  5
725
100
AcDbEntity
  8
0
100
AcDbBlockBegin
  2
*D9
 70
    65
 10
0.0
 20
0.0
 30
0.0
  3
*D9
  1

  0
LINE
  5
726
100
AcDbEntity
  8
0
  6
BYBLOCK
 62
     0
100
AcDbLine
 10
-1826.633766
 20
-1411.46537
 30
0.0
 11
-1857.574841
 21
-1411.46537
 31
0.0
  0
LINE
  5
727
100
AcDbEntity
  8
0
  6
BYBLOCK
 62
     0
100
AcDbLine
 10
-1827.633766
 20
-1454.46537
 30
0.0
 11
-1857.574841
 21
-1454.46537
 31
0.0
  0
LINE
  5
728
100
AcDbEntity
  8
0
  6
BYBLOCK
 62
     0
100
AcDbLine
 10
-1856.324841
 20
-1413.96537
 30
0.0
 11
-1856.324841
 21
-1451.96537
 31
0.0
  0
SOLID
  5
729
100
AcDbEntity
  8
0
  6
BYBLOCK
 62
     0
100
AcDbTrace
 10
-1856.741508
 20
-1413.96537
 30
0.0
 11
-1855.908174
 21
-1413.96537
 31
0.0
 12
-1856.324841
 22
-1411.46537
 32
0.0
 13
-1856.324841
 23
-1411.46537
 33
0.0
  0
SOLID
  5
72A
100
AcDbEntity
  8
0
  6
BYBLOCK
 62
     0
100
AcDbTrace
 10
-1856.741508
 20
-1451.96537
 30
0.0
 11
-1855.908174
 21
-1451.96537
 31
0.0
 12
-1856.324841
 22
-1454.46537
 32
0.0
 13
-1856.324841
 23
-1454.46537
 33
0.0
  0
MTEXT
  5
72B
100
AcDbEntity
  8
0
  6
BYBLOCK
 62
     0
100
AcDbMText
 10
-1858.699841
 20
-1432.96537
 30
0.0
 40
3.5
 41
0.0
 71
     5
 72
     1
  1
\A1;43
 11
0.0
 21
1.0
 31
0.0
  0
POINT
  5
72C
100
AcDbEntity
  8
DEFPOINTS
  6
BYBLOCK
 62
     0
100
AcDbPoint
 10
-1826.008766
 20
-1411.46537
 30
0.0
  0
POINT
  5
72D
100
AcDbEntity
  8
DEFPOINTS
  6
BYBLOCK
 62
     0
100
AcDbPoint
 10
-1827.008766
 20
-1454.46537
 30
0.0
  0
POINT
  5
72E
100
AcDbEntity
  8
DEFPOINTS
  6
BYBLOCK
 62
     0
100
AcDbPoint
 10
-1856.324841
 20
-1454.46537
 30
0.0
  0
ENDBLK
  5
72F
100
AcDbEntity
  8
0
100
AcDbBlockEnd
  0
BLOCK
  5
719
100
AcDbEntity
  8
0
100
AcDbBlockBegin
  2
*D10
 70
    65
 10
0.0
 20
0.0
 30
0.0
  3
*D10
  1

  0
LINE
  5
71A
100
AcDbEntity
  8
0
  6
BYBLOCK
 62
     0
100
AcDbLine
 10
-1827.133766
 20
-1428.46537
 30
0.0
 11
-1845.665335
 21
-1428.46537
 31
0.0
  0
LINE
  5
71B
100
AcDbEntity
  8
0
  6
BYBLOCK
 62
     0
100
AcDbLine
 10
-1814.633766
 20
-1441.46537
 30
0.0
 11
-1845.665335
 21
-1441.46537
 31
0.0
  0
LINE
  5
71C
100
AcDbEntity
  8
0
  6
BYBLOCK
 62
     0
100
AcDbLine
 10
-1844.415335
 20
-1438.96537
 30
0.0
 11
-1844.415335
 21
-1430.96537
 31
0.0
  0
LINE
  5
71D
100
AcDbEntity
  8
0
  6
BYBLOCK
 62
     0
100
AcDbLine
 10
-1844.415335
 20
-1428.46537
 30
0.0
 11
-1844.415335
 21
-1414.57837
 31
0.0
  0
SOLID
  5
71E
100
AcDbEntity
  8
0
  6
BYBLOCK
 62
     0
100
AcDbTrace
 10
-1844.832001
 20
-1438.96537
 30
0.0
 11
-1843.998668
 21
-1438.96537
 31
0.0
 12
-1844.415335
 22
-1441.46537
 32
0.0
 13
-1844.415335
 23
-1441.46537
 33
0.0
  0
SOLID
  5
71F
100
AcDbEntity
  8
0
  6
BYBLOCK
 62
     0
100
AcDbTrace
 10
-1844.832001
 20
-1430.96537
 30
0.0
 11
-1843.998668
 21
-1430.96537
 31
0.0
 12
-1844.415335
 22
-1428.46537
 32
0.0
 13
-1844.415335
 23
-1428.46537
 33
0.0
  0
MTEXT
  5
720
100
AcDbEntity
  8
0
  6
BYBLOCK
 62
     0
100
AcDbMText
 10
-1848.237828
 20
-1421.20937
 30
0.0
 40
3.5
 41
0.0
 71
     5
 72
     1
  1
\A2;13{\H2.800000;\S+0.2^  0;}
 11
0.0
 21
1.0
 31
0.0
  0
POINT
  5
721
100
AcDbEntity
  8
DEFPOINTS
  6
BYBLOCK
 62
     0
100
AcDbPoint
 10
-1826.508766
 20
-1428.46537
 30
0.0
  0
POINT
  5
722
100
AcDbEntity
  8
DEFPOINTS
  6
BYBLOCK
 62
     0
100
AcDbPoint
 10
-1814.008766
 20
-1441.46537
 30
0.0
  0
POINT
  5
723
100
AcDbEntity
  8
DEFPOINTS
  6
BYBLOCK
 62
     0
100
AcDbPoint
 10
-1844.415335
 20
-1441.46537
 30
0.0
  0
ENDBLK
  5
724
100
AcDbEntity
  8
0
100
AcDbBlockEnd
  0
BLOCK
  5
74D
100
AcDbEntity
  8
0
100
AcDbBlockBegin
  2
*D11
 70
    65
 10
0.0
 20
0.0
 30
0.0
  3
*D11
  1

  0
LINE
  5
74E
100
AcDbEntity
  8
0
  6
BYBLOCK
 62
     0
100
AcDbLine
 10
-1823.508766
 20
-1427.84037
 30
0.0
 11
-1823.508766
 21
-1419.671671
 31
0.0
  0
LINE
  5
74F
100
AcDbEntity
  8
0
  6
BYBLOCK
 62
     0
100
AcDbLine
 10
-1827.008766
 20
-1422.127898
 30
0.0
 11
-1827.008766
 21
-1419.671671
 31
0.0
  0
LINE
  5
750
100
AcDbEntity
  8
0
  6
BYBLOCK
 62
     0
100
AcDbLine
 10
-1821.008766
 20
-1420.921671
 30
0.0
 11
-1818.508766
 21
-1420.921671
 31
0.0
  0
LINE
  5
751
100
AcDbEntity
  8
0
  6
BYBLOCK
 62
     0
100
AcDbLine
 10
-1829.508766
 20
-1420.921671
 30
0.0
 11
-1838.808238
 21
-1420.921671
 31
0.0
  0
SOLID
  5
752
100
AcDbEntity
  8
0
  6
BYBLOCK
 62
     0
100
AcDbTrace
 10
-1821.008766
 20
-1420.505004
 30
0.0
 11
-1821.008766
 21
-1421.338337
 31
0.0
 12
-1823.508766
 22
-1420.921671
 32
0.0
 13
-1823.508766
 23
-1420.921671
 33
0.0
  0
SOLID
  5
753
100
AcDbEntity
  8
0
  6
BYBLOCK
 62
     0
100
AcDbTrace
 10
-1829.508766
 20
-1420.505004
 30
0.0
 11
-1829.508766
 21
-1421.338337
 31
0.0
 12
-1827.008766
 22
-1420.921671
 32
0.0
 13
-1827.008766
 23
-1420.921671
 33
0.0
  0
MTEXT
  5
754
100
AcDbEntity
  8
0
  6
BYBLOCK
 62
     0
100
AcDbMText
 10
-1835.408502
 20
-1418.546671
 30
0.0
 40
3.5
 41
0.0
 71
     5
 72
     1
  1
\A1;3.5
  0
POINT
  5
755
100
AcDbEntity
  8
DEFPOINTS
  6
BYBLOCK
 62
     0
100
AcDbPoint
 10
-1823.508766
 20
-1428.46537
 30
0.0
  0
POINT
  5
756
100
AcDbEntity
  8
DEFPOINTS
  6
BYBLOCK
 62
     0
100
AcDbPoint
 10
-1827.008766
 20
-1422.752898
 30
0.0
  0
POINT
  5
757
100
AcDbEntity
  8
DEFPOINTS
  6
BYBLOCK
 62
     0
100
AcDbPoint
 10
-1827.008766
 20
-1420.921671
 30
0.0
  0
ENDBLK
  5
758
100
AcDbEntity
  8
0
100
AcDbBlockEnd
  0
BLOCK
  5
73F
100
AcDbEntity
  8
0
100
AcDbBlockBegin
  2
*D12
 70
    65
 10
0.0
 20
0.0
 30
0.0
  3
*D12
  1

  0
LINE
  5
740
100
AcDbEntity
  8
0
  6
BYBLOCK
 62
     0
100
AcDbLine
 10
-1827.133766
 20
-1428.46537
 30
0.0
 11
-1835.733329
 21
-1428.46537
 31
0.0
  0
LINE
  5
741
100
AcDbEntity
  8
0
  6
BYBLOCK
 62
     0
100
AcDbLine
 10
-1827.133766
 20
-1436.86537
 30
0.0
 11
-1835.733329
 21
-1436.86537
 31
0.0
  0
LINE
  5
742
100
AcDbEntity
  8
0
  6
BYBLOCK
 62
     0
100
AcDbLine
 10
-1834.483329
 20
-1425.96537
 30
0.0
 11
-1834.483329
 21
-1423.46537
 31
0.0
  0
LINE
  5
743
100
AcDbEntity
  8
0
  6
BYBLOCK
 62
     0
100
AcDbLine
 10
-1834.483329
 20
-1439.36537
 30
0.0
 11
-1834.483329
 21
-1441.86537
 31
0.0
  0
SOLID
  5
744
100
AcDbEntity
  8
0
  6
BYBLOCK
 62
     0
100
AcDbTrace
 10
-1834.899996
 20
-1425.96537
 30
0.0
 11
-1834.066663
 21
-1425.96537
 31
0.0
 12
-1834.483329
 22
-1428.46537
 32
0.0
 13
-1834.483329
 23
-1428.46537
 33
0.0
  0
SOLID
  5
745
100
AcDbEntity
  8
0
  6
BYBLOCK
 62
     0
100
AcDbTrace
 10
-1834.899996
 20
-1439.36537
 30
0.0
 11
-1834.066663
 21
-1439.36537
 31
0.0
 12
-1834.483329
 22
-1436.86537
 32
0.0
 13
-1834.483329
 23
-1436.86537
 33
0.0
  0
MTEXT
  5
746
100
AcDbEntity
  8
0
  6
BYBLOCK
 62
     0
100
AcDbMText
 10
-1836.858329
 20
-1432.66537
 30
0.0
 40
3.5
 41
0.0
 71
     5
 72
     1
  1
\A1;8.4
 11
0.0
 21
1.0
 31
0.0
  0
POINT
  5
747
100
AcDbEntity
  8
DEFPOINTS
  6
BYBLOCK
 62
     0
100
AcDbPoint
 10
-1826.508766
 20
-1428.46537
 30
0.0
  0
POINT
  5
748
100
AcDbEntity
  8
DEFPOINTS
  6
BYBLOCK
 62
     0
100
AcDbPoint
 10
-1826.508766
 20
-1436.86537
 30
0.0
  0
POINT
  5
749
100
AcDbEntity
  8
DEFPOINTS
  6
BYBLOCK
 62
     0
100
AcDbPoint
 10
-1834.483329
 20
-1436.86537
 30
0.0
  0
ENDBLK
  5
74A
100
AcDbEntity
  8
0
100
AcDbBlockEnd
  0
BLOCK
  5
788
100
AcDbEntity
  8
0
100
AcDbBlockBegin
  2
*D13
 70
    65
 10
0.0
 20
0.0
 30
0.0
  3
*D13
  1

  0
LINE
  5
789
100
AcDbEntity
  8
0
  6
BYBLOCK
 62
     0
100
AcDbLine
 10
-1800.008766
 20
-1441.84037
 30
0.0
 11
-1800.008766
 21
-1384.646684
 31
0.0
  0
LINE
  5
78A
100
AcDbEntity
  8
0
  6
BYBLOCK
 62
     0
100
AcDbLine
 10
-1827.008766
 20
-1411.84037
 30
0.0
 11
-1827.008766
 21
-1384.646684
 31
0.0
  0
LINE
  5
78B
100
AcDbEntity
  8
0
  6
BYBLOCK
 62
     0
100
AcDbLine
 10
-1802.508766
 20
-1385.896684
 30
0.0
 11
-1824.508766
 21
-1385.896684
 31
0.0
  0
SOLID
  5
78C
100
AcDbEntity
  8
0
  6
BYBLOCK
 62
     0
100
AcDbTrace
 10
-1802.508766
 20
-1385.480017
 30
0.0
 11
-1802.508766
 21
-1386.313351
 31
0.0
 12
-1800.008766
 22
-1385.896684
 32
0.0
 13
-1800.008766
 23
-1385.896684
 33
0.0
  0
SOLID
  5
78D
100
AcDbEntity
  8
0
  6
BYBLOCK
 62
     0
100
AcDbTrace
 10
-1824.508766
 20
-1385.480017
 30
0.0
 11
-1824.508766
 21
-1386.313351
 31
0.0
 12
-1827.008766
 22
-1385.896684
 32
0.0
 13
-1827.008766
 23
-1385.896684
 33
0.0
  0
MTEXT
  5
78E
100
AcDbEntity
  8
0
  6
BYBLOCK
 62
     0
100
AcDbMText
 10
-1813.508766
 20
-1383.521684
 30
0.0
 40
3.5
 41
0.0
 71
     5
 72
     1
  1
\A2;27{\H2.800000;±0.05}
  0
POINT
  5
78F
100
AcDbEntity
  8
DEFPOINTS
  6
BYBLOCK
 62
     0
100
AcDbPoint
 10
-1800.008766
 20
-1442.46537
 30
0.0
  0
POINT
  5
790
100
AcDbEntity
  8
DEFPOINTS
  6
BYBLOCK
 62
     0
100
AcDbPoint
 10
-1827.008766
 20
-1412.46537
 30
0.0
  0
POINT
  5
791
100
AcDbEntity
  8
DEFPOINTS
  6
BYBLOCK
 62
     0
100
AcDbPoint
 10
-1827.008766
 20
-1385.896684
 30
0.0
  0
ENDBLK
  5
792
100
AcDbEntity
  8
0
100
AcDbBlockEnd
  0
BLOCK
  5
7A1
100
AcDbEntity
  8
0
100
AcDbBlockBegin
  2
*D14
 70
    65
 10
0.0
 20
0.0
 30
0.0
  3
*D14
  1

  0
LINE
  5
7A2
100
AcDbEntity
  8
0
  6
BYBLOCK
 62
     0
100
AcDbLine
 10
-1814.008766
 20
-1411.84037
 30
0.0
 11
-1814.008766
 21
-1399.455482
 31
0.0
  0
LINE
  5
7A3
100
AcDbEntity
  8
0
  6
BYBLOCK
 62
     0
100
AcDbLine
 10
-1827.008766
 20
-1411.84037
 30
0.0
 11
-1827.008766
 21
-1399.455482
 31
0.0
  0
LINE
  5
7A4
100
AcDbEntity
  8
0
  6
BYBLOCK
 62
     0
100
AcDbLine
 10
-1816.508766
 20
-1400.705482
 30
0.0
 11
-1824.508766
 21
-1400.705482
 31
0.0
  0
LINE
  5
7A5
100
AcDbEntity
  8
0
  6
BYBLOCK
 62
     0
100
AcDbLine
 10
-1827.008766
 20
-1400.705482
 30
0.0
 11
-1844.926766
 21
-1400.705482
 31
0.0
  0
SOLID
  5
7A6
100
AcDbEntity
  8
0
  6
BYBLOCK
 62
     0
100
AcDbTrace
 10
-1816.508766
 20
-1400.288815
 30
0.0
 11
-1816.508766
 21
-1401.122149
 31
0.0
 12
-1814.008766
 22
-1400.705482
 32
0.0
 13
-1814.008766
 23
-1400.705482
 33
0.0
  0
SOLID
  5
7A7
100
AcDbEntity
  8
0
  6
BYBLOCK
 62
     0
100
AcDbTrace
 10
-1824.508766
 20
-1400.288815
 30
0.0
 11
-1824.508766
 21
-1401.122149
 31
0.0
 12
-1827.008766
 22
-1400.705482
 32
0.0
 13
-1827.008766
 23
-1400.705482
 33
0.0
  0
MTEXT
  5
7A8
100
AcDbEntity
  8
0
  6
BYBLOCK
 62
     0
100
AcDbMText
 10
-1837.217766
 20
-1396.882989
 30
0.0
 40
3.5
 41
0.0
 71
     5
 72
     1
  1
\A2;13{\H2.800000;\S+0.02^  0;}
  0
POINT
  5
7A9
100
AcDbEntity
  8
DEFPOINTS
  6
BYBLOCK
 62
     0
100
AcDbPoint
 10
-1814.008766
 20
-1412.46537
 30
0.0
  0
POINT
  5
7AA
100
AcDbEntity
  8
DEFPOINTS
  6
BYBLOCK
 62
     0
100
AcDbPoint
 10
-1827.008766
 20
-1412.46537
 30
0.0
  0
POINT
  5
7AB
100
AcDbEntity
  8
DEFPOINTS
  6
BYBLOCK
 62
     0
100
AcDbPoint
 10
-1827.008766
 20
-1400.705482
 30
0.0
  0
ENDBLK
  5
7AC
100
AcDbEntity
  8
0
100
AcDbBlockEnd
  0
BLOCK
  5
7C7
100
AcDbEntity
  8
0
100
AcDbBlockBegin
  2
*D15
 70
    65
 10
0.0
 20
0.0
 30
0.0
  3
*D15
  1

  0
LINE
  5
7C8
100
AcDbEntity
  8
0
  6
BYBLOCK
 62
     0
100
AcDbLine
 10
-1814.008766
 20
-1411.84037
 30
0.0
 11
-1814.008766
 21
-1399.455482
 31
0.0
  0
LINE
  5
7C9
100
AcDbEntity
  8
0
  6
BYBLOCK
 62
     0
100
AcDbLine
 10
-1807.008766
 20
-1403.509899
 30
0.0
 11
-1807.008766
 21
-1399.455482
 31
0.0
  0
LINE
  5
7CA
100
AcDbEntity
  8
0
  6
BYBLOCK
 62
     0
100
AcDbLine
 10
-1811.508766
 20
-1400.705482
 30
0.0
 11
-1809.508766
 21
-1400.705482
 31
0.0
  0
LINE
  5
7CB
100
AcDbEntity
  8
0
  6
BYBLOCK
 62
     0
100
AcDbLine
 10
-1807.008766
 20
-1400.705482
 30
0.0
 11
-1785.761125
 21
-1400.705482
 31
0.0
  0
SOLID
  5
7CC
100
AcDbEntity
  8
0
  6
BYBLOCK
 62
     0
100
AcDbTrace
 10
-1811.508766
 20
-1400.288815
 30
0.0
 11
-1811.508766
 21
-1401.122149
 31
0.0
 12
-1814.008766
 22
-1400.705482
 32
0.0
 13
-1814.008766
 23
-1400.705482
 33
0.0
  0
SOLID
  5
7CD
100
AcDbEntity
  8
0
  6
BYBLOCK
 62
     0
100
AcDbTrace
 10
-1809.508766
 20
-1400.288815
 30
0.0
 11
-1809.508766
 21
-1401.122149
 31
0.0
 12
-1807.008766
 22
-1400.705482
 32
0.0
 13
-1807.008766
 23
-1400.705482
 33
0.0
  0
MTEXT
  5
7CE
100
AcDbEntity
  8
0
  6
BYBLOCK
 62
     0
100
AcDbMText
 10
-1791.737625
 20
-1398.330482
 30
0.0
 40
3.5
 41
0.0
 71
     5
 72
     1
  1
\A2;7{\H2.800000;±0.01}
  0
POINT
  5
7CF
100
AcDbEntity
  8
DEFPOINTS
  6
BYBLOCK
 62
     0
100
AcDbPoint
 10
-1814.008766
 20
-1412.46537
 30
0.0
  0
POINT
  5
7D0
100
AcDbEntity
  8
DEFPOINTS
  6
BYBLOCK
 62
     0
100
AcDbPoint
 10
-1807.008766
 20
-1404.134899
 30
0.0
  0
POINT
  5
7D1
100
AcDbEntity
  8
DEFPOINTS
  6
BYBLOCK
 62
     0
100
AcDbPoint
 10
-1807.008766
 20
-1400.705482
 30
0.0
  0
ENDBLK
  5
7D2
100
AcDbEntity
  8
0
100
AcDbBlockEnd
  0
BLOCK
  5
7D5
100
AcDbEntity
  8
0
100
AcDbBlockBegin
  2
*D16
 70
    65
 10
0.0
 20
0.0
 30
0.0
  3
*D16
  1

  0
ARC
  5
7D6
100
AcDbEntity
  8
0
  6
BYBLOCK
 62
     0
100
AcDbCircle
 10
-1810.008766
 20
-1471.46537
 30
0.0
 40
12.250379
100
AcDbArc
 50
146.71304
 51
258.28696
  0
SOLID
  5
7D7
100
AcDbEntity
  8
0
  6
BYBLOCK
 62
     0
100
AcDbTrace
 10
-1820.572407
 20
-1464.478935
 30
0.0
 11
-1819.926101
 21
-1465.004989
 31
0.0
 12
-1818.671092
 22
-1462.803043
 32
0.0
 13
-1818.671092
 23
-1462.803043
 33
0.0
  0
SOLID
  5
7D8
100
AcDbEntity
  8
0
  6
BYBLOCK
 62
     0
100
AcDbTrace
 10
-1812.453202
 20
-1483.046163
 30
0.0
 11
-1812.538233
 21
-1483.875147
 31
0.0
 12
-1810.008766
 22
-1483.715749
 32
0.0
 13
-1810.008766
 23
-1483.715749
 33
0.0
  0
MTEXT
  5
7D9
100
AcDbEntity
  8
0
  6
BYBLOCK
 62
     0
100
AcDbMText
 10
-1819.132427
 20
-1475.244514
 30
0.0
 40
3.5
 41
0.0
 71
     5
 72
     1
  1
\A1;135°
 11
0.382683
 21
-0.92388
 31
0.0
  0
POINT
  5
7DA
100
AcDbEntity
  8
DEFPOINTS
  6
BYBLOCK
 62
     0
100
AcDbPoint
 10
-1822.259146
 20
-1471.46537
 30
0.0
  0
POINT
  5
7DB
100
AcDbEntity
  8
DEFPOINTS
  6
BYBLOCK
 62
     0
100
AcDbPoint
 10
-1827.008766
 20
-1454.46537
 30
0.0
  0
POINT
  5
7DC
100
AcDbEntity
  8
DEFPOINTS
  6
BYBLOCK
 62
     0
100
AcDbPoint
 10
-1810.008766
 20
-1471.46537
 30
0.0
  0
POINT
  5
7DD
100
AcDbEntity
  8
DEFPOINTS
  6
BYBLOCK
 62
     0
100
AcDbPoint
 10
-1810.008766
 20
-1548.227271
 30
0.0
  0
POINT
  5
7DE
100
AcDbEntity
  8
DEFPOINTS
  6
BYBLOCK
 62
     0
100
AcDbPoint
 10
-1810.008766
 20
-1471.46537
 30
0.0
  0
ENDBLK
  5
7DF
100
AcDbEntity
  8
0
100
AcDbBlockEnd
  0
BLOCK
  5
7E2
100
AcDbEntity
  8
0
100
AcDbBlockBegin
  2
*D17
 70
    65
 10
0.0
 20
0.0
 30
0.0
  3
*D17
  1

  0
LINE
  5
7E3
100
AcDbEntity
  8
0
  6
BYBLOCK
 62
     0
100
AcDbLine
 10
-1807.14936
 20
-1561.83068
 30
0.0
 11
-1813.856325
 21
-1590.881737
 31
0.0
  0
LINE
  5
7E4
100
AcDbEntity
  8
0
  6
BYBLOCK
 62
     0
100
AcDbLine
 10
-1806.868172
 20
-1561.83068
 30
0.0
 11
-1800.161207
 21
-1590.881737
 31
0.0
  0
ARC
  5
7E5
100
AcDbEntity
  8
0
  6
BYBLOCK
 62
     0
100
AcDbCircle
 10
-1807.008766
 20
-1561.221699
 30
0.0
 40
29.190219
100
AcDbArc
 50
261.908605
 51
278.091395
  0
SOLID
  5
7E6
100
AcDbEntity
  8
0
  6
BYBLOCK
 62
     0
100
AcDbTrace
 10
-1811.193622
 20
-1590.530952
 30
0.0
 11
-1811.041105
 21
-1589.711695
 31
0.0
 12
-1813.575137
 22
-1589.663774
 32
0.0
 13
-1813.575137
 23
-1589.663774
 33
0.0
  0
SOLID
  5
7E7
100
AcDbEntity
  8
0
  6
BYBLOCK
 62
     0
100
AcDbTrace
 10
-1802.976427
 20
-1589.711695
 30
0.0
 11
-1802.823911
 21
-1590.530952
 31
0.0
 12
-1800.442396
 22
-1589.663774
 32
0.0
 13
-1800.442396
 23
-1589.663774
 33
0.0
  0
MTEXT
  5
7E8
100
AcDbEntity
  8
0
  6
BYBLOCK
 62
     0
100
AcDbMText
 10
-1807.008766
 20
-1588.036918
 30
0.0
 40
3.5
 41
0.0
 71
     5
 72
     1
  1
\A1;26°
  0
POINT
  5
7E9
100
AcDbEntity
  8
DEFPOINTS
  6
BYBLOCK
 62
     0
100
AcDbPoint
 10
-1809.214346
 20
-1590.328473
 30
0.0
  0
POINT
  5
7EA
100
AcDbEntity
  8
DEFPOINTS
  6
BYBLOCK
 62
     0
100
AcDbPoint
 10
-1807.788262
 20
-1557.84533
 30
0.0
  0
POINT
  5
7EB
100
AcDbEntity
  8
DEFPOINTS
  6
BYBLOCK
 62
     0
100
AcDbPoint
 10
-1806.22927
 20
-1557.84533
 30
0.0
  0
POINT
  5
7EC
100
AcDbEntity
  8
DEFPOINTS
  6
BYBLOCK
 62
     0
100
AcDbPoint
 10
-1804.008766
 20
-1548.227271
 30
0.0
  0
POINT
  5
7ED
100
AcDbEntity
  8
DEFPOINTS
  6
BYBLOCK
 62
     0
100
AcDbPoint
 10
-1810.008766
 20
-1548.227271
 30
0.0
  0
ENDBLK
  5
7EE
100
AcDbEntity
  8
0
100
AcDbBlockEnd
  0
BLOCK
  5
7F2
100
AcDbEntity
  8
0
100
AcDbBlockBegin
  2
*D18
 70
    65
 10
0.0
 20
0.0
 30
0.0
  3
*D18
  1

  0
LINE
  5
7F3
100
AcDbEntity
  8
0
  6
BYBLOCK
 62
     0
100
AcDbLine
 10
-1805.393737
 20
-1560.543161
 30
0.0
 11
-1799.413236
 21
-1571.199708
 31
0.0
  0
SOLID
  5
7F4
100
AcDbEntity
  8
0
  6
BYBLOCK
 62
     0
100
AcDbTrace
 10
-1805.03038
 20
-1560.339243
 30
0.0
 11
-1805.757095
 21
-1560.747079
 31
0.0
 12
-1806.617244
 22
-1558.363016
 32
0.0
 13
-1806.617244
 23
-1558.363016
 33
0.0
  0
MTEXT
  5
7F5
100
AcDbEntity
  8
0
  6
BYBLOCK
 62
     0
100
AcDbMText
 10
-1799.720596
 20
-1565.799176
 30
0.0
 40
3.5
 41
0.0
 71
     5
 72
     1
  1
\A1;R0.8
 11
0.489403
 21
-0.872058
 31
0.0
  0
POINT
  5
7F6
100
AcDbEntity
  8
DEFPOINTS
  6
BYBLOCK
 62
     0
100
AcDbPoint
 10
-1806.617244
 20
-1558.363016
 30
0.0
  0
POINT
  5
7F7
100
AcDbEntity
  8
DEFPOINTS
  6
BYBLOCK
 62
     0
100
AcDbPoint
 10
-1807.008766
 20
-1557.66537
 30
0.0
  0
ENDBLK
  5
7F8
100
AcDbEntity
  8
0
100
AcDbBlockEnd
  0
BLOCK
  5
814
100
AcDbEntity
  8
0
100
AcDbBlockBegin
  2
*D19
 70
    65
 10
0.0
 20
0.0
 30
0.0
  3
*D19
  1

  0
LINE
  5
815
100
AcDbEntity
  8
0
  6
BYBLOCK
 62
     0
100
AcDbLine
 10
-1804.008766
 20
-1516.388491
 30
0.0
 11
-1804.008766
 21
-1517.166093
 31
0.0
  0
LINE
  5
816
100
AcDbEntity
  8
0
  6
BYBLOCK
 62
     0
100
AcDbLine
 10
-1810.008766
 20
-1516.235888
 30
0.0
 11
-1810.008766
 21
-1517.166093
 31
0.0
  0
LINE
  5
817
100
AcDbEntity
  8
0
  6
BYBLOCK
 62
     0
100
AcDbLine
 10
-1801.508766
 20
-1515.916093
 30
0.0
 11
-1799.008766
 21
-1515.916093
 31
0.0
  0
LINE
  5
818
100
AcDbEntity
  8
0
  6
BYBLOCK
 62
     0
100
AcDbLine
 10
-1812.508766
 20
-1515.916093
 30
0.0
 11
-1827.705344
 21
-1515.916093
 31
0.0
  0
SOLID
  5
819
100
AcDbEntity
  8
0
  6
BYBLOCK
 62
     0
100
AcDbTrace
 10
-1801.508766
 20
-1515.499427
 30
0.0
 11
-1801.508766
 21
-1516.33276
 31
0.0
 12
-1804.008766
 22
-1515.916093
 32
0.0
 13
-1804.008766
 23
-1515.916093
 33
0.0
  0
SOLID
  5
81A
100
AcDbEntity
  8
0
  6
BYBLOCK
 62
     0
100
AcDbTrace
 10
-1812.508766
 20
-1515.499427
 30
0.0
 11
-1812.508766
 21
-1516.33276
 31
0.0
 12
-1810.008766
 22
-1515.916093
 32
0.0
 13
-1810.008766
 23
-1515.916093
 33
0.0
  0
MTEXT
  5
81B
100
AcDbEntity
  8
0
  6
BYBLOCK
 62
     0
100
AcDbMText
 10
-1821.357055
 20
-1513.541093
 30
0.0
 40
3.5
 41
0.0
 71
     5
 72
     1
  1
\A2;6{\H2.800000;±0.05}
  0
POINT
  5
81C
100
AcDbEntity
  8
DEFPOINTS
  6
BYBLOCK
 62
     0
100
AcDbPoint
 10
-1804.008766
 20
-1515.763491
 30
0.0
  0
POINT
  5
81D
100
AcDbEntity
  8
DEFPOINTS
  6
BYBLOCK
 62
     0
100
AcDbPoint
 10
-1810.008766
 20
-1515.610888
 30
0.0
  0
POINT
  5
81E
100
AcDbEntity
  8
DEFPOINTS
  6
BYBLOCK
 62
     0
100
AcDbPoint
 10
-1810.008766
 20
-1515.916093
 30
0.0
  0
ENDBLK
  5
81F
100
AcDbEntity
  8
0
100
AcDbBlockEnd
  0
BLOCK
  5
865
100
AcDbEntity
  8
0
100
AcDbBlockBegin
  2
*X20
 70
    65
 10
0.0
 20
0.0
 30
0.0
  3
*X20
  1

  0
LINE
  5
867
100
AcDbEntity
  8
0
 62
     0
100
AcDbLine
 10
-1808.053561
 20
-1556.696193
 30
0.0
 11
-1807.008766
 21
-1555.651397
 31
0.0
  0
LINE
  5
868
100
AcDbEntity
  8
0
 62
     0
100
AcDbLine
 10
-1807.008766
 20
-1555.651397
 30
0.0
 11
-1805.336744
 21
-1553.979375
 31
0.0
  0
LINE
  5
869
100
AcDbEntity
  8
0
 62
     0
100
AcDbLine
 10
-1808.104093
 20
-1556.477317
 30
0.0
 11
-1807.008766
 21
-1555.38199
 31
0.0
  0
LINE
  5
86A
100
AcDbEntity
  8
0
 62
     0
100
AcDbLine
 10
-1807.008766
 20
-1555.38199
 30
0.0
 11
-1805.255877
 21
-1553.6291
 31
0.0
  0
LINE
  5
86B
100
AcDbEntity
  8
0
 62
     0
100
AcDbLine
 10
-1808.154625
 20
-1556.25844
 30
0.0
 11
-1807.008766
 21
-1555.112582
 31
0.0
  0
LINE
  5
86C
100
AcDbEntity
  8
0
 62
     0
100
AcDbLine
 10
-1805.361929
 20
-1553.465745
 30
0.0
 11
-1805.175009
 21
-1553.278825
 31
0.0
  0
LINE
  5
86D
100
AcDbEntity
  8
0
 62
     0
100
AcDbLine
 10
-1807.008766
 20
-1555.112582
 30
0.0
 11
-1805.873897
 21
-1553.977713
 31
0.0
  0
LINE
  5
86E
100
AcDbEntity
  8
0
 62
     0
100
AcDbLine
 10
-1808.205156
 20
-1556.039564
 30
0.0
 11
-1807.008766
 21
-1554.843174
 31
0.0
  0
LINE
  5
86F
100
AcDbEntity
  8
0
 62
     0
100
AcDbLine
 10
-1805.102933
 20
-1552.937341
 30
0.0
 11
-1805.094142
 21
-1552.92855
 31
0.0
  0
LINE
  5
870
100
AcDbEntity
  8
0
 62
     0
100
AcDbLine
 10
-1807.008766
 20
-1554.843174
 30
0.0
 11
-1806.402301
 21
-1554.236709
 31
0.0
  0
LINE
  5
871
100
AcDbEntity
  8
0
 62
     0
100
AcDbLine
 10
-1808.255688
 20
-1555.820688
 30
0.0
 11
-1807.008766
 21
-1554.573767
 31
0.0
  0
LINE
  5
872
100
AcDbEntity
  8
0
 62
     0
100
AcDbLine
 10
-1807.008766
 20
-1554.573767
 30
0.0
 11
-1806.748924
 21
-1554.313925
 31
0.0
  0
LINE
  5
873
100
AcDbEntity
  8
0
 62
     0
100
AcDbLine
 10
-1808.306219
 20
-1555.601812
 30
0.0
 11
-1807.03511
 21
-1554.330702
 31
0.0
  0
LINE
  5
874
100
AcDbEntity
  8
0
 62
     0
100
AcDbLine
 10
-1808.356751
 20
-1555.382936
 30
0.0
 11
-1807.285459
 21
-1554.311644
 31
0.0
  0
LINE
  5
875
100
AcDbEntity
  8
0
 62
     0
100
AcDbLine
 10
-1808.407282
 20
-1555.16406
 30
0.0
 11
-1807.510215
 21
-1554.266993
 31
0.0
  0
LINE
  5
876
100
AcDbEntity
  8
0
 62
     0
100
AcDbLine
 10
-1808.457814
 20
-1554.945184
 30
0.0
 11
-1807.714756
 21
-1554.202126
 31
0.0
  0
LINE
  5
877
100
AcDbEntity
  8
0
 62
     0
100
AcDbLine
 10
-1808.508345
 20
-1554.726307
 30
0.0
 11
-1807.902243
 21
-1554.120205
 31
0.0
  0
LINE
  5
878
100
AcDbEntity
  8
0
 62
     0
100
AcDbLine
 10
-1808.558877
 20
-1554.507431
 30
0.0
 11
-1808.074635
 21
-1554.023189
 31
0.0
  0
LINE
  5
879
100
AcDbEntity
  8
0
 62
     0
100
AcDbLine
 10
-1808.609408
 20
-1554.288555
 30
0.0
 11
-1808.233149
 21
-1553.912295
 31
0.0
  0
LINE
  5
87A
100
AcDbEntity
  8
0
 62
     0
100
AcDbLine
 10
-1808.65994
 20
-1554.069679
 30
0.0
 11
-1808.378486
 21
-1553.788225
 31
0.0
  0
LINE
  5
87B
100
AcDbEntity
  8
0
 62
     0
100
AcDbLine
 10
-1808.710472
 20
-1553.850803
 30
0.0
 11
-1808.510945
 21
-1553.651276
 31
0.0
  0
LINE
  5
87C
100
AcDbEntity
  8
0
 62
     0
100
AcDbLine
 10
-1808.761003
 20
-1553.631927
 30
0.0
 11
-1808.630464
 21
-1553.501387
 31
0.0
  0
LINE
  5
87D
100
AcDbEntity
  8
0
 62
     0
100
AcDbLine
 10
-1808.811535
 20
-1553.413051
 30
0.0
 11
-1808.73661
 21
-1553.338126
 31
0.0
  0
LINE
  5
87E
100
AcDbEntity
  8
0
 62
     0
100
AcDbLine
 10
-1808.862066
 20
-1553.194174
 30
0.0
 11
-1808.828521
 21
-1553.160629
 31
0.0
  0
LINE
  5
87F
100
AcDbEntity
  8
0
 62
     0
100
AcDbLine
 10
-1808.912598
 20
-1552.975298
 30
0.0
 11
-1808.904753
 21
-1552.967454
 31
0.0
  0
LINE
  5
880
100
AcDbEntity
  8
0
 62
     0
100
AcDbLine
 10
-1808.00303
 20
-1556.915069
 30
0.0
 11
-1807.008766
 21
-1555.920805
 31
0.0
  0
LINE
  5
881
100
AcDbEntity
  8
0
 62
     0
100
AcDbLine
 10
-1807.008766
 20
-1555.920805
 30
0.0
 11
-1805.417611
 21
-1554.32965
 31
0.0
  0
LINE
  5
882
100
AcDbEntity
  8
0
 62
     0
100
AcDbLine
 10
-1807.952498
 20
-1557.133945
 30
0.0
 11
-1807.008766
 21
-1556.190213
 31
0.0
  0
LINE
  5
883
100
AcDbEntity
  8
0
 62
     0
100
AcDbLine
 10
-1807.008766
 20
-1556.190213
 30
0.0
 11
-1805.498479
 21
-1554.679925
 31
0.0
  0
LINE
  5
884
100
AcDbEntity
  8
0
 62
     0
100
AcDbLine
 10
-1807.901967
 20
-1557.352821
 30
0.0
 11
-1807.008766
 21
-1556.45962
 31
0.0
  0
LINE
  5
885
100
AcDbEntity
  8
0
 62
     0
100
AcDbLine
 10
-1807.008766
 20
-1556.45962
 30
0.0
 11
-1805.579346
 21
-1555.0302
 31
0.0
  0
LINE
  5
886
100
AcDbEntity
  8
0
 62
     0
100
AcDbLine
 10
-1807.851435
 20
-1557.571697
 30
0.0
 11
-1807.008766
 21
-1556.729028
 31
0.0
  0
LINE
  5
887
100
AcDbEntity
  8
0
 62
     0
100
AcDbLine
 10
-1807.008766
 20
-1556.729028
 30
0.0
 11
-1805.660213
 21
-1555.380475
 31
0.0
  0
LINE
  5
888
100
AcDbEntity
  8
0
 62
     0
100
AcDbLine
 10
-1807.800904
 20
-1557.790573
 30
0.0
 11
-1807.008766
 21
-1556.998436
 31
0.0
  0
LINE
  5
889
100
AcDbEntity
  8
0
 62
     0
100
AcDbLine
 10
-1807.008766
 20
-1556.998436
 30
0.0
 11
-1805.741081
 21
-1555.73075
 31
0.0
  0
LINE
  5
88A
100
AcDbEntity
  8
0
 62
     0
100
AcDbLine
 10
-1807.737145
 20
-1557.996223
 30
0.0
 11
-1807.008766
 21
-1557.267843
 31
0.0
  0
LINE
  5
88B
100
AcDbEntity
  8
0
 62
     0
100
AcDbLine
 10
-1807.008766
 20
-1557.267843
 30
0.0
 11
-1805.821948
 21
-1556.081025
 31
0.0
  0
LINE
  5
88C
100
AcDbEntity
  8
0
 62
     0
100
AcDbLine
 10
-1807.634872
 20
-1558.163357
 30
0.0
 11
-1807.008766
 21
-1557.537251
 31
0.0
  0
LINE
  5
88D
100
AcDbEntity
  8
0
 62
     0
100
AcDbLine
 10
-1807.008766
 20
-1557.537251
 30
0.0
 11
-1805.902815
 21
-1556.4313
 31
0.0
  0
LINE
  5
88E
100
AcDbEntity
  8
0
 62
     0
100
AcDbLine
 10
-1807.499378
 20
-1558.297271
 30
0.0
 11
-1807.008766
 21
-1557.806659
 31
0.0
  0
LINE
  5
88F
100
AcDbEntity
  8
0
 62
     0
100
AcDbLine
 10
-1807.008766
 20
-1557.806659
 30
0.0
 11
-1805.983683
 21
-1556.781575
 31
0.0
  0
LINE
  5
890
100
AcDbEntity
  8
0
 62
     0
100
AcDbLine
 10
-1807.330515
 20
-1558.397816
 30
0.0
 11
-1807.008766
 21
-1558.076066
 31
0.0
  0
LINE
  5
891
100
AcDbEntity
  8
0
 62
     0
100
AcDbLine
 10
-1807.008766
 20
-1558.076066
 30
0.0
 11
-1806.06455
 21
-1557.131851
 31
0.0
  0
LINE
  5
892
100
AcDbEntity
  8
0
 62
     0
100
AcDbLine
 10
-1807.120781
 20
-1558.457489
 30
0.0
 11
-1807.008766
 21
-1558.345474
 31
0.0
  0
LINE
  5
893
100
AcDbEntity
  8
0
 62
     0
100
AcDbLine
 10
-1807.008766
 20
-1558.345474
 30
0.0
 11
-1806.145418
 21
-1557.482126
 31
0.0
  0
LINE
  5
894
100
AcDbEntity
  8
0
 62
     0
100
AcDbLine
 10
-1806.841592
 20
-1558.447708
 30
0.0
 11
-1806.226285
 21
-1557.832401
 31
0.0
  0
ENDBLK
  5
895
100
AcDbEntity
  8
0
100
AcDbBlockEnd
  0
BLOCK
  5
8EE
100
AcDbEntity
  8
0
100
AcDbBlockBegin
  2
*D21
 70
    65
 10
0.0
 20
0.0
 30
0.0
  3
*D21
  1

  0
LINE
  5
8EF
100
AcDbEntity
  8
0
  6
BYBLOCK
 62
     0
100
AcDbLine
 10
-1911.652635
 20
-1501.464093
 30
0.0
 11
-1911.652635
 21
-1493.828482
 31
0.0
  0
LINE
  5
8F0
100
AcDbEntity
  8
0
  6
BYBLOCK
 62
     0
100
AcDbLine
 10
-1901.652635
 20
-1510.964093
 30
0.0
 11
-1901.652635
 21
-1493.828482
 31
0.0
  0
LINE
  5
8F1
100
AcDbEntity
  8
0
  6
BYBLOCK
 62
     0
100
AcDbLine
 10
-1914.152635
 20
-1495.078482
 30
0.0
 11
-1916.652635
 21
-1495.078482
 31
0.0
  0
LINE
  5
8F2
100
AcDbEntity
  8
0
  6
BYBLOCK
 62
     0
100
AcDbLine
 10
-1899.152635
 20
-1495.078482
 30
0.0
 11
-1896.652635
 21
-1495.078482
 31
0.0
  0
SOLID
  5
8F3
100
AcDbEntity
  8
0
  6
BYBLOCK
 62
     0
100
AcDbTrace
 10
-1914.152635
 20
-1494.661816
 30
0.0
 11
-1914.152635
 21
-1495.495149
 31
0.0
 12
-1911.652635
 22
-1495.078482
 32
0.0
 13
-1911.652635
 23
-1495.078482
 33
0.0
  0
SOLID
  5
8F4
100
AcDbEntity
  8
0
  6
BYBLOCK
 62
     0
100
AcDbTrace
 10
-1899.152635
 20
-1494.661816
 30
0.0
 11
-1899.152635
 21
-1495.495149
 31
0.0
 12
-1901.652635
 22
-1495.078482
 32
0.0
 13
-1901.652635
 23
-1495.078482
 33
0.0
  0
MTEXT
  5
8F5
100
AcDbEntity
  8
0
  6
BYBLOCK
 62
     0
100
AcDbMText
 10
-1906.652635
 20
-1492.703482
 30
0.0
 40
3.5
 41
0.0
 71
     5
 72
     1
  1
\A1;{50}
  0
POINT
  5
8F6
100
AcDbEntity
  8
DEFPOINTS
  6
BYBLOCK
 62
     0
100
AcDbPoint
 10
-1911.652635
 20
-1502.089093
 30
0.0
  0
POINT
  5
8F7
100
AcDbEntity
  8
DEFPOINTS
  6
BYBLOCK
 62
     0
100
AcDbPoint
 10
-1901.652635
 20
-1511.589093
 30
0.0
  0
POINT
  5
8F8
100
AcDbEntity
  8
DEFPOINTS
  6
BYBLOCK
 62
     0
100
AcDbPoint
 10
-1901.652635
 20
-1495.078482
 30
0.0
  0
ENDBLK
  5
8F9
100
AcDbEntity
  8
0
100
AcDbBlockEnd
  0
BLOCK
  5
946
100
AcDbEntity
  8
0
100
AcDbBlockBegin
  2
*D22
 70
    65
 10
0.0
 20
0.0
 30
0.0
  3
*D22
  1

  0
LINE
  5
947
100
AcDbEntity
  8
0
  6
BYBLOCK
 62
     0
100
AcDbLine
 10
-1912.277635
 20
-1510.089093
 30
0.0
 11
-1918.39237
 21
-1510.089093
 31
0.0
  0
LINE
  5
948
100
AcDbEntity
  8
0
  6
BYBLOCK
 62
     0
100
AcDbLine
 10
-1902.277635
 20
-1511.589093
 30
0.0
 11
-1918.39237
 21
-1511.589093
 31
0.0
  0
LINE
  5
949
100
AcDbEntity
  8
0
  6
BYBLOCK
 62
     0
100
AcDbLine
 10
-1917.14237
 20
-1514.089093
 30
0.0
 11
-1917.14237
 21
-1516.589093
 31
0.0
  0
LINE
  5
94A
100
AcDbEntity
  8
0
  6
BYBLOCK
 62
     0
100
AcDbLine
 10
-1917.14237
 20
-1507.589093
 30
0.0
 11
-1917.14237
 21
-1504.174093
 31
0.0
  0
SOLID
  5
94B
100
AcDbEntity
  8
0
  6
BYBLOCK
 62
     0
100
AcDbTrace
 10
-1917.559037
 20
-1514.089093
 30
0.0
 11
-1916.725703
 21
-1514.089093
 31
0.0
 12
-1917.14237
 22
-1511.589093
 32
0.0
 13
-1917.14237
 23
-1511.589093
 33
0.0
  0
SOLID
  5
94C
100
AcDbEntity
  8
0
  6
BYBLOCK
 62
     0
100
AcDbTrace
 10
-1917.559037
 20
-1507.589093
 30
0.0
 11
-1916.725703
 21
-1507.589093
 31
0.0
 12
-1917.14237
 22
-1510.089093
 32
0.0
 13
-1917.14237
 23
-1510.089093
 33
0.0
  0
MTEXT
  5
94D
100
AcDbEntity
  8
0
  6
BYBLOCK
 62
     0
100
AcDbMText
 10
-1919.51737
 20
-1505.569093
 30
0.0
 40
3.5
 41
0.0
 71
     5
 72
     1
  1
\A1;{=}
 11
0.0
 21
1.0
 31
0.0
  0
POINT
  5
94E
100
AcDbEntity
  8
DEFPOINTS
  6
BYBLOCK
 62
     0
100
AcDbPoint
 10
-1911.652635
 20
-1510.089093
 30
0.0
  0
POINT
  5
94F
100
AcDbEntity
  8
DEFPOINTS
  6
BYBLOCK
 62
     0
100
AcDbPoint
 10
-1901.652635
 20
-1511.589093
 30
0.0
  0
POINT
  5
950
100
AcDbEntity
  8
DEFPOINTS
  6
BYBLOCK
 62
     0
100
AcDbPoint
 10
-1917.14237
 20
-1511.589093
 30
0.0
  0
ENDBLK
  5
951
100
AcDbEntity
  8
0
100
AcDbBlockEnd
  0
BLOCK
  5
96A
100
AcDbEntity
  8
0
100
AcDbBlockBegin
  2
*D23
 70
    65
 10
0.0
 20
0.0
 30
0.0
  3
*D23
  1

  0
LINE
  5
96B
100
AcDbEntity
  8
0
  6
BYBLOCK
 62
     0
100
AcDbLine
 10
-1902.277635
 20
-1514.589093
 30
0.0
 11
-1914.803031
 21
-1514.589093
 31
0.0
  0
LINE
  5
96C
100
AcDbEntity
  8
0
  6
BYBLOCK
 62
     0
100
AcDbLine
 10
-1912.277635
 20
-1516.089093
 30
0.0
 11
-1914.803031
 21
-1516.089093
 31
0.0
  0
LINE
  5
96D
100
AcDbEntity
  8
0
  6
BYBLOCK
 62
     0
100
AcDbLine
 10
-1913.553031
 20
-1512.089093
 30
0.0
 11
-1913.553031
 21
-1509.589093
 31
0.0
  0
LINE
  5
96E
100
AcDbEntity
  8
0
  6
BYBLOCK
 62
     0
100
AcDbLine
 10
-1913.553031
 20
-1518.589093
 30
0.0
 11
-1913.553031
 21
-1523.879093
 31
0.0
  0
SOLID
  5
96F
100
AcDbEntity
  8
0
  6
BYBLOCK
 62
     0
100
AcDbTrace
 10
-1913.969697
 20
-1512.089093
 30
0.0
 11
-1913.136364
 21
-1512.089093
 31
0.0
 12
-1913.553031
 22
-1514.589093
 32
0.0
 13
-1913.553031
 23
-1514.589093
 33
0.0
  0
SOLID
  5
970
100
AcDbEntity
  8
0
  6
BYBLOCK
 62
     0
100
AcDbTrace
 10
-1913.969697
 20
-1518.589093
 30
0.0
 11
-1913.136364
 21
-1518.589093
 31
0.0
 12
-1913.553031
 22
-1516.089093
 32
0.0
 13
-1913.553031
 23
-1516.089093
 33
0.0
  0
MTEXT
  5
971
100
AcDbEntity
  8
0
  6
BYBLOCK
 62
     0
100
AcDbMText
 10
-1915.928031
 20
-1522.484093
 30
0.0
 40
3.5
 41
0.0
 71
     5
 72
     1
  1
\A1;{=}
 11
0.0
 21
1.0
 31
0.0
  0
POINT
  5
972
100
AcDbEntity
  8
DEFPOINTS
  6
BYBLOCK
 62
     0
100
AcDbPoint
 10
-1901.652635
 20
-1514.589093
 30
0.0
  0
POINT
  5
973
100
AcDbEntity
  8
DEFPOINTS
  6
BYBLOCK
 62
     0
100
AcDbPoint
 10
-1911.652635
 20
-1516.089093
 30
0.0
  0
POINT
  5
974
100
AcDbEntity
  8
DEFPOINTS
  6
BYBLOCK
 62
     0
100
AcDbPoint
 10
-1913.553031
 20
-1516.089093
 30
0.0
  0
ENDBLK
  5
975
100
AcDbEntity
  8
0
100
AcDbBlockEnd
  0
BLOCK
  5
9A1
100
AcDbEntity
  8
0
100
AcDbBlockBegin
  2
*D24
 70
    65
 10
0.0
 20
0.0
 30
0.0
  3
*D24
  1

  0
LINE
  5
9A2
100
AcDbEntity
  8
0
  6
BYBLOCK
 62
     0
100
AcDbLine
 10
-1861.652635
 20
-1539.714093
 30
0.0
 11
-1861.652635
 21
-1548.827985
 31
0.0
  0
LINE
  5
9A3
100
AcDbEntity
  8
0
  6
BYBLOCK
 62
     0
100
AcDbLine
 10
-1911.652635
 20
-1539.714093
 30
0.0
 11
-1911.652635
 21
-1548.827985
 31
0.0
  0
LINE
  5
9A4
100
AcDbEntity
  8
0
  6
BYBLOCK
 62
     0
100
AcDbLine
 10
-1864.152635
 20
-1547.577985
 30
0.0
 11
-1909.152635
 21
-1547.577985
 31
0.0
  0
SOLID
  5
9A5
100
AcDbEntity
  8
0
  6
BYBLOCK
 62
     0
100
AcDbTrace
 10
-1864.152635
 20
-1547.161318
 30
0.0
 11
-1864.152635
 21
-1547.994652
 31
0.0
 12
-1861.652635
 22
-1547.577985
 32
0.0
 13
-1861.652635
 23
-1547.577985
 33
0.0
  0
SOLID
  5
9A6
100
AcDbEntity
  8
0
  6
BYBLOCK
 62
     0
100
AcDbTrace
 10
-1909.152635
 20
-1547.161318
 30
0.0
 11
-1909.152635
 21
-1547.994652
 31
0.0
 12
-1911.652635
 22
-1547.577985
 32
0.0
 13
-1911.652635
 23
-1547.577985
 33
0.0
  0
MTEXT
  5
9A7
100
AcDbEntity
  8
0
  6
BYBLOCK
 62
     0
100
AcDbMText
 10
-1886.652635
 20
-1545.202985
 30
0.0
 40
3.5
 41
0.0
 71
     5
 72
     1
  1
\A1;{835}
  0
POINT
  5
9A8
100
AcDbEntity
  8
DEFPOINTS
  6
BYBLOCK
 62
     0
100
AcDbPoint
 10
-1861.652635
 20
-1539.089093
 30
0.0
  0
POINT
  5
9A9
100
AcDbEntity
  8
DEFPOINTS
  6
BYBLOCK
 62
     0
100
AcDbPoint
 10
-1911.652635
 20
-1539.089093
 30
0.0
  0
POINT
  5
9AA
100
AcDbEntity
  8
DEFPOINTS
  6
BYBLOCK
 62
     0
100
AcDbPoint
 10
-1911.652635
 20
-1547.577985
 30
0.0
  0
ENDBLK
  5
9AB
100
AcDbEntity
  8
0
100
AcDbBlockEnd
  0
BLOCK
  5
A09
100
AcDbEntity
  8
0
100
AcDbBlockBegin
  2
*D25
 70
    65
 10
0.0
 20
0.0
 30
0.0
  3
*D25
  1

  0
LINE
  5
A0A
100
AcDbEntity
  8
0
  6
BYBLOCK
 62
     0
100
AcDbLine
 10
-1861.027635
 20
-1539.089093
 30
0.0
 11
-1855.245633
 21
-1539.089093
 31
0.0
  0
ARC
  5
A0B
100
AcDbEntity
  8
0
  6
BYBLOCK
 62
     0
100
AcDbCircle
 10
-1861.652635
 20
-1539.089093
 30
0.0
 40
5.157001
100
AcDbArc
 50
28.055159
 51
61.944841
  0
SOLID
  5
A0C
100
AcDbEntity
  8
0
  6
BYBLOCK
 62
     0
100
AcDbTrace
 10
-1856.697364
 20
-1536.562649
 30
0.0
 11
-1857.505847
 21
-1536.76464
 31
0.0
 12
-1856.495633
 22
-1539.089093
 32
0.0
 13
-1856.495633
 23
-1539.089093
 33
0.0
  0
SOLID
  5
A0D
100
AcDbEntity
  8
0
  6
BYBLOCK
 62
     0
100
AcDbTrace
 10
-1859.328182
 20
-1534.942305
 30
0.0
 11
-1859.126191
 21
-1534.133822
 31
0.0
 12
-1861.652635
 22
-1533.932091
 32
0.0
 13
-1861.652635
 23
-1533.932091
 33
0.0
  0
MTEXT
  5
A0E
100
AcDbEntity
  8
0
  6
BYBLOCK
 62
     0
100
AcDbMText
 10
-1854.922704
 20
-1533.1444
 30
0.0
 40
3.5
 41
0.0
 71
     5
 72
     1
  1
\A2;90°{\H2.800000;\S+0°2'^  0°0';}
 11
0.66203
 21
-0.749478
 31
0.0
  0
POINT
  5
A0F
100
AcDbEntity
  8
DEFPOINTS
  6
BYBLOCK
 62
     0
100
AcDbPoint
 10
-1859.074134
 20
-1534.622998
 30
0.0
  0
POINT
  5
A10
100
AcDbEntity
  8
DEFPOINTS
  6
BYBLOCK
 62
     0
100
AcDbPoint
 10
-1861.652635
 20
-1539.089093
 30
0.0
  0
POINT
  5
A11
100
AcDbEntity
  8
DEFPOINTS
  6
BYBLOCK
 62
     0
100
AcDbPoint
 10
-1911.652635
 20
-1539.089093
 30
0.0
  0
POINT
  5
A12
100
AcDbEntity
  8
DEFPOINTS
  6
BYBLOCK
 62
     0
100
AcDbPoint
 10
-1861.652635
 20
-1539.089093
 30
0.0
  0
POINT
  5
A13
100
AcDbEntity
  8
DEFPOINTS
  6
BYBLOCK
 62
     0
100
AcDbPoint
 10
-1861.652635
 20
-1502.089093
 30
0.0
  0
ENDBLK
  5
A14
100
AcDbEntity
  8
0
100
AcDbBlockEnd
  0
BLOCK
  5
9E4
100
AcDbEntity
  8
0
100
AcDbBlockBegin
  2
*D26
 70
    65
 10
0.0
 20
0.0
 30
0.0
  3
*D26
  1

  0
LINE
  5
9E5
100
AcDbEntity
  8
0
  6
BYBLOCK
 62
     0
100
AcDbLine
 10
-1912.277635
 20
-1539.089093
 30
0.0
 11
-1920.183018
 21
-1539.089093
 31
0.0
  0
ARC
  5
9E6
100
AcDbEntity
  8
0
  6
BYBLOCK
 62
     0
100
AcDbCircle
 10
-1911.652635
 20
-1539.089093
 30
0.0
 40
7.280384
100
AcDbArc
 50
109.772682
 51
160.227318
  0
SOLID
  5
9E7
100
AcDbEntity
  8
0
  6
BYBLOCK
 62
     0
100
AcDbTrace
 10
-1914.18705
 20
-1531.827465
 30
0.0
 11
-1914.043971
 21
-1532.648424
 31
0.0
 12
-1911.652635
 22
-1531.808709
 32
0.0
 13
-1911.652635
 23
-1531.808709
 33
0.0
  0
SOLID
  5
9E8
100
AcDbEntity
  8
0
  6
BYBLOCK
 62
     0
100
AcDbTrace
 10
-1918.093303
 20
-1536.697756
 30
0.0
 11
-1918.914262
 21
-1536.554678
 31
0.0
 12
-1918.933018
 22
-1539.089093
 32
0.0
 13
-1918.933018
 23
-1539.089093
 33
0.0
  0
MTEXT
  5
9E9
100
AcDbEntity
  8
0
  6
BYBLOCK
 62
     0
100
AcDbMText
 10
-1920.349483
 20
-1532.187013
 30
0.0
 40
3.5
 41
0.0
 71
     5
 72
     1
  1
\A2;90°{\H2.800000;\S+0°2'^  0°0';}
 11
0.621648
 21
0.783297
 31
0.0
  0
POINT
  5
9EA
100
AcDbEntity
  8
DEFPOINTS
  6
BYBLOCK
 62
     0
100
AcDbPoint
 10
-1915.292827
 20
-1532.784095
 30
0.0
  0
POINT
  5
9EB
100
AcDbEntity
  8
DEFPOINTS
  6
BYBLOCK
 62
     0
100
AcDbPoint
 10
-1911.652635
 20
-1539.089093
 30
0.0
  0
POINT
  5
9EC
100
AcDbEntity
  8
DEFPOINTS
  6
BYBLOCK
 62
     0
100
AcDbPoint
 10
-1911.652635
 20
-1539.089093
 30
0.0
  0
POINT
  5
9ED
100
AcDbEntity
  8
DEFPOINTS
  6
BYBLOCK
 62
     0
100
AcDbPoint
 10
-1861.652635
 20
-1539.089093
 30
0.0
  0
POINT
  5
9EE
100
AcDbEntity
  8
DEFPOINTS
  6
BYBLOCK
 62
     0
100
AcDbPoint
 10
-1911.652635
 20
-1516.089093
 30
0.0
  0
ENDBLK
  5
9EF
100
AcDbEntity
  8
0
100
AcDbBlockEnd
  0
BLOCK
  5
A31
100
AcDbEntity
  8
MARCATURA
100
AcDbBlockBegin
  2
A$C73B1
 70
     0
 10
0.0
 20
0.0
 30
0.0
  3
A$C73B1
  1

  0
TEXT
  5
A2D
100
AcDbEntity
  8
DISEGNO
100
AcDbText
 10
-0.394444
 20
1.589411
 30
0.0
 40
3.0
  1
AL MASTER: M.60.85.40
 41
1.1
100
AcDbText
  0
TEXT
  5
A2E
100
AcDbEntity
  8
DISEGNO
100
AcDbText
 10
-0.394444
 20
12.989411
 30
0.0
 40
3.0
  1
LE TOLLERANZE DEI PROFILI SONO INDICATIVE
 41
1.1
100
AcDbText
  0
TEXT
  5
A2F
100
AcDbEntity
  8
DISEGNO
100
AcDbText
 10
-0.394444
 20
7.289411
 30
0.0
 40
3.0
  1
E SI RIFERISCONO AGLI SCOSTAMENTI RSPETTO
 41
1.1
100
AcDbText
  0
LINE
  5
A30
100
AcDbEntity
  8
ASSI
100
AcDbLine
 10
89.125384
 20
0.14944
 30
0.0
 11
89.125384
 21
0.704417
 31
0.0
  0
ENDBLK
  5
A32
100
AcDbEntity
  8
MARCATURA
100
AcDbBlockEnd
  0
BLOCK
  5
BA6
100
AcDbEntity
  8
0
100
AcDbBlockBegin
  2
*D28
 70
    65
 10
0.0
 20
0.0
 30
0.0
  3
*D28
  1

  0
LINE
  5
BA7
100
AcDbEntity
  8
0
  6
BYBLOCK
 62
     0
100
AcDbLine
 10
-1866.540246
 20
-1515.297722
 30
0.0
 11
-1866.540246
 21
-1524.411614
 31
0.0
  0
LINE
  5
BA8
100
AcDbEntity
  8
0
  6
BYBLOCK
 62
     0
100
AcDbLine
 10
-1916.540246
 20
-1515.297722
 30
0.0
 11
-1916.540246
 21
-1524.411614
 31
0.0
  0
LINE
  5
BA9
100
AcDbEntity
  8
0
  6
BYBLOCK
 62
     0
100
AcDbLine
 10
-1869.040246
 20
-1523.161614
 30
0.0
 11
-1914.040246
 21
-1523.161614
 31
0.0
  0
SOLID
  5
BAA
100
AcDbEntity
  8
0
  6
BYBLOCK
 62
     0
100
AcDbTrace
 10
-1869.040246
 20
-1522.744947
 30
0.0
 11
-1869.040246
 21
-1523.578281
 31
0.0
 12
-1866.540246
 22
-1523.161614
 32
0.0
 13
-1866.540246
 23
-1523.161614
 33
0.0
  0
SOLID
  5
BAB
100
AcDbEntity
  8
0
  6
BYBLOCK
 62
     0
100
AcDbTrace
 10
-1914.040246
 20
-1522.744947
 30
0.0
 11
-1914.040246
 21
-1523.578281
 31
0.0
 12
-1916.540246
 22
-1523.161614
 32
0.0
 13
-1916.540246
 23
-1523.161614
 33
0.0
  0
MTEXT
  5
BAC
100
AcDbEntity
  8
0
  6
BYBLOCK
 62
     0
100
AcDbMText
 10
-1891.540246
 20
-1520.786614
 30
0.0
 40
3.5
 41
0.0
 71
     5
 72
     1
  1
\A1;{835}
  0
POINT
  5
BAD
100
AcDbEntity
  8
DEFPOINTS
  6
BYBLOCK
 62
     0
100
AcDbPoint
 10
-1866.540246
 20
-1514.672722
 30
0.0
  0
POINT
  5
BAE
100
AcDbEntity
  8
DEFPOINTS
  6
BYBLOCK
 62
     0
100
AcDbPoint
 10
-1916.540246
 20
-1514.672722
 30
0.0
  0
POINT
  5
BAF
100
AcDbEntity
  8
DEFPOINTS
  6
BYBLOCK
 62
     0
100
AcDbPoint
 10
-1916.540246
 20
-1523.161614
 30
0.0
  0
ENDBLK
  5
BB0
100
AcDbEntity
  8
0
100
AcDbBlockEnd
  0
BLOCK
  5
BB2
100
AcDbEntity
  8
0
100
AcDbBlockBegin
  2
*D29
 70
    65
 10
0.0
 20
0.0
 30
0.0
  3
*D29
  1

  0
LINE
  5
BB3
100
AcDbEntity
  8
0
  6
BYBLOCK
 62
     0
100
AcDbLine
 10
-1865.915246
 20
-1514.672722
 30
0.0
 11
-1860.133245
 21
-1514.672722
 31
0.0
  0
ARC
  5
BB4
100
AcDbEntity
  8
0
  6
BYBLOCK
 62
     0
100
AcDbCircle
 10
-1866.540246
 20
-1514.672722
 30
0.0
 40
5.157001
100
AcDbArc
 50
28.055159
 51
61.944841
  0
SOLID
  5
BB5
100
AcDbEntity
  8
0
  6
BYBLOCK
 62
     0
100
AcDbTrace
 10
-1861.584976
 20
-1512.146279
 30
0.0
 11
-1862.393459
 21
-1512.348269
 31
0.0
 12
-1861.383245
 22
-1514.672722
 32
0.0
 13
-1861.383245
 23
-1514.672722
 33
0.0
  0
SOLID
  5
BB6
100
AcDbEntity
  8
0
  6
BYBLOCK
 62
     0
100
AcDbTrace
 10
-1864.215794
 20
-1510.525934
 30
0.0
 11
-1864.013803
 21
-1509.717451
 31
0.0
 12
-1866.540246
 22
-1509.51572
 32
0.0
 13
-1866.540246
 23
-1509.51572
 33
0.0
  0
MTEXT
  5
BB7
100
AcDbEntity
  8
0
  6
BYBLOCK
 62
     0
100
AcDbMText
 10
-1859.810316
 20
-1508.72803
 30
0.0
 40
3.5
 41
0.0
 71
     5
 72
     1
  1
\A2;90°{\H2.800000;\S+0°2'^  0°0';}
 11
0.66203
 21
-0.749478
 31
0.0
  0
POINT
  5
BB8
100
AcDbEntity
  8
DEFPOINTS
  6
BYBLOCK
 62
     0
100
AcDbPoint
 10
-1863.961746
 20
-1510.206628
 30
0.0
  0
POINT
  5
BB9
100
AcDbEntity
  8
DEFPOINTS
  6
BYBLOCK
 62
     0
100
AcDbPoint
 10
-1866.540246
 20
-1514.672722
 30
0.0
  0
POINT
  5
BBA
100
AcDbEntity
  8
DEFPOINTS
  6
BYBLOCK
 62
     0
100
AcDbPoint
 10
-1916.540246
 20
-1514.672722
 30
0.0
  0
POINT
  5
BBB
100
AcDbEntity
  8
DEFPOINTS
  6
BYBLOCK
 62
     0
100
AcDbPoint
 10
-1866.540246
 20
-1514.672722
 30
0.0
  0
POINT
  5
BBC
100
AcDbEntity
  8
DEFPOINTS
  6
BYBLOCK
 62
     0
100
AcDbPoint
 10
-1866.540246
 20
-1477.672722
 30
0.0
  0
ENDBLK
  5
BBD
100
AcDbEntity
  8
0
100
AcDbBlockEnd
  0
BLOCK
  5
BBF
100
AcDbEntity
  8
0
100
AcDbBlockBegin
  2
*D30
 70
    65
 10
0.0
 20
0.0
 30
0.0
  3
*D30
  1

  0
LINE
  5
BC0
100
AcDbEntity
  8
0
  6
BYBLOCK
 62
     0
100
AcDbLine
 10
-1917.165246
 20
-1514.672722
 30
0.0
 11
-1925.07063
 21
-1514.672722
 31
0.0
  0
ARC
  5
BC1
100
AcDbEntity
  8
0
  6
BYBLOCK
 62
     0
100
AcDbCircle
 10
-1916.540246
 20
-1514.672722
 30
0.0
 40
7.280384
100
AcDbArc
 50
109.772682
 51
160.227318
  0
SOLID
  5
BC2
100
AcDbEntity
  8
0
  6
BYBLOCK
 62
     0
100
AcDbTrace
 10
-1919.074661
 20
-1507.411095
 30
0.0
 11
-1918.931583
 21
-1508.232053
 31
0.0
 12
-1916.540246
 22
-1507.392338
 32
0.0
 13
-1916.540246
 23
-1507.392338
 33
0.0
  0
SOLID
  5
BC3
100
AcDbEntity
  8
0
  6
BYBLOCK
 62
     0
100
AcDbTrace
 10
-1922.980915
 20
-1512.281385
 30
0.0
 11
-1923.801873
 21
-1512.138307
 31
0.0
 12
-1923.82063
 22
-1514.672722
 32
0.0
 13
-1923.82063
 23
-1514.672722
 33
0.0
  0
MTEXT
  5
BC4
100
AcDbEntity
  8
0
  6
BYBLOCK
 62
     0
100
AcDbMText
 10
-1925.237094
 20
-1507.770642
 30
0.0
 40
3.5
 41
0.0
 71
     5
 72
     1
  1
\A2;90°{\H2.800000;\S+0°2'^  0°0';}
 11
0.621648
 21
0.783297
 31
0.0
  0
POINT
  5
BC5
100
AcDbEntity
  8
DEFPOINTS
  6
BYBLOCK
 62
     0
100
AcDbPoint
 10
-1920.180438
 20
-1508.367725
 30
0.0
  0
POINT
  5
BC6
100
AcDbEntity
  8
DEFPOINTS
  6
BYBLOCK
 62
     0
100
AcDbPoint
 10
-1916.540246
 20
-1514.672722
 30
0.0
  0
POINT
  5
BC7
100
AcDbEntity
  8
DEFPOINTS
  6
BYBLOCK
 62
     0
100
AcDbPoint
 10
-1916.540246
 20
-1514.672722
 30
0.0
  0
POINT
  5
BC8
100
AcDbEntity
  8
DEFPOINTS
  6
BYBLOCK
 62
     0
100
AcDbPoint
 10
-1866.540246
 20
-1514.672722
 30
0.0
  0
POINT
  5
BC9
100
AcDbEntity
  8
DEFPOINTS
  6
BYBLOCK
 62
     0
100
AcDbPoint
 10
-1916.540246
 20
-1491.672722
 30
0.0
  0
ENDBLK
  5
BCA
100
AcDbEntity
  8
0
100
AcDbBlockEnd
  0
BLOCK
  5
EA1
100
AcDbEntity
  8
0
100
AcDbBlockBegin
  2
*D31
 70
    65
 10
0.0
 20
0.0
 30
0.0
  3
*D31
  1

  0
LINE
  5
EA2
100
AcDbEntity
  8
0
  6
BYBLOCK
 62
     0
100
AcDbLine
 10
-1559.293922
 20
-1441.84037
 30
0.0
 11
-1559.293922
 21
-1385.662049
 31
0.0
  0
LINE
  5
EA3
100
AcDbEntity
  8
0
  6
BYBLOCK
 62
     0
100
AcDbLine
 10
-1586.543922
 20
-1412.09037
 30
0.0
 11
-1586.543922
 21
-1385.662049
 31
0.0
  0
LINE
  5
EA4
100
AcDbEntity
  8
0
  6
BYBLOCK
 62
     0
100
AcDbLine
 10
-1561.793922
 20
-1386.912049
 30
0.0
 11
-1584.043922
 21
-1386.912049
 31
0.0
  0
SOLID
  5
EA5
100
AcDbEntity
  8
0
  6
BYBLOCK
 62
     0
100
AcDbTrace
 10
-1561.793922
 20
-1386.495382
 30
0.0
 11
-1561.793922
 21
-1387.328715
 31
0.0
 12
-1559.293922
 22
-1386.912049
 32
0.0
 13
-1559.293922
 23
-1386.912049
 33
0.0
  0
SOLID
  5
EA6
100
AcDbEntity
  8
0
  6
BYBLOCK
 62
     0
100
AcDbTrace
 10
-1584.043922
 20
-1386.495382
 30
0.0
 11
-1584.043922
 21
-1387.328715
 31
0.0
 12
-1586.543922
 22
-1386.912049
 32
0.0
 13
-1586.543922
 23
-1386.912049
 33
0.0
  0
MTEXT
  5
EA7
100
AcDbEntity
  8
0
  6
BYBLOCK
 62
     0
100
AcDbMText
 10
-1572.918922
 20
-1384.537049
 30
0.0
 40
3.5
 41
0.0
 71
     5
 72
     1
  1
\A2;27.25{\H2.800000;±0.05}
  0
POINT
  5
EA8
100
AcDbEntity
  8
DEFPOINTS
  6
BYBLOCK
 62
     0
100
AcDbPoint
 10
-1559.293922
 20
-1442.46537
 30
0.0
  0
POINT
  5
EA9
100
AcDbEntity
  8
DEFPOINTS
  6
BYBLOCK
 62
     0
100
AcDbPoint
 10
-1586.543922
 20
-1412.71537
 30
0.0
  0
POINT
  5
EAA
100
AcDbEntity
  8
DEFPOINTS
  6
BYBLOCK
 62
     0
100
AcDbPoint
 10
-1586.543922
 20
-1386.912049
 30
0.0
  0
ENDBLK
  5
EAB
100
AcDbEntity
  8
0
100
AcDbBlockEnd
  0
BLOCK
  5
EB9
100
AcDbEntity
  8
0
100
AcDbBlockBegin
  2
*D32
 70
    65
 10
0.0
 20
0.0
 30
0.0
  3
*D32
  1

  0
LINE
  5
EBA
100
AcDbEntity
  8
0
  6
BYBLOCK
 62
     0
100
AcDbLine
 10
-1573.043922
 20
-1412.09037
 30
0.0
 11
-1573.043922
 21
-1394.512983
 31
0.0
  0
LINE
  5
EBB
100
AcDbEntity
  8
0
  6
BYBLOCK
 62
     0
100
AcDbLine
 10
-1586.543922
 20
-1412.09037
 30
0.0
 11
-1586.543922
 21
-1394.512983
 31
0.0
  0
LINE
  5
EBC
100
AcDbEntity
  8
0
  6
BYBLOCK
 62
     0
100
AcDbLine
 10
-1575.543922
 20
-1395.762983
 30
0.0
 11
-1584.043922
 21
-1395.762983
 31
0.0
  0
LINE
  5
EBD
100
AcDbEntity
  8
0
  6
BYBLOCK
 62
     0
100
AcDbLine
 10
-1586.543922
 20
-1395.762983
 30
0.0
 11
-1608.311922
 21
-1395.762983
 31
0.0
  0
SOLID
  5
EBE
100
AcDbEntity
  8
0
  6
BYBLOCK
 62
     0
100
AcDbTrace
 10
-1575.543922
 20
-1395.346316
 30
0.0
 11
-1575.543922
 21
-1396.17965
 31
0.0
 12
-1573.043922
 22
-1395.762983
 32
0.0
 13
-1573.043922
 23
-1395.762983
 33
0.0
  0
SOLID
  5
EBF
100
AcDbEntity
  8
0
  6
BYBLOCK
 62
     0
100
AcDbTrace
 10
-1584.043922
 20
-1395.346316
 30
0.0
 11
-1584.043922
 21
-1396.17965
 31
0.0
 12
-1586.543922
 22
-1395.762983
 32
0.0
 13
-1586.543922
 23
-1395.762983
 33
0.0
  0
MTEXT
  5
EC0
100
AcDbEntity
  8
0
  6
BYBLOCK
 62
     0
100
AcDbMText
 10
-1598.677922
 20
-1392.010214
 30
0.0
 40
3.5
 41
0.0
 71
     5
 72
     1
  1
\A2;13.5{\H2.800000;\S+0.05^  0;}
  0
POINT
  5
EC1
100
AcDbEntity
  8
DEFPOINTS
  6
BYBLOCK
 62
     0
100
AcDbPoint
 10
-1573.043922
 20
-1412.71537
 30
0.0
  0
POINT
  5
EC2
100
AcDbEntity
  8
DEFPOINTS
  6
BYBLOCK
 62
     0
100
AcDbPoint
 10
-1586.543922
 20
-1412.71537
 30
0.0
  0
POINT
  5
EC3
100
AcDbEntity
  8
DEFPOINTS
  6
BYBLOCK
 62
     0
100
AcDbPoint
 10
-1586.543922
 20
-1395.762983
 30
0.0
  0
ENDBLK
  5
EC4
100
AcDbEntity
  8
0
100
AcDbBlockEnd
  0
BLOCK
  5
DB6
100
AcDbEntity
  8
0
100
AcDbBlockBegin
  2
*D33
 70
    65
 10
0.0
 20
0.0
 30
0.0
  3
*D33
  1

  0
LINE
  5
DB7
100
AcDbEntity
  8
0
  6
BYBLOCK
 62
     0
100
AcDbLine
 10
-1586.418922
 20
-1428.46537
 30
0.0
 11
-1608.19129
 21
-1428.46537
 31
0.0
  0
LINE
  5
DB8
100
AcDbEntity
  8
0
  6
BYBLOCK
 62
     0
100
AcDbLine
 10
-1573.668922
 20
-1441.16537
 30
0.0
 11
-1608.19129
 21
-1441.16537
 31
0.0
  0
LINE
  5
DB9
100
AcDbEntity
  8
0
  6
BYBLOCK
 62
     0
100
AcDbLine
 10
-1606.94129
 20
-1430.96537
 30
0.0
 11
-1606.94129
 21
-1438.66537
 31
0.0
  0
LINE
  5
DBA
100
AcDbEntity
  8
0
  6
BYBLOCK
 62
     0
100
AcDbLine
 10
-1606.94129
 20
-1441.16537
 30
0.0
 11
-1606.94129
 21
-1471.987777
 31
0.0
  0
SOLID
  5
DBB
100
AcDbEntity
  8
0
  6
BYBLOCK
 62
     0
100
AcDbTrace
 10
-1607.357957
 20
-1430.96537
 30
0.0
 11
-1606.524624
 21
-1430.96537
 31
0.0
 12
-1606.94129
 22
-1428.46537
 32
0.0
 13
-1606.94129
 23
-1428.46537
 33
0.0
  0
SOLID
  5
DBC
100
AcDbEntity
  8
0
  6
BYBLOCK
 62
     0
100
AcDbTrace
 10
-1607.357957
 20
-1438.66537
 30
0.0
 11
-1606.524624
 21
-1438.66537
 31
0.0
 12
-1606.94129
 22
-1441.16537
 32
0.0
 13
-1606.94129
 23
-1441.16537
 33
0.0
  0
MTEXT
  5
DBD
100
AcDbEntity
  8
0
  6
BYBLOCK
 62
     0
100
AcDbMText
 10
-1610.763784
 20
-1463.431777
 30
0.0
 40
3.5
 41
0.0
 71
     5
 72
     1
  1
\A2;12.7{\H2.800000;\S+0.2^  0;}
 11
0.0
 21
1.0
 31
0.0
  0
POINT
  5
DBE
100
AcDbEntity
  8
DEFPOINTS
  6
BYBLOCK
 62
     0
100
AcDbPoint
 10
-1585.793922
 20
-1428.46537
 30
0.0
  0
POINT
  5
DBF
100
AcDbEntity
  8
DEFPOINTS
  6
BYBLOCK
 62
     0
100
AcDbPoint
 10
-1573.043922
 20
-1441.16537
 30
0.0
  0
POINT
  5
DC0
100
AcDbEntity
  8
DEFPOINTS
  6
BYBLOCK
 62
     0
100
AcDbPoint
 10
-1606.94129
 20
-1441.16537
 30
0.0
  0
ENDBLK
  5
DC1
100
AcDbEntity
  8
0
100
AcDbBlockEnd
  0
BLOCK
  5
CD5
100
AcDbEntity
  8
0
100
AcDbBlockBegin
  2
*D34
 70
    65
 10
0.0
 20
0.0
 30
0.0
  3
*D34
  1

  0
LINE
  5
CD6
100
AcDbEntity
  8
0
  6
BYBLOCK
 62
     0
100
AcDbLine
 10
-1582.793922
 20
-1427.84037
 30
0.0
 11
-1582.793922
 21
-1416.315393
 31
0.0
  0
LINE
  5
CD7
100
AcDbEntity
  8
0
  6
BYBLOCK
 62
     0
100
AcDbLine
 10
-1586.543922
 20
-1422.175462
 30
0.0
 11
-1586.543922
 21
-1416.315393
 31
0.0
  0
LINE
  5
CD8
100
AcDbEntity
  8
0
  6
BYBLOCK
 62
     0
100
AcDbLine
 10
-1580.293922
 20
-1417.565393
 30
0.0
 11
-1577.793922
 21
-1417.565393
 31
0.0
  0
LINE
  5
CD9
100
AcDbEntity
  8
0
  6
BYBLOCK
 62
     0
100
AcDbLine
 10
-1589.043922
 20
-1417.565393
 30
0.0
 11
-1601.038394
 21
-1417.565393
 31
0.0
  0
SOLID
  5
CDA
100
AcDbEntity
  8
0
  6
BYBLOCK
 62
     0
100
AcDbTrace
 10
-1580.293922
 20
-1417.148726
 30
0.0
 11
-1580.293922
 21
-1417.98206
 31
0.0
 12
-1582.793922
 22
-1417.565393
 32
0.0
 13
-1582.793922
 23
-1417.565393
 33
0.0
  0
SOLID
  5
CDB
100
AcDbEntity
  8
0
  6
BYBLOCK
 62
     0
100
AcDbTrace
 10
-1589.043922
 20
-1417.148726
 30
0.0
 11
-1589.043922
 21
-1417.98206
 31
0.0
 12
-1586.543922
 22
-1417.565393
 32
0.0
 13
-1586.543922
 23
-1417.565393
 33
0.0
  0
MTEXT
  5
CDC
100
AcDbEntity
  8
0
  6
BYBLOCK
 62
     0
100
AcDbMText
 10
-1596.291158
 20
-1415.190393
 30
0.0
 40
3.5
 41
0.0
 71
     5
 72
     1
  1
\A1;3.75
  0
POINT
  5
CDD
100
AcDbEntity
  8
DEFPOINTS
  6
BYBLOCK
 62
     0
100
AcDbPoint
 10
-1582.793922
 20
-1428.46537
 30
0.0
  0
POINT
  5
CDE
100
AcDbEntity
  8
DEFPOINTS
  6
BYBLOCK
 62
     0
100
AcDbPoint
 10
-1586.543922
 20
-1422.800462
 30
0.0
  0
POINT
  5
CDF
100
AcDbEntity
  8
DEFPOINTS
  6
BYBLOCK
 62
     0
100
AcDbPoint
 10
-1586.543922
 20
-1417.565393
 30
0.0
  0
ENDBLK
  5
CE0
100
AcDbEntity
  8
0
100
AcDbBlockEnd
  0
BLOCK
  5
DAA
100
AcDbEntity
  8
0
100
AcDbBlockBegin
  2
*D35
 70
    65
 10
0.0
 20
0.0
 30
0.0
  3
*D35
  1

  0
LINE
  5
DAB
100
AcDbEntity
  8
0
  6
BYBLOCK
 62
     0
100
AcDbLine
 10
-1586.418922
 20
-1428.46537
 30
0.0
 11
-1601.16535
 21
-1428.46537
 31
0.0
  0
LINE
  5
DAC
100
AcDbEntity
  8
0
  6
BYBLOCK
 62
     0
100
AcDbLine
 10
-1586.418922
 20
-1436.86537
 30
0.0
 11
-1601.16535
 21
-1436.86537
 31
0.0
  0
LINE
  5
DAD
100
AcDbEntity
  8
0
  6
BYBLOCK
 62
     0
100
AcDbLine
 10
-1599.91535
 20
-1425.96537
 30
0.0
 11
-1599.91535
 21
-1423.46537
 31
0.0
  0
LINE
  5
DAE
100
AcDbEntity
  8
0
  6
BYBLOCK
 62
     0
100
AcDbLine
 10
-1599.91535
 20
-1439.36537
 30
0.0
 11
-1599.91535
 21
-1441.86537
 31
0.0
  0
SOLID
  5
DAF
100
AcDbEntity
  8
0
  6
BYBLOCK
 62
     0
100
AcDbTrace
 10
-1600.332016
 20
-1425.96537
 30
0.0
 11
-1599.498683
 21
-1425.96537
 31
0.0
 12
-1599.91535
 22
-1428.46537
 32
0.0
 13
-1599.91535
 23
-1428.46537
 33
0.0
  0
SOLID
  5
DB0
100
AcDbEntity
  8
0
  6
BYBLOCK
 62
     0
100
AcDbTrace
 10
-1600.332016
 20
-1439.36537
 30
0.0
 11
-1599.498683
 21
-1439.36537
 31
0.0
 12
-1599.91535
 22
-1436.86537
 32
0.0
 13
-1599.91535
 23
-1436.86537
 33
0.0
  0
MTEXT
  5
DB1
100
AcDbEntity
  8
0
  6
BYBLOCK
 62
     0
100
AcDbMText
 10
-1602.29035
 20
-1432.66537
 30
0.0
 40
3.5
 41
0.0
 71
     5
 72
     1
  1
\A1;8.4
 11
0.0
 21
1.0
 31
0.0
  0
POINT
  5
DB2
100
AcDbEntity
  8
DEFPOINTS
  6
BYBLOCK
 62
     0
100
AcDbPoint
 10
-1585.793922
 20
-1428.46537
 30
0.0
  0
POINT
  5
DB3
100
AcDbEntity
  8
DEFPOINTS
  6
BYBLOCK
 62
     0
100
AcDbPoint
 10
-1585.793922
 20
-1436.86537
 30
0.0
  0
POINT
  5
DB4
100
AcDbEntity
  8
DEFPOINTS
  6
BYBLOCK
 62
     0
100
AcDbPoint
 10
-1599.91535
 20
-1436.86537
 30
0.0
  0
ENDBLK
  5
DB5
100
AcDbEntity
  8
0
100
AcDbBlockEnd
  0
BLOCK
  5
D55
100
AcDbEntity
  8
0
100
AcDbBlockBegin
  2
*D36
 70
    65
 10
0.0
 20
0.0
 30
0.0
  3
*D36
  1

  0
LINE
  5
D56
100
AcDbEntity
  8
0
  6
BYBLOCK
 62
     0
100
AcDbLine
 10
-1559.968922
 20
-1441.16537
 30
0.0
 11
-1529.213821
 21
-1441.16537
 31
0.0
  0
LINE
  5
D57
100
AcDbEntity
  8
0
  6
BYBLOCK
 62
     0
100
AcDbLine
 10
-1564.737486
 20
-1558.96537
 30
0.0
 11
-1529.213821
 21
-1558.96537
 31
0.0
  0
LINE
  5
D58
100
AcDbEntity
  8
0
  6
BYBLOCK
 62
     0
100
AcDbLine
 10
-1530.463821
 20
-1443.66537
 30
0.0
 11
-1530.463821
 21
-1556.46537
 31
0.0
  0
SOLID
  5
D59
100
AcDbEntity
  8
0
  6
BYBLOCK
 62
     0
100
AcDbTrace
 10
-1530.880487
 20
-1443.66537
 30
0.0
 11
-1530.047154
 21
-1443.66537
 31
0.0
 12
-1530.463821
 22
-1441.16537
 32
0.0
 13
-1530.463821
 23
-1441.16537
 33
0.0
  0
SOLID
  5
D5A
100
AcDbEntity
  8
0
  6
BYBLOCK
 62
     0
100
AcDbTrace
 10
-1530.880487
 20
-1556.46537
 30
0.0
 11
-1530.047154
 21
-1556.46537
 31
0.0
 12
-1530.463821
 22
-1558.96537
 32
0.0
 13
-1530.463821
 23
-1558.96537
 33
0.0
  0
MTEXT
  5
D5B
100
AcDbEntity
  8
0
  6
BYBLOCK
 62
     0
100
AcDbMText
 10
-1534.21659
 20
-1500.06537
 30
0.0
 40
3.5
 41
0.0
 71
     5
 72
     1
  1
\A2;117.8{\H2.800000;\S+0.1^  0;}
 11
0.0
 21
1.0
 31
0.0
  0
POINT
  5
D5C
100
AcDbEntity
  8
DEFPOINTS
  6
BYBLOCK
 62
     0
100
AcDbPoint
 10
-1560.593922
 20
-1441.16537
 30
0.0
  0
POINT
  5
D5D
100
AcDbEntity
  8
DEFPOINTS
  6
BYBLOCK
 62
     0
100
AcDbPoint
 10
-1565.362486
 20
-1558.96537
 30
0.0
  0
POINT
  5
D5E
100
AcDbEntity
  8
DEFPOINTS
  6
BYBLOCK
 62
     0
100
AcDbPoint
 10
-1530.463821
 20
-1558.96537
 30
0.0
  0
ENDBLK
  5
D5F
100
AcDbEntity
  8
0
100
AcDbBlockEnd
  0
BLOCK
  5
E89
100
AcDbEntity
  8
0
100
AcDbBlockBegin
  2
*D37
 70
    65
 10
0.0
 20
0.0
 30
0.0
  3
*D37
  1

  0
LINE
  5
E8A
100
AcDbEntity
  8
0
  6
BYBLOCK
 62
     0
100
AcDbLine
 10
-1567.225358
 20
-1559.59037
 30
0.0
 11
-1567.225358
 21
-1575.840853
 31
0.0
  0
LINE
  5
E8B
100
AcDbEntity
  8
0
  6
BYBLOCK
 62
     0
100
AcDbLine
 10
-1565.362486
 20
-1559.59037
 30
0.0
 11
-1565.362486
 21
-1575.840853
 31
0.0
  0
LINE
  5
E8C
100
AcDbEntity
  8
0
  6
BYBLOCK
 62
     0
100
AcDbLine
 10
-1569.725358
 20
-1574.590853
 30
0.0
 11
-1572.225358
 21
-1574.590853
 31
0.0
  0
LINE
  5
E8D
100
AcDbEntity
  8
0
  6
BYBLOCK
 62
     0
100
AcDbLine
 10
-1562.862486
 20
-1574.590853
 30
0.0
 11
-1543.866486
 21
-1574.590853
 31
0.0
  0
SOLID
  5
E8E
100
AcDbEntity
  8
0
  6
BYBLOCK
 62
     0
100
AcDbTrace
 10
-1569.725358
 20
-1574.174186
 30
0.0
 11
-1569.725358
 21
-1575.00752
 31
0.0
 12
-1567.225358
 22
-1574.590853
 32
0.0
 13
-1567.225358
 23
-1574.590853
 33
0.0
  0
SOLID
  5
E8F
100
AcDbEntity
  8
0
  6
BYBLOCK
 62
     0
100
AcDbTrace
 10
-1562.862486
 20
-1574.174186
 30
0.0
 11
-1562.862486
 21
-1575.00752
 31
0.0
 12
-1565.362486
 22
-1574.590853
 32
0.0
 13
-1565.362486
 23
-1574.590853
 33
0.0
  0
MTEXT
  5
E90
100
AcDbEntity
  8
0
  6
BYBLOCK
 62
     0
100
AcDbMText
 10
-1552.114486
 20
-1570.838084
 30
0.0
 40
3.5
 41
0.0
 71
     5
 72
     1
  1
\A2;1.86{\H2.800000;\S+0.1^  0;}
  0
POINT
  5
E91
100
AcDbEntity
  8
DEFPOINTS
  6
BYBLOCK
 62
     0
100
AcDbPoint
 10
-1567.225358
 20
-1558.96537
 30
0.0
  0
POINT
  5
E92
100
AcDbEntity
  8
DEFPOINTS
  6
BYBLOCK
 62
     0
100
AcDbPoint
 10
-1565.362486
 20
-1558.96537
 30
0.0
  0
POINT
  5
E93
100
AcDbEntity
  8
DEFPOINTS
  6
BYBLOCK
 62
     0
100
AcDbPoint
 10
-1565.362486
 20
-1574.590853
 30
0.0
  0
ENDBLK
  5
E94
100
AcDbEntity
  8
0
100
AcDbBlockEnd
  0
BLOCK
  5
CFD
100
AcDbEntity
  8
0
100
AcDbBlockBegin
  2
*D38
 70
    65
 10
0.0
 20
0.0
 30
0.0
  3
*D38
  1

  0
LINE
  5
CFE
100
AcDbEntity
  8
0
  6
BYBLOCK
 62
     0
100
AcDbLine
 10
-1563.153327
 20
-1549.396454
 30
0.0
 11
-1561.515861
 21
-1542.303807
 31
0.0
  0
LINE
  5
CFF
100
AcDbEntity
  8
0
  6
BYBLOCK
 62
     0
100
AcDbLine
 10
-1569.434516
 20
-1549.396454
 30
0.0
 11
-1571.071983
 21
-1542.303807
 31
0.0
  0
ARC
  5
D00
100
AcDbEntity
  8
0
  6
BYBLOCK
 62
     0
100
AcDbCircle
 10
-1566.293922
 20
-1562.999863
 30
0.0
 40
19.990448
100
AcDbArc
 50
68.038506
 51
77.0
  0
ARC
  5
D01
100
AcDbEntity
  8
0
  6
BYBLOCK
 62
     0
100
AcDbCircle
 10
-1566.293922
 20
-1562.999863
 30
0.0
 40
19.990448
100
AcDbArc
 50
84.170072
 51
95.829928
  0
SOLID
  5
D02
100
AcDbEntity
  8
0
  6
BYBLOCK
 62
     0
100
AcDbTrace
 10
-1564.195213
 20
-1542.701756
 30
0.0
 11
-1564.331533
 21
-1543.523864
 31
0.0
 12
-1561.797049
 22
-1543.521769
 32
0.0
 13
-1561.797049
 23
-1543.521769
 33
0.0
  0
SOLID
  5
D03
100
AcDbEntity
  8
0
  6
BYBLOCK
 62
     0
100
AcDbTrace
 10
-1568.256311
 20
-1543.523864
 30
0.0
 11
-1568.39263
 21
-1542.701756
 31
0.0
 12
-1570.790794
 22
-1543.521769
 32
0.0
 13
-1570.790794
 23
-1543.521769
 33
0.0
  0
MTEXT
  5
D04
100
AcDbEntity
  8
0
  6
BYBLOCK
 62
     0
100
AcDbMText
 10
-1554.314936
 20
-1543.714955
 30
0.0
 40
3.5
 41
0.0
 71
     5
 72
     1
  1
\A1;26°
 11
0.927435
 21
-0.373983
 31
0.0
  0
POINT
  5
D05
100
AcDbEntity
  8
DEFPOINTS
  6
BYBLOCK
 62
     0
100
AcDbPoint
 10
-1567.804377
 20
-1543.066561
 30
0.0
  0
POINT
  5
D06
100
AcDbEntity
  8
DEFPOINTS
  6
BYBLOCK
 62
     0
100
AcDbPoint
 10
-1567.225358
 20
-1558.96537
 30
0.0
  0
POINT
  5
D07
100
AcDbEntity
  8
DEFPOINTS
  6
BYBLOCK
 62
     0
100
AcDbPoint
 10
-1565.362486
 20
-1558.96537
 30
0.0
  0
POINT
  5
D08
100
AcDbEntity
  8
DEFPOINTS
  6
BYBLOCK
 62
     0
100
AcDbPoint
 10
-1563.293922
 20
-1550.005436
 30
0.0
  0
POINT
  5
D09
100
AcDbEntity
  8
DEFPOINTS
  6
BYBLOCK
 62
     0
100
AcDbPoint
 10
-1569.293922
 20
-1550.005436
 30
0.0
  0
ENDBLK
  5
D0A
100
AcDbEntity
  8
0
100
AcDbBlockEnd
  0
BLOCK
  5
D31
100
AcDbEntity
  8
0
100
AcDbBlockBegin
  2
*D39
 70
    65
 10
0.0
 20
0.0
 30
0.0
  3
*D39
  1

  0
LINE
  5
D32
100
AcDbEntity
  8
0
  6
BYBLOCK
 62
     0
100
AcDbLine
 10
-1559.968922
 20
-1441.16537
 30
0.0
 11
-1543.723917
 21
-1441.16537
 31
0.0
  0
LINE
  5
D33
100
AcDbEntity
  8
0
  6
BYBLOCK
 62
     0
100
AcDbLine
 10
-1562.668922
 20
-1471.46537
 30
0.0
 11
-1543.723917
 21
-1471.46537
 31
0.0
  0
LINE
  5
D34
100
AcDbEntity
  8
0
  6
BYBLOCK
 62
     0
100
AcDbLine
 10
-1544.973917
 20
-1443.66537
 30
0.0
 11
-1544.973917
 21
-1468.96537
 31
0.0
  0
SOLID
  5
D35
100
AcDbEntity
  8
0
  6
BYBLOCK
 62
     0
100
AcDbTrace
 10
-1545.390583
 20
-1443.66537
 30
0.0
 11
-1544.55725
 21
-1443.66537
 31
0.0
 12
-1544.973917
 22
-1441.16537
 32
0.0
 13
-1544.973917
 23
-1441.16537
 33
0.0
  0
SOLID
  5
D36
100
AcDbEntity
  8
0
  6
BYBLOCK
 62
     0
100
AcDbTrace
 10
-1545.390583
 20
-1468.96537
 30
0.0
 11
-1544.55725
 21
-1468.96537
 31
0.0
 12
-1544.973917
 22
-1471.46537
 32
0.0
 13
-1544.973917
 23
-1471.46537
 33
0.0
  0
MTEXT
  5
D37
100
AcDbEntity
  8
0
  6
BYBLOCK
 62
     0
100
AcDbMText
 10
-1547.348917
 20
-1456.31537
 30
0.0
 40
3.5
 41
0.0
 71
     5
 72
     1
  1
\A1;30.3
 11
0.0
 21
1.0
 31
0.0
  0
POINT
  5
D38
100
AcDbEntity
  8
DEFPOINTS
  6
BYBLOCK
 62
     0
100
AcDbPoint
 10
-1560.593922
 20
-1441.16537
 30
0.0
  0
POINT
  5
D39
100
AcDbEntity
  8
DEFPOINTS
  6
BYBLOCK
 62
     0
100
AcDbPoint
 10
-1563.293922
 20
-1471.46537
 30
0.0
  0
POINT
  5
D3A
100
AcDbEntity
  8
DEFPOINTS
  6
BYBLOCK
 62
     0
100
AcDbPoint
 10
-1544.973917
 20
-1471.46537
 30
0.0
  0
ENDBLK
  5
D3B
100
AcDbEntity
  8
0
100
AcDbBlockEnd
  0
BLOCK
  5
D3E
100
AcDbEntity
  8
0
100
AcDbBlockBegin
  2
*D40
 70
    65
 10
0.0
 20
0.0
 30
0.0
  3
*D40
  1

  0
LINE
  5
D3F
100
AcDbEntity
  8
0
  6
BYBLOCK
 62
     0
100
AcDbLine
 10
-1573.668922
 20
-1411.46537
 30
0.0
 11
-1529.287266
 21
-1411.46537
 31
0.0
  0
LINE
  5
D40
100
AcDbEntity
  8
0
  6
BYBLOCK
 62
     0
100
AcDbLine
 10
-1559.968922
 20
-1441.16537
 30
0.0
 11
-1529.287266
 21
-1441.16537
 31
0.0
  0
LINE
  5
D41
100
AcDbEntity
  8
0
  6
BYBLOCK
 62
     0
100
AcDbLine
 10
-1530.537266
 20
-1413.96537
 30
0.0
 11
-1530.537266
 21
-1438.66537
 31
0.0
  0
SOLID
  5
D42
100
AcDbEntity
  8
0
  6
BYBLOCK
 62
     0
100
AcDbTrace
 10
-1530.953932
 20
-1413.96537
 30
0.0
 11
-1530.120599
 21
-1413.96537
 31
0.0
 12
-1530.537266
 22
-1411.46537
 32
0.0
 13
-1530.537266
 23
-1411.46537
 33
0.0
  0
SOLID
  5
D43
100
AcDbEntity
  8
0
  6
BYBLOCK
 62
     0
100
AcDbTrace
 10
-1530.953932
 20
-1438.66537
 30
0.0
 11
-1530.120599
 21
-1438.66537
 31
0.0
 12
-1530.537266
 22
-1441.16537
 32
0.0
 13
-1530.537266
 23
-1441.16537
 33
0.0
  0
MTEXT
  5
D44
100
AcDbEntity
  8
0
  6
BYBLOCK
 62
     0
100
AcDbMText
 10
-1532.912266
 20
-1426.31537
 30
0.0
 40
3.5
 41
0.0
 71
     5
 72
     1
  1
\A1;29.7
 11
0.0
 21
1.0
 31
0.0
  0
POINT
  5
D45
100
AcDbEntity
  8
DEFPOINTS
  6
BYBLOCK
 62
     0
100
AcDbPoint
 10
-1574.293922
 20
-1411.46537
 30
0.0
  0
POINT
  5
D46
100
AcDbEntity
  8
DEFPOINTS
  6
BYBLOCK
 62
     0
100
AcDbPoint
 10
-1560.593922
 20
-1441.16537
 30
0.0
  0
POINT
  5
D47
100
AcDbEntity
  8
DEFPOINTS
  6
BYBLOCK
 62
     0
100
AcDbPoint
 10
-1530.537266
 20
-1441.16537
 30
0.0
  0
ENDBLK
  5
D48
100
AcDbEntity
  8
0
100
AcDbBlockEnd
  0
BLOCK
  5
D79
100
AcDbEntity
  8
0
100
AcDbBlockBegin
  2
*D41
 70
    65
 10
0.0
 20
0.0
 30
0.0
  3
*D41
  1

  0
LINE
  5
D7A
100
AcDbEntity
  8
0
  6
BYBLOCK
 62
     0
100
AcDbLine
 10
-1573.668922
 20
-1411.46537
 30
0.0
 11
-1516.749809
 21
-1411.46537
 31
0.0
  0
LINE
  5
D7B
100
AcDbEntity
  8
0
  6
BYBLOCK
 62
     0
100
AcDbLine
 10
-1564.737486
 20
-1558.96537
 30
0.0
 11
-1516.749809
 21
-1558.96537
 31
0.0
  0
LINE
  5
D7C
100
AcDbEntity
  8
0
  6
BYBLOCK
 62
     0
100
AcDbLine
 10
-1517.999809
 20
-1413.96537
 30
0.0
 11
-1517.999809
 21
-1556.46537
 31
0.0
  0
SOLID
  5
D7D
100
AcDbEntity
  8
0
  6
BYBLOCK
 62
     0
100
AcDbTrace
 10
-1518.416475
 20
-1413.96537
 30
0.0
 11
-1517.583142
 21
-1413.96537
 31
0.0
 12
-1517.999809
 22
-1411.46537
 32
0.0
 13
-1517.999809
 23
-1411.46537
 33
0.0
  0
SOLID
  5
D7E
100
AcDbEntity
  8
0
  6
BYBLOCK
 62
     0
100
AcDbTrace
 10
-1518.416475
 20
-1556.46537
 30
0.0
 11
-1517.583142
 21
-1556.46537
 31
0.0
 12
-1517.999809
 22
-1558.96537
 32
0.0
 13
-1517.999809
 23
-1558.96537
 33
0.0
  0
MTEXT
  5
D7F
100
AcDbEntity
  8
0
  6
BYBLOCK
 62
     0
100
AcDbMText
 10
-1520.374809
 20
-1485.21537
 30
0.0
 40
3.5
 41
0.0
 71
     5
 72
     1
  1
\A2;147.5{\H2.800000;±0.1}
 11
0.0
 21
1.0
 31
0.0
  0
POINT
  5
D80
100
AcDbEntity
  8
DEFPOINTS
  6
BYBLOCK
 62
     0
100
AcDbPoint
 10
-1574.293922
 20
-1411.46537
 30
0.0
  0
POINT
  5
D81
100
AcDbEntity
  8
DEFPOINTS
  6
BYBLOCK
 62
     0
100
AcDbPoint
 10
-1565.362486
 20
-1558.96537
 30
0.0
  0
POINT
  5
D82
100
AcDbEntity
  8
DEFPOINTS
  6
BYBLOCK
 62
     0
100
AcDbPoint
 10
-1517.999809
 20
-1558.96537
 30
0.0
  0
ENDBLK
  5
D83
100
AcDbEntity
  8
0
100
AcDbBlockEnd
  0
BLOCK
  5
DC2
100
AcDbEntity
  8
0
100
AcDbBlockBegin
  2
*D42
 70
    65
 10
0.0
 20
0.0
 30
0.0
  3
*D42
  1

  0
LINE
  5
DC3
100
AcDbEntity
  8
0
  6
BYBLOCK
 62
     0
100
AcDbLine
 10
-1585.918922
 20
-1411.46537
 30
0.0
 11
-1617.355561
 21
-1411.46537
 31
0.0
  0
LINE
  5
DC4
100
AcDbEntity
  8
0
  6
BYBLOCK
 62
     0
100
AcDbLine
 10
-1587.168922
 20
-1454.21537
 30
0.0
 11
-1617.355561
 21
-1454.21537
 31
0.0
  0
LINE
  5
DC5
100
AcDbEntity
  8
0
  6
BYBLOCK
 62
     0
100
AcDbLine
 10
-1616.105561
 20
-1413.96537
 30
0.0
 11
-1616.105561
 21
-1451.71537
 31
0.0
  0
SOLID
  5
DC6
100
AcDbEntity
  8
0
  6
BYBLOCK
 62
     0
100
AcDbTrace
 10
-1616.522228
 20
-1413.96537
 30
0.0
 11
-1615.688894
 21
-1413.96537
 31
0.0
 12
-1616.105561
 22
-1411.46537
 32
0.0
 13
-1616.105561
 23
-1411.46537
 33
0.0
  0
SOLID
  5
DC7
100
AcDbEntity
  8
0
  6
BYBLOCK
 62
     0
100
AcDbTrace
 10
-1616.522228
 20
-1451.71537
 30
0.0
 11
-1615.688894
 21
-1451.71537
 31
0.0
 12
-1616.105561
 22
-1454.21537
 32
0.0
 13
-1616.105561
 23
-1454.21537
 33
0.0
  0
MTEXT
  5
DC8
100
AcDbEntity
  8
0
  6
BYBLOCK
 62
     0
100
AcDbMText
 10
-1618.480561
 20
-1432.84037
 30
0.0
 40
3.5
 41
0.0
 71
     5
 72
     1
  1
\A1;42.75
 11
0.0
 21
1.0
 31
0.0
  0
POINT
  5
DC9
100
AcDbEntity
  8
DEFPOINTS
  6
BYBLOCK
 62
     0
100
AcDbPoint
 10
-1585.293922
 20
-1411.46537
 30
0.0
  0
POINT
  5
DCA
100
AcDbEntity
  8
DEFPOINTS
  6
BYBLOCK
 62
     0
100
AcDbPoint
 10
-1586.543922
 20
-1454.21537
 30
0.0
  0
POINT
  5
DCB
100
AcDbEntity
  8
DEFPOINTS
  6
BYBLOCK
 62
     0
100
AcDbPoint
 10
-1616.105561
 20
-1454.21537
 30
0.0
  0
ENDBLK
  5
DCC
100
AcDbEntity
  8
0
100
AcDbBlockEnd
  0
BLOCK
  5
DD0
100
AcDbEntity
  8
0
100
AcDbBlockBegin
  2
*D43
 70
    65
 10
0.0
 20
0.0
 30
0.0
  3
*D43
  1

  0
ARC
  5
DD1
100
AcDbEntity
  8
0
  6
BYBLOCK
 62
     0
100
AcDbCircle
 10
-1569.293922
 20
-1471.46537
 30
0.0
 40
10.701264
100
AcDbArc
 50
148.41591
 51
256.58409
  0
SOLID
  5
DD2
100
AcDbEntity
  8
0
  6
BYBLOCK
 62
     0
100
AcDbTrace
 10
-1578.737059
 20
-1465.602394
 30
0.0
 11
-1578.083007
 21
-1466.118785
 31
0.0
 12
-1576.860858
 22
-1463.898433
 32
0.0
 13
-1576.860858
 23
-1463.898433
 33
0.0
  0
SOLID
  5
DD3
100
AcDbEntity
  8
0
  6
BYBLOCK
 62
     0
100
AcDbTrace
 10
-1571.728138
 20
-1481.460798
 30
0.0
 11
-1571.825478
 21
-1482.288426
 31
0.0
 12
-1569.293922
 22
-1482.166633
 32
0.0
 13
-1569.293922
 23
-1482.166633
 33
0.0
  0
MTEXT
  5
DD4
100
AcDbEntity
  8
0
  6
BYBLOCK
 62
     0
100
AcDbMText
 10
-1576.986387
 20
-1474.651693
 30
0.0
 40
3.5
 41
0.0
 71
     5
 72
     1
  1
\A1;135°
 11
0.382683
 21
-0.92388
 31
0.0
  0
POINT
  5
DD5
100
AcDbEntity
  8
DEFPOINTS
  6
BYBLOCK
 62
     0
100
AcDbPoint
 10
-1579.995186
 20
-1471.46537
 30
0.0
  0
POINT
  5
DD6
100
AcDbEntity
  8
DEFPOINTS
  6
BYBLOCK
 62
     0
100
AcDbPoint
 10
-1586.543922
 20
-1454.21537
 30
0.0
  0
POINT
  5
DD7
100
AcDbEntity
  8
DEFPOINTS
  6
BYBLOCK
 62
     0
100
AcDbPoint
 10
-1569.293922
 20
-1471.46537
 30
0.0
  0
POINT
  5
DD8
100
AcDbEntity
  8
DEFPOINTS
  6
BYBLOCK
 62
     0
100
AcDbPoint
 10
-1569.293922
 20
-1550.005436
 30
0.0
  0
POINT
  5
DD9
100
AcDbEntity
  8
DEFPOINTS
  6
BYBLOCK
 62
     0
100
AcDbPoint
 10
-1569.293922
 20
-1471.46537
 30
0.0
  0
ENDBLK
  5
DDA
100
AcDbEntity
  8
0
100
AcDbBlockEnd
  0
BLOCK
  5
DDD
100
AcDbEntity
  8
0
100
AcDbBlockBegin
  2
*D44
 70
    65
 10
0.0
 20
0.0
 30
0.0
  3
*D44
  1

  0
LINE
  5
DDE
100
AcDbEntity
  8
0
  6
BYBLOCK
 62
     0
100
AcDbLine
 10
-1558.85198
 20
-1467.023428
 30
0.0
 11
-1554.971179
 21
-1463.142627
 31
0.0
  0
ARC
  5
DDF
100
AcDbEntity
  8
0
  6
BYBLOCK
 62
     0
100
AcDbCircle
 10
-1563.293922
 20
-1471.46537
 30
0.0
 40
10.520136
100
AcDbArc
 50
283.647985
 51
31.352015
  0
SOLID
  5
DE0
100
AcDbEntity
  8
0
  6
BYBLOCK
 62
     0
100
AcDbTrace
 10
-1560.762124
 20
-1482.102171
 30
0.0
 11
-1560.86114
 21
-1481.274741
 31
0.0
 12
-1563.293922
 22
-1481.985505
 32
0.0
 13
-1563.293922
 23
-1481.985505
 33
0.0
  0
SOLID
  5
DE1
100
AcDbEntity
  8
0
  6
BYBLOCK
 62
     0
100
AcDbTrace
 10
-1554.637413
 20
-1466.249333
 30
0.0
 11
-1553.982316
 21
-1465.734267
 31
0.0
 12
-1555.855063
 22
-1464.02651
 32
0.0
 13
-1555.855063
 23
-1464.02651
 33
0.0
  0
MTEXT
  5
DE2
100
AcDbEntity
  8
0
  6
BYBLOCK
 62
     0
100
AcDbMText
 10
-1555.768798
 20
-1474.582378
 30
0.0
 40
3.5
 41
0.0
 71
     5
 72
     1
  1
\A1;135°
 11
0.382683
 21
0.92388
 31
0.0
  0
POINT
  5
DE3
100
AcDbEntity
  8
DEFPOINTS
  6
BYBLOCK
 62
     0
100
AcDbPoint
 10
-1555.855063
 20
-1478.904229
 30
0.0
  0
POINT
  5
DE4
100
AcDbEntity
  8
DEFPOINTS
  6
BYBLOCK
 62
     0
100
AcDbPoint
 10
-1563.293922
 20
-1471.46537
 30
0.0
  0
POINT
  5
DE5
100
AcDbEntity
  8
DEFPOINTS
  6
BYBLOCK
 62
     0
100
AcDbPoint
 10
-1563.293922
 20
-1471.46537
 30
0.0
  0
POINT
  5
DE6
100
AcDbEntity
  8
DEFPOINTS
  6
BYBLOCK
 62
     0
100
AcDbPoint
 10
-1563.293922
 20
-1550.005436
 30
0.0
  0
POINT
  5
DE7
100
AcDbEntity
  8
DEFPOINTS
  6
BYBLOCK
 62
     0
100
AcDbPoint
 10
-1559.293922
 20
-1467.46537
 30
0.0
  0
ENDBLK
  5
DE8
100
AcDbEntity
  8
0
100
AcDbBlockEnd
  0
BLOCK
  5
E10
100
AcDbEntity
  8
0
100
AcDbBlockBegin
  2
*D45
 70
    65
 10
0.0
 20
0.0
 30
0.0
  3
*D45
  1

  0
LINE
  5
E11
100
AcDbEntity
  8
0
  6
BYBLOCK
 62
     0
100
AcDbLine
 10
-1559.293922
 20
-1468.09037
 30
0.0
 11
-1559.293922
 21
-1493.479867
 31
0.0
  0
LINE
  5
E12
100
AcDbEntity
  8
0
  6
BYBLOCK
 62
     0
100
AcDbLine
 10
-1563.293922
 20
-1492.215277
 30
0.0
 11
-1563.293922
 21
-1490.979867
 31
0.0
  0
LINE
  5
E13
100
AcDbEntity
  8
0
  6
BYBLOCK
 62
     0
100
AcDbLine
 10
-1565.793922
 20
-1492.229867
 30
0.0
 11
-1568.293922
 21
-1492.229867
 31
0.0
  0
LINE
  5
E14
100
AcDbEntity
  8
0
  6
BYBLOCK
 62
     0
100
AcDbLine
 10
-1556.793922
 20
-1492.229867
 30
0.0
 11
-1543.087344
 21
-1492.229867
 31
0.0
  0
SOLID
  5
E15
100
AcDbEntity
  8
0
  6
BYBLOCK
 62
     0
100
AcDbTrace
 10
-1565.793922
 20
-1491.8132
 30
0.0
 11
-1565.793922
 21
-1492.646534
 31
0.0
 12
-1563.293922
 22
-1492.229867
 32
0.0
 13
-1563.293922
 23
-1492.229867
 33
0.0
  0
SOLID
  5
E16
100
AcDbEntity
  8
0
  6
BYBLOCK
 62
     0
100
AcDbTrace
 10
-1556.793922
 20
-1491.8132
 30
0.0
 11
-1556.793922
 21
-1492.646534
 31
0.0
 12
-1559.293922
 22
-1492.229867
 32
0.0
 13
-1559.293922
 23
-1492.229867
 33
0.0
  0
MTEXT
  5
E17
100
AcDbEntity
  8
0
  6
BYBLOCK
 62
     0
100
AcDbMText
 10
-1549.628133
 20
-1489.854867
 30
0.0
 40
3.5
 41
0.0
 71
     5
 72
     1
  1
\A2;4{\H2.800000;±0.05}
  0
POINT
  5
E18
100
AcDbEntity
  8
DEFPOINTS
  6
BYBLOCK
 62
     0
100
AcDbPoint
 10
-1559.293922
 20
-1467.46537
 30
0.0
  0
POINT
  5
E19
100
AcDbEntity
  8
DEFPOINTS
  6
BYBLOCK
 62
     0
100
AcDbPoint
 10
-1563.293922
 20
-1492.840277
 30
0.0
  0
POINT
  5
E1A
100
AcDbEntity
  8
DEFPOINTS
  6
BYBLOCK
 62
     0
100
AcDbPoint
 10
-1563.293922
 20
-1492.229867
 30
0.0
  0
ENDBLK
  5
E1B
100
AcDbEntity
  8
0
100
AcDbBlockEnd
  0
BLOCK
  5
E36
100
AcDbEntity
  8
0
100
AcDbBlockBegin
  2
*D46
 70
    65
 10
0.0
 20
0.0
 30
0.0
  3
*D46
  1

  0
LINE
  5
E37
100
AcDbEntity
  8
0
  6
BYBLOCK
 62
     0
100
AcDbLine
 10
-1563.293922
 20
-1509.917145
 30
0.0
 11
-1563.293922
 21
-1507.766122
 31
0.0
  0
LINE
  5
E38
100
AcDbEntity
  8
0
  6
BYBLOCK
 62
     0
100
AcDbLine
 10
-1569.293922
 20
-1508.696326
 30
0.0
 11
-1569.293922
 21
-1507.766122
 31
0.0
  0
LINE
  5
E39
100
AcDbEntity
  8
0
  6
BYBLOCK
 62
     0
100
AcDbLine
 10
-1560.793922
 20
-1509.016122
 30
0.0
 11
-1558.293922
 21
-1509.016122
 31
0.0
  0
LINE
  5
E3A
100
AcDbEntity
  8
0
  6
BYBLOCK
 62
     0
100
AcDbLine
 10
-1571.793922
 20
-1509.016122
 30
0.0
 11
-1586.9905
 21
-1509.016122
 31
0.0
  0
SOLID
  5
E3B
100
AcDbEntity
  8
0
  6
BYBLOCK
 62
     0
100
AcDbTrace
 10
-1560.793922
 20
-1508.599455
 30
0.0
 11
-1560.793922
 21
-1509.432788
 31
0.0
 12
-1563.293922
 22
-1509.016122
 32
0.0
 13
-1563.293922
 23
-1509.016122
 33
0.0
  0
SOLID
  5
E3C
100
AcDbEntity
  8
0
  6
BYBLOCK
 62
     0
100
AcDbTrace
 10
-1571.793922
 20
-1508.599455
 30
0.0
 11
-1571.793922
 21
-1509.432788
 31
0.0
 12
-1569.293922
 22
-1509.016122
 32
0.0
 13
-1569.293922
 23
-1509.016122
 33
0.0
  0
MTEXT
  5
E3D
100
AcDbEntity
  8
0
  6
BYBLOCK
 62
     0
100
AcDbMText
 10
-1580.642211
 20
-1506.641122
 30
0.0
 40
3.5
 41
0.0
 71
     5
 72
     1
  1
\A2;6{\H2.800000;±0.05}
  0
POINT
  5
E3E
100
AcDbEntity
  8
DEFPOINTS
  6
BYBLOCK
 62
     0
100
AcDbPoint
 10
-1563.293922
 20
-1510.542145
 30
0.0
  0
POINT
  5
E3F
100
AcDbEntity
  8
DEFPOINTS
  6
BYBLOCK
 62
     0
100
AcDbPoint
 10
-1569.293922
 20
-1509.321326
 30
0.0
  0
POINT
  5
E40
100
AcDbEntity
  8
DEFPOINTS
  6
BYBLOCK
 62
     0
100
AcDbPoint
 10
-1569.293922
 20
-1509.016122
 30
0.0
  0
ENDBLK
  5
E41
100
AcDbEntity
  8
0
100
AcDbBlockEnd
  0
BLOCK
  5
E5B
100
AcDbEntity
  8
0
100
AcDbBlockBegin
  2
*X47
 70
    65
 10
0.0
 20
0.0
 30
0.0
  3
*X47
  1

  0
LINE
  5
E5D
100
AcDbEntity
  8
0
 62
     0
100
AcDbLine
 10
-1567.444675
 20
-1558.015406
 30
0.0
 11
-1566.293922
 21
-1556.864653
 31
0.0
  0
LINE
  5
E5E
100
AcDbEntity
  8
0
 62
     0
100
AcDbLine
 10
-1564.59729
 20
-1555.168021
 30
0.0
 11
-1564.452332
 21
-1555.023064
 31
0.0
  0
LINE
  5
E5F
100
AcDbEntity
  8
0
 62
     0
100
AcDbLine
 10
-1566.293922
 20
-1556.864653
 30
0.0
 11
-1565.234942
 21
-1555.805673
 31
0.0
  0
LINE
  5
E60
100
AcDbEntity
  8
0
 62
     0
100
AcDbLine
 10
-1567.495206
 20
-1557.796529
 30
0.0
 11
-1566.293922
 21
-1556.595245
 31
0.0
  0
LINE
  5
E61
100
AcDbEntity
  8
0
 62
     0
100
AcDbLine
 10
-1564.376508
 20
-1554.677831
 30
0.0
 11
-1564.371465
 21
-1554.672788
 31
0.0
  0
LINE
  5
E62
100
AcDbEntity
  8
0
 62
     0
100
AcDbLine
 10
-1566.293922
 20
-1556.595245
 30
0.0
 11
-1565.725131
 21
-1556.026455
 31
0.0
  0
LINE
  5
E63
100
AcDbEntity
  8
0
 62
     0
100
AcDbLine
 10
-1567.545738
 20
-1557.577653
 30
0.0
 11
-1566.293922
 21
-1556.325838
 31
0.0
  0
LINE
  5
E64
100
AcDbEntity
  8
0
 62
     0
100
AcDbLine
 10
-1566.293922
 20
-1556.325838
 30
0.0
 11
-1566.063847
 21
-1556.095763
 31
0.0
  0
LINE
  5
E65
100
AcDbEntity
  8
0
 62
     0
100
AcDbLine
 10
-1567.596269
 20
-1557.358777
 30
0.0
 11
-1566.345858
 21
-1556.108366
 31
0.0
  0
LINE
  5
E66
100
AcDbEntity
  8
0
 62
     0
100
AcDbLine
 10
-1567.646801
 20
-1557.139901
 30
0.0
 11
-1566.593392
 21
-1556.086493
 31
0.0
  0
LINE
  5
E67
100
AcDbEntity
  8
0
 62
     0
100
AcDbLine
 10
-1567.697332
 20
-1556.921025
 30
0.0
 11
-1566.816003
 21
-1556.039696
 31
0.0
  0
LINE
  5
E68
100
AcDbEntity
  8
0
 62
     0
100
AcDbLine
 10
-1567.747864
 20
-1556.702149
 30
0.0
 11
-1567.018779
 21
-1555.973064
 31
0.0
  0
LINE
  5
E69
100
AcDbEntity
  8
0
 62
     0
100
AcDbLine
 10
-1567.798395
 20
-1556.483273
 30
0.0
 11
-1567.204732
 21
-1555.889609
 31
0.0
  0
LINE
  5
E6A
100
AcDbEntity
  8
0
 62
     0
100
AcDbLine
 10
-1567.848927
 20
-1556.264396
 30
0.0
 11
-1567.375736
 21
-1555.791205
 31
0.0
  0
LINE
  5
E6B
100
AcDbEntity
  8
0
 62
     0
100
AcDbLine
 10
-1567.899458
 20
-1556.04552
 30
0.0
 11
-1567.53295
 21
-1555.679012
 31
0.0
  0
LINE
  5
E6C
100
AcDbEntity
  8
0
 62
     0
100
AcDbLine
 10
-1567.94999
 20
-1555.826644
 30
0.0
 11
-1567.677033
 21
-1555.553687
 31
0.0
  0
LINE
  5
E6D
100
AcDbEntity
  8
0
 62
     0
100
AcDbLine
 10
-1568.000521
 20
-1555.607768
 30
0.0
 11
-1567.808247
 21
-1555.415493
 31
0.0
  0
LINE
  5
E6E
100
AcDbEntity
  8
0
 62
     0
100
AcDbLine
 10
-1568.051053
 20
-1555.388892
 30
0.0
 11
-1567.926495
 21
-1555.264334
 31
0.0
  0
LINE
  5
E6F
100
AcDbEntity
  8
0
 62
     0
100
AcDbLine
 10
-1568.101585
 20
-1555.170016
 30
0.0
 11
-1568.031309
 21
-1555.09974
 31
0.0
  0
LINE
  5
E70
100
AcDbEntity
  8
0
 62
     0
100
AcDbLine
 10
-1568.152116
 20
-1554.95114
 30
0.0
 11
-1568.121775
 21
-1554.920799
 31
0.0
  0
LINE
  5
E71
100
AcDbEntity
  8
0
 62
     0
100
AcDbLine
 10
-1568.202648
 20
-1554.732263
 30
0.0
 11
-1568.196384
 21
-1554.726
 31
0.0
  0
LINE
  5
E72
100
AcDbEntity
  8
0
 62
     0
100
AcDbLine
 10
-1567.394143
 20
-1558.234282
 30
0.0
 11
-1566.293922
 21
-1557.134061
 31
0.0
  0
LINE
  5
E73
100
AcDbEntity
  8
0
 62
     0
100
AcDbLine
 10
-1566.293922
 20
-1557.134061
 30
0.0
 11
-1564.5332
 21
-1555.373339
 31
0.0
  0
LINE
  5
E74
100
AcDbEntity
  8
0
 62
     0
100
AcDbLine
 10
-1567.343611
 20
-1558.453158
 30
0.0
 11
-1566.293922
 21
-1557.403468
 31
0.0
  0
LINE
  5
E75
100
AcDbEntity
  8
0
 62
     0
100
AcDbLine
 10
-1566.293922
 20
-1557.403468
 30
0.0
 11
-1564.614067
 21
-1555.723614
 31
0.0
  0
LINE
  5
E76
100
AcDbEntity
  8
0
 62
     0
100
AcDbLine
 10
-1567.29308
 20
-1558.672034
 30
0.0
 11
-1566.293922
 21
-1557.672876
 31
0.0
  0
LINE
  5
E77
100
AcDbEntity
  8
0
 62
     0
100
AcDbLine
 10
-1566.293922
 20
-1557.672876
 30
0.0
 11
-1564.694935
 21
-1556.073889
 31
0.0
  0
LINE
  5
E78
100
AcDbEntity
  8
0
 62
     0
100
AcDbLine
 10
-1567.242548
 20
-1558.89091
 30
0.0
 11
-1566.293922
 21
-1557.942284
 31
0.0
  0
LINE
  5
E79
100
AcDbEntity
  8
0
 62
     0
100
AcDbLine
 10
-1566.293922
 20
-1557.942284
 30
0.0
 11
-1564.775802
 21
-1556.424164
 31
0.0
  0
LINE
  5
E7A
100
AcDbEntity
  8
0
 62
     0
100
AcDbLine
 10
-1567.0476
 20
-1558.96537
 30
0.0
 11
-1566.293922
 21
-1558.211691
 31
0.0
  0
LINE
  5
E7B
100
AcDbEntity
  8
0
 62
     0
100
AcDbLine
 10
-1566.293922
 20
-1558.211691
 30
0.0
 11
-1564.856669
 21
-1556.774439
 31
0.0
  0
LINE
  5
E7C
100
AcDbEntity
  8
0
 62
     0
100
AcDbLine
 10
-1566.778192
 20
-1558.96537
 30
0.0
 11
-1566.293922
 21
-1558.481099
 31
0.0
  0
LINE
  5
E7D
100
AcDbEntity
  8
0
 62
     0
100
AcDbLine
 10
-1566.293922
 20
-1558.481099
 30
0.0
 11
-1564.937537
 21
-1557.124714
 31
0.0
  0
LINE
  5
E7E
100
AcDbEntity
  8
0
 62
     0
100
AcDbLine
 10
-1566.508785
 20
-1558.96537
 30
0.0
 11
-1566.293922
 21
-1558.750507
 31
0.0
  0
LINE
  5
E7F
100
AcDbEntity
  8
0
 62
     0
100
AcDbLine
 10
-1566.293922
 20
-1558.750507
 30
0.0
 11
-1565.018404
 21
-1557.474989
 31
0.0
  0
LINE
  5
E80
100
AcDbEntity
  8
0
 62
     0
100
AcDbLine
 10
-1566.239377
 20
-1558.96537
 30
0.0
 11
-1565.099271
 21
-1557.825264
 31
0.0
  0
LINE
  5
E81
100
AcDbEntity
  8
0
 62
     0
100
AcDbLine
 10
-1565.969969
 20
-1558.96537
 30
0.0
 11
-1565.180139
 21
-1558.175539
 31
0.0
  0
LINE
  5
E82
100
AcDbEntity
  8
0
 62
     0
100
AcDbLine
 10
-1565.700562
 20
-1558.96537
 30
0.0
 11
-1565.261006
 21
-1558.525814
 31
0.0
  0
LINE
  5
E83
100
AcDbEntity
  8
0
 62
     0
100
AcDbLine
 10
-1565.431154
 20
-1558.96537
 30
0.0
 11
-1565.341873
 21
-1558.876089
 31
0.0
  0
ENDBLK
  5
E84
100
AcDbEntity
  8
0
100
AcDbBlockEnd
  0
ENDSEC
  0
SECTION
  2
ENTITIES
  0
LINE
  5
676
100
AcDbEntity
  8
OGGETTO
100
AcDbLine
 10
-1827.008766
 20
-1437.36537
 30
0.0
 11
-1826.508766
 21
-1436.86537
 31
0.0
  0
LINE
  5
677
100
AcDbEntity
  8
OGGETTO
100
AcDbLine
 10
-1827.008766
 20
-1427.96537
 30
0.0
 11
-1826.508766
 21
-1428.46537
 31
0.0
  0
LINE
  5
678
100
AcDbEntity
  8
OGGETTO
100
AcDbLine
 10
-1801.008766
 20
-1441.46537
 30
0.0
 11
-1800.008766
 21
-1442.46537
 31
0.0
  0
LINE
  5
679
100
AcDbEntity
  8
OGGETTO
100
AcDbLine
 10
-1815.008766
 20
-1411.46537
 30
0.0
 11
-1814.008766
 21
-1412.46537
 31
0.0
  0
LINE
  5
67A
100
AcDbEntity
  8
OGGETTO
100
AcDbLine
 10
-1827.008766
 20
-1412.46537
 30
0.0
 11
-1826.008766
 21
-1411.46537
 31
0.0
  0
ARC
  5
67D
100
AcDbEntity
  8
OGGETTO
100
AcDbCircle
 10
-1807.008766
 20
-1557.66537
 30
0.0
 40
0.8
100
AcDbArc
 50
193.0
 51
347.0
1001
ACAD
1000
ASC_BOUNDS
1002
{
1070
    19
1005
0
1002
}
  0
LINE
  5
67E
100
AcDbEntity
  8
OGGETTO
100
AcDbLine
 10
-1806.22927
 20
-1557.84533
 30
0.0
 11
-1804.008766
 21
-1548.227271
 31
0.0
1001
ACAD
1000
ASC_BOUNDS
1002
{
1070
    19
1002
}
  0
LINE
  5
67F
100
AcDbEntity
  8
OGGETTO
100
AcDbLine
 10
-1807.788262
 20
-1557.84533
 30
0.0
 11
-1810.008766
 21
-1548.227271
 31
0.0
1001
ACAD
1000
ASC_BOUNDS
1002
{
1070
    19
1002
}
  0
LINE
  5
680
100
AcDbEntity
  8
OGGETTO
100
AcDbLine
 10
-1801.008766
 20
-1441.46537
 30
0.0
 11
-1814.008766
 21
-1441.46537
 31
0.0
  0
LINE
  5
681
100
AcDbEntity
  8
OGGETTO
100
AcDbLine
 10
-1814.008766
 20
-1441.46537
 30
0.0
 11
-1814.008766
 21
-1412.46537
 31
0.0
  0
LINE
  5
682
100
AcDbEntity
  8
OGGETTO
100
AcDbLine
 10
-1815.008766
 20
-1411.46537
 30
0.0
 11
-1826.008766
 21
-1411.46537
 31
0.0
  0
LINE
  5
683
100
AcDbEntity
  8
OGGETTO
100
AcDbLine
 10
-1827.008766
 20
-1412.46537
 30
0.0
 11
-1827.008766
 21
-1427.96537
 31
0.0
  0
LINE
  5
684
100
AcDbEntity
  8
OGGETTO
100
AcDbLine
 10
-1826.508766
 20
-1428.46537
 30
0.0
 11
-1823.508766
 21
-1428.46537
 31
0.0
  0
LINE
  5
685
100
AcDbEntity
  8
OGGETTO
100
AcDbLine
 10
-1823.508766
 20
-1428.46537
 30
0.0
 11
-1823.508766
 21
-1436.86537
 31
0.0
  0
LINE
  5
686
100
AcDbEntity
  8
OGGETTO
100
AcDbLine
 10
-1823.508766
 20
-1436.86537
 30
0.0
 11
-1826.508766
 21
-1436.86537
 31
0.0
  0
LINE
  5
687
100
AcDbEntity
  8
OGGETTO
100
AcDbLine
 10
-1827.008766
 20
-1437.36537
 30
0.0
 11
-1827.008766
 21
-1454.46537
 31
0.0
  0
LINE
  5
688
100
AcDbEntity
  8
OGGETTO
100
AcDbLine
 10
-1827.008766
 20
-1454.46537
 30
0.0
 11
-1810.008766
 21
-1471.46537
 31
0.0
  0
LINE
  5
689
100
AcDbEntity
  8
OGGETTO
100
AcDbLine
 10
-1800.008766
 20
-1442.46537
 30
0.0
 11
-1800.008766
 21
-1467.46537
 31
0.0
  0
LINE
  5
68A
100
AcDbEntity
  8
OGGETTO
100
AcDbLine
 10
-1810.008766
 20
-1471.46537
 30
0.0
 11
-1810.008766
 21
-1548.227271
 31
0.0
  0
LINE
  5
68B
100
AcDbEntity
  8
OGGETTO
100
AcDbLine
 10
-1804.008766
 20
-1471.46537
 30
0.0
 11
-1804.008766
 21
-1548.227271
 31
0.0
  0
LINE
  5
68C
100
AcDbEntity
  8
OGGETTO
100
AcDbLine
 10
-1804.008766
 20
-1471.46537
 30
0.0
 11
-1800.008766
 21
-1467.46537
 31
0.0
  0
ENDSEC
  0
SECTION
  2
OBJECTS
  0
DICTIONARY
  5
C
100
AcDbDictionary
  3
ACAD_GROUP
350
D
  3
ACAD_MLINESTYLE
350
E
  0
DICTIONARY
  5
D
102
{ACAD_REACTORS
330
C
102
}
100
AcDbDictionary
  0
DICTIONARY
  5
E
102
{ACAD_REACTORS
330
C
102
}
100
AcDbDictionary
  3
STANDARD
350
1C
  0
MLINESTYLE
  5
1C
102
{ACAD_REACTORS
330
E
102
}
100
AcDbMlineStyle
  2
STANDARD
 70
     0
  3

 62
     0
 51
90.0
 52
90.0
 71
     2
 49
0.5
 62
   256
  6
BYLAYER
 49
-0.5
 62
   256
  6
BYLAYER
  0
ENDSEC
  0
EOF
