  0
SECTION
  2
HEADER
  9
$ACADVER
  1
AC1012
  9
$DWGCODEPAGE
  3
iso8859-1
  9
$INSBASE
 10
0.0
 20
0.0
 30
0.0
  9
$EXTMIN
 10
7.0
 20
5.0
 30
0.0
  9
$EXTMAX
 10
202.0
 20
288.0
 30
0.0
  9
$LIMMIN
 10
0.0
 20
0.0
  9
$LIMMAX
 10
210.0
 20
297.0
  9
$ORTHOMODE
 70
     1
  9
$REGENMODE
 70
     1
  9
$FILLMODE
 70
     1
  9
$QTEXTMODE
 70
     0
  9
$MIRRTEXT
 70
     1
  9
$DRAGMODE
 70
     2
  9
$LTSCALE
 40
1.0
  9
$OSMODE
 70
     0
  9
$ATTMODE
 70
     1
  9
$TEXTSIZE
 40
3.0
  9
$TRACEWID
 40
0.05
  9
$TEXTSTYLE
  7
STANDARD
  9
$CLAYER
  8
QUOTE
  9
$CELTYPE
  6
BYLAYER
  9
$CECOLOR
 62
   256
  9
$CELTSCALE
 40
1.0
  9
$DELOBJ
 70
     1
  9
$DISPSILH
 70
     0
  9
$DIMSCALE
 40
1.0
  9
$DIMASZ
 40
2.5
  9
$DIMEXO
 40
0.625
  9
$DIMDLI
 40
3.75
  9
$DIMRND
 40
0.0
  9
$DIMDLE
 40
0.0
  9
$DIMEXE
 40
1.25
  9
$DIMTP
 40
0.0
  9
$DIMTM
 40
0.0
  9
$DIMTXT
 40
3.0
  9
$DIMCEN
 40
2.5
  9
$DIMTSZ
 40
0.0
  9
$DIMTOL
 70
     0
  9
$DIMLIM
 70
     0
  9
$DIMTIH
 70
     0
  9
$DIMTOH
 70
     0
  9
$DIMSE1
 70
     0
  9
$DIMSE2
 70
     0
  9
$DIMTAD
 70
     1
  9
$DIMZIN
 70
     8
  9
$DIMBLK
  1

  9
$DIMASO
 70
     1
  9
$DIMSHO
 70
     1
  9
$DIMPOST
  1

  9
$DIMAPOST
  1

  9
$DIMALT
 70
     0
  9
$DIMALTD
 70
     2
  9
$DIMALTF
 40
0.03937
  9
$DIMLFAC
 40
1.0
  9
$DIMTOFL
 70
     0
  9
$DIMTVP
 40
0.0
  9
$DIMTIX
 70
     0
  9
$DIMSOXD
 70
     0
  9
$DIMSAH
 70
     0
  9
$DIMBLK1
  1

  9
$DIMBLK2
  1

  9
$DIMSTYLE
  2
STANDARD
  9
$DIMCLRD
 70
     0
  9
$DIMCLRE
 70
     0
  9
$DIMCLRT
 70
     0
  9
$DIMTFAC
 40
1.0
  9
$DIMGAP
 40
0.625
  9
$DIMJUST
 70
     0
  9
$DIMSD1
 70
     0
  9
$DIMSD2
 70
     0
  9
$DIMTOLJ
 70
     1
  9
$DIMTZIN
 70
     8
  9
$DIMALTZ
 70
     0
  9
$DIMALTTZ
 70
     0
  9
$DIMFIT
 70
     3
  9
$DIMUPT
 70
     0
  9
$DIMUNIT
 70
     2
  9
$DIMDEC
 70
     2
  9
$DIMTDEC
 70
     2
  9
$DIMALTU
 70
     2
  9
$DIMALTTD
 70
     2
  9
$DIMTXSTY
  7
STANDARD
  9
$DIMAUNIT
 70
     0
  9
$LUNITS
 70
     2
  9
$LUPREC
 70
     4
  9
$SKETCHINC
 40
0.1
  9
$FILLETRAD
 40
10.0
  9
$AUNITS
 70
     0
  9
$AUPREC
 70
     0
  9
$MENU
  1
acad
  9
$ELEVATION
 40
0.0
  9
$PELEVATION
 40
0.0
  9
$THICKNESS
 40
0.0
  9
$LIMCHECK
 70
     0
  9
$BLIPMODE
 70
     1
  9
$CHAMFERA
 40
1.0
  9
$CHAMFERB
 40
1.0
  9
$CHAMFERC
 40
20.0
  9
$CHAMFERD
 40
0.0
  9
$SKPOLY
 70
     0
  9
$TDCREATE
 40
2451701.561093055
  9
$TDUPDATE
 40
2452630.514301504
  9
$TDINDWG
 40
0.0708318287
  9
$TDUSRTIMER
 40
0.0708318287
  9
$USRTIMER
 70
     1
  9
$ANGBASE
 50
0.0
  9
$ANGDIR
 70
     0
  9
$PDMODE
 70
     0
  9
$PDSIZE
 40
0.0
  9
$PLINEWID
 40
0.0
  9
$COORDS
 70
     1
  9
$SPLFRAME
 70
     0
  9
$SPLINETYPE
 70
     6
  9
$SPLINESEGS
 70
     8
  9
$ATTDIA
 70
     0
  9
$ATTREQ
 70
     1
  9
$HANDLING
 70
     1
  9
$HANDSEED
  5
57B
  9
$SURFTAB1
 70
     6
  9
$SURFTAB2
 70
     6
  9
$SURFTYPE
 70
     6
  9
$SURFU
 70
     6
  9
$SURFV
 70
     6
  9
$UCSNAME
  2

  9
$UCSORG
 10
0.0
 20
0.0
 30
0.0
  9
$UCSXDIR
 10
1.0
 20
0.0
 30
0.0
  9
$UCSYDIR
 10
0.0
 20
1.0
 30
0.0
  9
$PUCSNAME
  2

  9
$PUCSORG
 10
0.0
 20
0.0
 30
0.0
  9
$PUCSXDIR
 10
1.0
 20
0.0
 30
0.0
  9
$PUCSYDIR
 10
0.0
 20
1.0
 30
0.0
  9
$USERI1
 70
     0
  9
$USERI2
 70
     0
  9
$USERI3
 70
     0
  9
$USERI4
 70
     0
  9
$USERI5
 70
     0
  9
$USERR1
 40
0.0
  9
$USERR2
 40
0.0
  9
$USERR3
 40
0.0
  9
$USERR4
 40
0.0
  9
$USERR5
 40
0.0
  9
$WORLDVIEW
 70
     1
  9
$SHADEDGE
 70
     3
  9
$SHADEDIF
 70
    70
  9
$TILEMODE
 70
     1
  9
$MAXACTVP
 70
    16
  9
$PINSBASE
 10
0.0
 20
0.0
 30
0.0
  9
$PLIMCHECK
 70
     0
  9
$PEXTMIN
 10
1.000000E+20
 20
1.000000E+20
 30
1.000000E+20
  9
$PEXTMAX
 10
-1.000000E+20
 20
-1.000000E+20
 30
-1.000000E+20
  9
$PLIMMIN
 10
0.0
 20
0.0
  9
$PLIMMAX
 10
12.0
 20
9.0
  9
$UNITMODE
 70
     0
  9
$VISRETAIN
 70
     0
  9
$PLINEGEN
 70
     0
  9
$PSLTSCALE
 70
     1
  9
$TREEDEPTH
 70
  3020
  9
$PICKSTYLE
 70
     1
  9
$CMLSTYLE
  2
STANDARD
  9
$CMLJUST
 70
     0
  9
$CMLSCALE
 40
20.0
  9
$SAVEIMAGES
 70
     0
  0
ENDSEC
  0
SECTION
  2
CLASSES
  0
ENDSEC
  0
SECTION
  2
TABLES
  0
TABLE
  2
VPORT
  5
8
100
AcDbSymbolTable
 70
     3
  0
VPORT
  5
57A
100
AcDbSymbolTableRecord
100
AcDbViewportTableRecord
  2
*ACTIVE
 70
     0
 10
0.0
 20
0.0
 11
1.0
 21
1.0
 12
89.76192
 22
151.808226
 13
0.0
 23
0.0
 14
10.0
 24
10.0
 15
10.0
 25
10.0
 16
0.0
 26
0.0
 36
1.0
 17
0.0
 27
0.0
 37
0.0
 40
134.479059
 41
1.873134
 42
50.0
 43
0.0
 44
0.0
 50
0.0
 51
0.0
 71
     0
 72
   100
 73
     1
 74
     0
 75
     0
 76
     0
 77
     0
 78
     0
  0
ENDTAB
  0
TABLE
  2
LTYPE
  5
5
100
AcDbSymbolTable
 70
     4
  0
LTYPE
  5
13
100
AcDbSymbolTableRecord
100
AcDbLinetypeTableRecord
  2
BYBLOCK
 70
     0
  3

 72
    65
 73
     0
 40
0.0
  0
LTYPE
  5
14
100
AcDbSymbolTableRecord
100
AcDbLinetypeTableRecord
  2
BYLAYER
 70
     0
  3

 72
    65
 73
     0
 40
0.0
  0
LTYPE
  5
15
100
AcDbSymbolTableRecord
100
AcDbLinetypeTableRecord
  2
CONTINUOUS
 70
    64
  3
Solid line
 72
    65
 73
     0
 40
0.0
  0
LTYPE
  5
94
100
AcDbSymbolTableRecord
100
AcDbLinetypeTableRecord
  2
ACAD_ISO04W100
 70
    64
  3
____ . ____ . ____ . ____ . ____ . ____ . ____ 
 72
    65
 73
     4
 40
30.5
 49
24.0
 74
     0
 49
-3.0
 74
     0
 49
0.5
 74
     0
 49
-3.0
 74
     0
  0
LTYPE
  5
225
100
AcDbSymbolTableRecord
100
AcDbLinetypeTableRecord
  2
TRATTEGGIATAX2
 70
    64
  3
____  ____  ____  ____  ____  ____  ____  ____ 
 72
    65
 73
     2
 40
1.5
 49
1.0
 74
     0
 49
-0.5
 74
     0
  0
LTYPE
  5
226
100
AcDbSymbolTableRecord
100
AcDbLinetypeTableRecord
  2
NASCOSTA
 70
    64
  3
__ __ __ __ __ __ __ __ __ __ __ __ __ __ __ __
 72
    65
 73
     2
 40
0.375
 49
0.25
 74
     0
 49
-0.125
 74
     0
  0
ENDTAB
  0
TABLE
  2
LAYER
  5
2
100
AcDbSymbolTable
 70
    10
  0
LAYER
  5
F
100
AcDbSymbolTableRecord
100
AcDbLayerTableRecord
  2
0
 70
     0
 62
     7
  6
CONTINUOUS
  0
LAYER
  5
95
100
AcDbSymbolTableRecord
100
AcDbLayerTableRecord
  2
DISEGNO
 70
    64
 62
     7
  6
CONTINUOUS
  0
LAYER
  5
96
100
AcDbSymbolTableRecord
100
AcDbLayerTableRecord
  2
ASSI
 70
    64
 62
     1
  6
ACAD_ISO04W100
  0
LAYER
  5
97
100
AcDbSymbolTableRecord
100
AcDbLayerTableRecord
  2
SEZIONE
 70
    64
 62
     3
  6
CONTINUOUS
  0
LAYER
  5
98
100
AcDbSymbolTableRecord
100
AcDbLayerTableRecord
  2
TEMPRA
 70
    64
 62
     2
  6
CONTINUOUS
  0
LAYER
  5
99
100
AcDbSymbolTableRecord
100
AcDbLayerTableRecord
  2
QUOTE
 70
    64
 62
     5
  6
CONTINUOUS
  0
LAYER
  5
9A
100
AcDbSymbolTableRecord
100
AcDbLayerTableRecord
  2
FOGLIO
 70
    64
 62
     8
  6
CONTINUOUS
  0
LAYER
  5
1A3
100
AcDbSymbolTableRecord
100
AcDbLayerTableRecord
  2
TRATTO
 70
    64
 62
     6
  6
NASCOSTA
  0
LAYER
  5
289
100
AcDbSymbolTableRecord
100
AcDbLayerTableRecord
  2
DEFPOINTS
 70
    64
 62
     7
  6
CONTINUOUS
  0
LAYER
  5
558
100
AcDbSymbolTableRecord
100
AcDbLayerTableRecord
  2
TESTO
 70
    64
 62
     6
  6
CONTINUOUS
  0
ENDTAB
  0
TABLE
  2
STYLE
  5
3
100
AcDbSymbolTable
 70
     2
  0
STYLE
  5
10
100
AcDbSymbolTableRecord
100
AcDbTextStyleTableRecord
  2
STANDARD
 70
    64
 40
0.0
 41
1.1
 50
0.0
 71
     0
 42
3.0
  3
C:\Programmi\AutoCAD LT\isocp.shx
  4

  0
STYLE
  5
B0
100
AcDbSymbolTableRecord
100
AcDbTextStyleTableRecord
  2
STYLE3
 70
    64
 40
0.0
 41
1.5
 50
0.0
 71
     0
 42
4.0
  3
C:\Programmi\AutoCAD LT\isocp3.shx
  4

  0
ENDTAB
  0
TABLE
  2
VIEW
  5
6
100
AcDbSymbolTable
 70
     0
  0
ENDTAB
  0
TABLE
  2
UCS
  5
7
100
AcDbSymbolTable
 70
     0
  0
ENDTAB
  0
TABLE
  2
APPID
  5
9
100
AcDbSymbolTable
 70
     1
  0
APPID
  5
11
100
AcDbSymbolTableRecord
100
AcDbRegAppTableRecord
  2
ACAD
 70
     0
  0
ENDTAB
  0
TABLE
  2
DIMSTYLE
  5
A
100
AcDbSymbolTable
 70
    13
  0
DIMSTYLE
105
1D
100
AcDbSymbolTableRecord
100
AcDbDimStyleTableRecord
  2
STANDARD
 70
     0
  3

  4

  5

  6

  7

 40
1.0
 41
2.5
 42
0.625
 43
3.75
 44
1.25
 45
0.0
 46
0.0
 47
0.0
 48
0.0
140
3.0
141
2.5
142
0.0
143
0.03937
144
1.0
145
0.0
146
1.0
147
0.625
 71
     0
 72
     0
 73
     0
 74
     0
 75
     0
 76
     0
 77
     1
 78
     8
170
     0
171
     2
172
     0
173
     0
174
     0
175
     0
176
     0
177
     0
178
     0
270
     2
271
     2
272
     2
273
     2
274
     2
340
10
275
     0
280
     0
281
     0
282
     0
283
     1
284
     8
285
     0
286
     0
287
     3
288
     0
  0
DIMSTYLE
105
198
100
AcDbSymbolTableRecord
100
AcDbDimStyleTableRecord
  2
TOLL-06
 70
     0
  3

  4

  5

  6

  7

 40
1.0
 41
2.5
 42
0.625
 43
3.75
 44
1.25
 45
0.0
 46
0.0
 47
-0.05
 48
0.0
140
3.0
141
2.5
142
0.0
143
0.03937
144
1.0
145
0.0
146
0.8
147
0.625
 71
     1
 72
     0
 73
     0
 74
     0
 75
     0
 76
     0
 77
     1
 78
     8
170
     0
171
     2
172
     0
173
     0
174
     0
175
     0
176
     0
177
     0
178
     0
270
     2
271
     2
272
     2
273
     2
274
     2
340
10
275
     0
280
     0
281
     0
282
     0
283
     2
284
     8
285
     0
286
     0
287
     3
288
     0
  0
DIMSTYLE
105
20B
100
AcDbSymbolTableRecord
100
AcDbDimStyleTableRecord
  2
TOLL-01
 70
     0
  3

  4

  5

  6

  7

 40
1.0
 41
2.5
 42
0.625
 43
3.75
 44
1.25
 45
0.0
 46
0.0
 47
0.02
 48
0.0
140
3.0
141
2.5
142
0.0
143
0.03937
144
1.0
145
0.0
146
0.8
147
0.625
 71
     1
 72
     0
 73
     0
 74
     0
 75
     0
 76
     0
 77
     1
 78
     8
170
     0
171
     2
172
     0
173
     0
174
     0
175
     0
176
     0
177
     0
178
     0
270
     2
271
     2
272
     2
273
     2
274
     2
340
10
275
     0
280
     0
281
     0
282
     0
283
     2
284
     8
285
     0
286
     0
287
     3
288
     0
  0
DIMSTYLE
105
232
100
AcDbSymbolTableRecord
100
AcDbDimStyleTableRecord
  2
TOLL-02
 70
     0
  3

  4

  5

  6

  7

 40
1.0
 41
2.5
 42
0.625
 43
3.75
 44
1.25
 45
0.0
 46
0.0
 47
-0.02
 48
0.0
140
3.0
141
2.5
142
0.0
143
0.03937
144
1.0
145
0.0
146
0.8
147
0.625
 71
     1
 72
     0
 73
     0
 74
     0
 75
     0
 76
     0
 77
     1
 78
     8
170
     0
171
     2
172
     0
173
     0
174
     0
175
     0
176
     0
177
     0
178
     0
270
     2
271
     2
272
     2
273
     2
274
     2
340
10
275
     0
280
     0
281
     0
282
     0
283
     2
284
     8
285
     0
286
     0
287
     3
288
     0
  0
DIMSTYLE
105
233
100
AcDbSymbolTableRecord
100
AcDbDimStyleTableRecord
  2
TOLL-03
 70
     0
  3

  4

  5

  6

  7

 40
1.0
 41
2.5
 42
0.625
 43
3.75
 44
1.25
 45
0.0
 46
0.0
 47
0.01
 48
0.01
140
3.0
141
2.5
142
0.0
143
0.03937
144
1.0
145
0.0
146
0.8
147
0.625
 71
     1
 72
     0
 73
     0
 74
     0
 75
     0
 76
     0
 77
     1
 78
     8
170
     0
171
     2
172
     0
173
     0
174
     0
175
     0
176
     0
177
     0
178
     0
270
     2
271
     2
272
     2
273
     2
274
     2
340
10
275
     0
280
     0
281
     0
282
     0
283
     2
284
     8
285
     0
286
     0
287
     3
288
     0
  0
DIMSTYLE
105
234
100
AcDbSymbolTableRecord
100
AcDbDimStyleTableRecord
  2
TOLL-04
 70
     0
  3

  4

  5

  6

  7

 40
1.0
 41
2.5
 42
0.625
 43
3.75
 44
1.25
 45
0.0
 46
0.0
 47
0.05
 48
0.05
140
3.0
141
2.5
142
0.0
143
0.03937
144
1.0
145
0.0
146
0.8
147
0.625
 71
     1
 72
     0
 73
     0
 74
     0
 75
     0
 76
     0
 77
     1
 78
     8
170
     0
171
     2
172
     0
173
     0
174
     0
175
     0
176
     0
177
     0
178
     0
270
     2
271
     2
272
     2
273
     2
274
     2
340
10
275
     0
280
     0
281
     0
282
     0
283
     2
284
     8
285
     0
286
     0
287
     3
288
     0
  0
DIMSTYLE
105
235
100
AcDbSymbolTableRecord
100
AcDbDimStyleTableRecord
  2
TOLL-05
 70
     0
  3

  4

  5

  6

  7

 40
1.0
 41
2.5
 42
0.625
 43
3.75
 44
1.25
 45
0.0
 46
0.0
 47
0.05
 48
0.0
140
3.0
141
2.5
142
0.0
143
0.03937
144
1.0
145
0.0
146
0.8
147
0.625
 71
     1
 72
     0
 73
     0
 74
     0
 75
     0
 76
     0
 77
     1
 78
     8
170
     0
171
     2
172
     0
173
     0
174
     0
175
     0
176
     0
177
     0
178
     0
270
     2
271
     2
272
     2
273
     2
274
     2
340
10
275
     0
280
     0
281
     0
282
     0
283
     2
284
     8
285
     0
286
     0
287
     3
288
     0
  0
DIMSTYLE
105
247
100
AcDbSymbolTableRecord
100
AcDbDimStyleTableRecord
  2
TOLL-07
 70
     0
  3

  4

  5

  6

  7

 40
1.0
 41
2.5
 42
0.625
 43
3.75
 44
1.25
 45
0.0
 46
0.0
 47
0.1
 48
0.1
140
3.0
141
2.5
142
0.0
143
0.03937
144
1.0
145
0.0
146
1.0
147
0.625
 71
     1
 72
     0
 73
     0
 74
     0
 75
     0
 76
     0
 77
     1
 78
     8
170
     0
171
     2
172
     0
173
     0
174
     0
175
     0
176
     0
177
     0
178
     0
270
     2
271
     2
272
     2
273
     2
274
     2
340
10
275
     0
280
     0
281
     0
282
     0
283
     1
284
     8
285
     0
286
     0
287
     3
288
     0
  0
DIMSTYLE
105
251
100
AcDbSymbolTableRecord
100
AcDbDimStyleTableRecord
  2
TOLL-08
 70
     0
  3

  4

  5

  6

  7

 40
1.0
 41
2.5
 42
0.625
 43
3.75
 44
1.25
 45
0.0
 46
0.0
 47
0.1
 48
0.0
140
3.0
141
2.5
142
0.0
143
0.03937
144
1.0
145
0.0
146
1.0
147
0.625
 71
     1
 72
     0
 73
     0
 74
     0
 75
     0
 76
     0
 77
     1
 78
     8
170
     0
171
     2
172
     0
173
     0
174
     0
175
     0
176
     0
177
     0
178
     0
270
     2
271
     2
272
     2
273
     2
274
     2
340
10
275
     0
280
     0
281
     0
282
     0
283
     1
284
     8
285
     0
286
     0
287
     3
288
     0
  0
DIMSTYLE
105
257
100
AcDbSymbolTableRecord
100
AcDbDimStyleTableRecord
  2
TOLL-09
 70
     0
  3

  4

  5

  6

  7

 40
1.0
 41
2.5
 42
0.625
 43
3.75
 44
1.25
 45
0.0
 46
0.0
 47
-0.1
 48
0.0
140
3.0
141
2.5
142
0.0
143
0.03937
144
1.0
145
0.0
146
1.0
147
0.625
 71
     1
 72
     0
 73
     0
 74
     0
 75
     0
 76
     0
 77
     1
 78
     8
170
     0
171
     2
172
     0
173
     0
174
     0
175
     0
176
     0
177
     0
178
     0
270
     2
271
     2
272
     2
273
     2
274
     2
340
10
275
     0
280
     0
281
     0
282
     0
283
     1
284
     8
285
     0
286
     0
287
     3
288
     0
  0
DIMSTYLE
105
258
100
AcDbSymbolTableRecord
100
AcDbDimStyleTableRecord
  2
TOLL-10
 70
     0
  3

  4

  5

  6

  7

 40
1.0
 41
2.5
 42
0.625
 43
3.75
 44
1.25
 45
0.0
 46
0.0
 47
0.2
 48
0.2
140
3.0
141
2.5
142
0.0
143
0.03937
144
1.0
145
0.0
146
1.0
147
0.625
 71
     1
 72
     0
 73
     0
 74
     0
 75
     0
 76
     0
 77
     1
 78
     8
170
     0
171
     2
172
     0
173
     0
174
     0
175
     0
176
     0
177
     0
178
     0
270
     2
271
     2
272
     2
273
     2
274
     2
340
10
275
     0
280
     0
281
     0
282
     0
283
     1
284
     8
285
     0
286
     0
287
     3
288
     0
  0
DIMSTYLE
105
259
100
AcDbSymbolTableRecord
100
AcDbDimStyleTableRecord
  2
TOLL-11
 70
     0
  3

  4

  5

  6

  7

 40
1.0
 41
2.5
 42
0.625
 43
3.75
 44
1.25
 45
0.0
 46
0.0
 47
0.2
 48
0.0
140
3.0
141
2.5
142
0.0
143
0.03937
144
1.0
145
0.0
146
1.0
147
0.625
 71
     1
 72
     0
 73
     0
 74
     0
 75
     0
 76
     0
 77
     1
 78
     8
170
     0
171
     2
172
     0
173
     0
174
     0
175
     0
176
     0
177
     0
178
     0
270
     2
271
     2
272
     2
273
     2
274
     2
340
10
275
     0
280
     0
281
     0
282
     0
283
     1
284
     8
285
     0
286
     0
287
     3
288
     0
  0
DIMSTYLE
105
559
100
AcDbSymbolTableRecord
100
AcDbDimStyleTableRecord
  2
ISO-25
 70
     0
  3

  4

  5

  6

  7

 40
1.0
 41
2.5
 42
0.625
 43
3.75
 44
1.25
 45
0.0
 46
0.0
 47
0.0
 48
0.0
140
2.5
141
2.5
142
0.0
143
0.0394
144
1.0
145
1.0
146
1.0
147
0.625
 71
     0
 72
     0
 73
     1
 74
     0
 75
     0
 76
     0
 77
     1
 78
     8
170
     0
171
     2
172
     1
173
     0
174
     0
175
     0
176
     0
177
     0
178
     0
270
     2
271
     4
272
     4
273
     2
274
     2
340
10
275
     0
280
     0
281
     0
282
     0
283
     1
284
     0
285
     0
286
     0
287
     3
288
     0
  0
ENDTAB
  0
TABLE
  2
BLOCK_RECORD
  5
1
100
AcDbSymbolTable
 70
    20
  0
BLOCK_RECORD
  5
19
100
AcDbSymbolTableRecord
100
AcDbBlockTableRecord
  2
*MODEL_SPACE
  0
BLOCK_RECORD
  5
16
100
AcDbSymbolTableRecord
100
AcDbBlockTableRecord
  2
*PAPER_SPACE
  0
BLOCK_RECORD
  5
281
100
AcDbSymbolTableRecord
100
AcDbBlockTableRecord
  2
*D0
  0
BLOCK_RECORD
  5
28F
100
AcDbSymbolTableRecord
100
AcDbBlockTableRecord
  2
*D1
  0
BLOCK_RECORD
  5
29D
100
AcDbSymbolTableRecord
100
AcDbBlockTableRecord
  2
*D2
  0
BLOCK_RECORD
  5
2AA
100
AcDbSymbolTableRecord
100
AcDbBlockTableRecord
  2
*D3
  0
BLOCK_RECORD
  5
2B7
100
AcDbSymbolTableRecord
100
AcDbBlockTableRecord
  2
*D4
  0
BLOCK_RECORD
  5
2C5
100
AcDbSymbolTableRecord
100
AcDbBlockTableRecord
  2
*D5
  0
BLOCK_RECORD
  5
2DF
100
AcDbSymbolTableRecord
100
AcDbBlockTableRecord
  2
*D6
  0
BLOCK_RECORD
  5
2EC
100
AcDbSymbolTableRecord
100
AcDbBlockTableRecord
  2
*D7
  0
BLOCK_RECORD
  5
314
100
AcDbSymbolTableRecord
100
AcDbBlockTableRecord
  2
*D8
  0
BLOCK_RECORD
  5
3F4
100
AcDbSymbolTableRecord
100
AcDbBlockTableRecord
  2
*D9
  0
BLOCK_RECORD
  5
448
100
AcDbSymbolTableRecord
100
AcDbBlockTableRecord
  2
*D10
  0
BLOCK_RECORD
  5
465
100
AcDbSymbolTableRecord
100
AcDbBlockTableRecord
  2
*D11
  0
BLOCK_RECORD
  5
47C
100
AcDbSymbolTableRecord
100
AcDbBlockTableRecord
  2
*D12
  0
BLOCK_RECORD
  5
496
100
AcDbSymbolTableRecord
100
AcDbBlockTableRecord
  2
*D13
  0
BLOCK_RECORD
  5
4A4
100
AcDbSymbolTableRecord
100
AcDbBlockTableRecord
  2
*D14
  0
BLOCK_RECORD
  5
4C1
100
AcDbSymbolTableRecord
100
AcDbBlockTableRecord
  2
*D15
  0
BLOCK_RECORD
  5
4CC
100
AcDbSymbolTableRecord
100
AcDbBlockTableRecord
  2
*D16
  0
BLOCK_RECORD
  5
4F3
100
AcDbSymbolTableRecord
100
AcDbBlockTableRecord
  2
*X17
  0
BLOCK_RECORD
  5
534
100
AcDbSymbolTableRecord
100
AcDbBlockTableRecord
  2
RUGOSITA
  0
BLOCK_RECORD
  5
55A
100
AcDbSymbolTableRecord
100
AcDbBlockTableRecord
  2
A$CB1E2
  0
ENDTAB
  0
ENDSEC
  0
SECTION
  2
BLOCKS
  0
BLOCK
  5
1A
100
AcDbEntity
  8
0
100
AcDbBlockBegin
  2
*MODEL_SPACE
 70
     0
 10
0.0
 20
0.0
 30
0.0
  3
*MODEL_SPACE
  1

  0
ENDBLK
  5
1B
100
AcDbEntity
  8
0
100
AcDbBlockEnd
  0
BLOCK
  5
17
100
AcDbEntity
 67
     1
  8
0
100
AcDbBlockBegin
  2
*PAPER_SPACE
 70
     0
 10
0.0
 20
0.0
 30
0.0
  3
*PAPER_SPACE
  1

  0
ENDBLK
  5
18
100
AcDbEntity
 67
     1
  8
0
100
AcDbBlockEnd
  0
BLOCK
  5
3AC
100
AcDbEntity
  8
0
100
AcDbBlockBegin
  2
*D0
 70
    65
 10
0.0
 20
0.0
 30
0.0
  3
*D0
  1

  0
LINE
  5
3AD
100
AcDbEntity
  8
0
  6
BYBLOCK
 62
     0
100
AcDbLine
 10
60.16527
 20
208.401236
 30
0.0
 11
60.16527
 21
232.813437
 31
0.0
  0
LINE
  5
3AE
100
AcDbEntity
  8
0
  6
BYBLOCK
 62
     0
100
AcDbLine
 10
73.16527
 20
208.401236
 30
0.0
 11
73.16527
 21
232.813437
 31
0.0
  0
LINE
  5
3AF
100
AcDbEntity
  8
0
  6
BYBLOCK
 62
     0
100
AcDbLine
 10
70.66527
 20
231.563437
 30
0.0
 11
62.66527
 21
231.563437
 31
0.0
  0
LINE
  5
3B0
100
AcDbEntity
  8
0
  6
BYBLOCK
 62
     0
100
AcDbLine
 10
60.16527
 20
231.563437
 30
0.0
 11
46.14627
 21
231.563437
 31
0.0
  0
SOLID
  5
3B1
100
AcDbEntity
  8
0
  6
BYBLOCK
 62
     0
100
AcDbTrace
 10
70.66527
 20
231.980103
 30
0.0
 11
70.66527
 21
231.14677
 31
0.0
 12
73.16527
 22
231.563437
 32
0.0
 13
73.16527
 23
231.563437
 33
0.0
  0
SOLID
  5
3B2
100
AcDbEntity
  8
0
  6
BYBLOCK
 62
     0
100
AcDbTrace
 10
62.66527
 20
231.980103
 30
0.0
 11
62.66527
 21
231.14677
 31
0.0
 12
60.16527
 22
231.563437
 32
0.0
 13
60.16527
 23
231.563437
 33
0.0
  0
MTEXT
  5
3B3
100
AcDbEntity
  8
0
  6
BYBLOCK
 62
     0
100
AcDbMText
 10
52.84327
 20
234.929145
 30
0.0
 40
3.0
 41
0.0
 71
     5
 72
     1
  1
\A2;13{\H2.400000;\S+0.02^  0;}
  0
POINT
  5
3B4
100
AcDbEntity
  8
DEFPOINTS
  6
BYBLOCK
 62
     0
100
AcDbPoint
 10
60.16527
 20
207.776236
 30
0.0
  0
POINT
  5
3B5
100
AcDbEntity
  8
DEFPOINTS
  6
BYBLOCK
 62
     0
100
AcDbPoint
 10
73.16527
 20
207.776236
 30
0.0
  0
POINT
  5
3B6
100
AcDbEntity
  8
DEFPOINTS
  6
BYBLOCK
 62
     0
100
AcDbPoint
 10
73.16527
 20
231.563437
 30
0.0
  0
ENDBLK
  5
3B7
100
AcDbEntity
  8
0
100
AcDbBlockEnd
  0
BLOCK
  5
3C4
100
AcDbEntity
  8
0
100
AcDbBlockBegin
  2
*D1
 70
    65
 10
0.0
 20
0.0
 30
0.0
  3
*D1
  1

  0
LINE
  5
3C5
100
AcDbEntity
  8
0
  6
BYBLOCK
 62
     0
100
AcDbLine
 10
73.16527
 20
208.401236
 30
0.0
 11
73.16527
 21
232.813437
 31
0.0
  0
LINE
  5
3C6
100
AcDbEntity
  8
0
  6
BYBLOCK
 62
     0
100
AcDbLine
 10
80.16527
 20
230.322718
 30
0.0
 11
80.16527
 21
232.813437
 31
0.0
  0
LINE
  5
3C7
100
AcDbEntity
  8
0
  6
BYBLOCK
 62
     0
100
AcDbLine
 10
75.66527
 20
231.563437
 30
0.0
 11
77.66527
 21
231.563437
 31
0.0
  0
LINE
  5
3C8
100
AcDbEntity
  8
0
  6
BYBLOCK
 62
     0
100
AcDbLine
 10
80.16527
 20
231.563437
 30
0.0
 11
104.00634
 21
231.563437
 31
0.0
  0
SOLID
  5
3C9
100
AcDbEntity
  8
0
  6
BYBLOCK
 62
     0
100
AcDbTrace
 10
75.66527
 20
231.980103
 30
0.0
 11
75.66527
 21
231.14677
 31
0.0
 12
73.16527
 22
231.563437
 32
0.0
 13
73.16527
 23
231.563437
 33
0.0
  0
SOLID
  5
3CA
100
AcDbEntity
  8
0
  6
BYBLOCK
 62
     0
100
AcDbTrace
 10
77.66527
 20
231.980103
 30
0.0
 11
77.66527
 21
231.14677
 31
0.0
 12
80.16527
 22
231.563437
 32
0.0
 13
80.16527
 23
231.563437
 33
0.0
  0
MTEXT
  5
3CB
100
AcDbEntity
  8
0
  6
BYBLOCK
 62
     0
100
AcDbMText
 10
98.79434
 20
233.688437
 30
0.0
 40
3.0
 41
0.0
 71
     5
 72
     1
  1
\A2;7{\H2.400000;±0.01}
  0
POINT
  5
3CC
100
AcDbEntity
  8
DEFPOINTS
  6
BYBLOCK
 62
     0
100
AcDbPoint
 10
73.16527
 20
207.776236
 30
0.0
  0
POINT
  5
3CD
100
AcDbEntity
  8
DEFPOINTS
  6
BYBLOCK
 62
     0
100
AcDbPoint
 10
80.16527
 20
229.697718
 30
0.0
  0
POINT
  5
3CE
100
AcDbEntity
  8
DEFPOINTS
  6
BYBLOCK
 62
     0
100
AcDbPoint
 10
80.16527
 20
231.563437
 30
0.0
  0
ENDBLK
  5
3CF
100
AcDbEntity
  8
0
100
AcDbBlockEnd
  0
BLOCK
  5
395
100
AcDbEntity
  8
0
100
AcDbBlockBegin
  2
*D2
 70
    65
 10
0.0
 20
0.0
 30
0.0
  3
*D2
  1

  0
LINE
  5
396
100
AcDbEntity
  8
0
  6
BYBLOCK
 62
     0
100
AcDbLine
 10
60.16527
 20
208.401236
 30
0.0
 11
60.16527
 21
250.773245
 31
0.0
  0
LINE
  5
397
100
AcDbEntity
  8
0
  6
BYBLOCK
 62
     0
100
AcDbLine
 10
86.16527
 20
178.401236
 30
0.0
 11
86.16527
 21
250.773245
 31
0.0
  0
LINE
  5
398
100
AcDbEntity
  8
0
  6
BYBLOCK
 62
     0
100
AcDbLine
 10
62.66527
 20
249.523245
 30
0.0
 11
83.66527
 21
249.523245
 31
0.0
  0
SOLID
  5
399
100
AcDbEntity
  8
0
  6
BYBLOCK
 62
     0
100
AcDbTrace
 10
62.66527
 20
249.939912
 30
0.0
 11
62.66527
 21
249.106578
 31
0.0
 12
60.16527
 22
249.523245
 32
0.0
 13
60.16527
 23
249.523245
 33
0.0
  0
SOLID
  5
39A
100
AcDbEntity
  8
0
  6
BYBLOCK
 62
     0
100
AcDbTrace
 10
83.66527
 20
249.939912
 30
0.0
 11
83.66527
 21
249.106578
 31
0.0
 12
86.16527
 22
249.523245
 32
0.0
 13
86.16527
 23
249.523245
 33
0.0
  0
MTEXT
  5
39B
100
AcDbEntity
  8
0
  6
BYBLOCK
 62
     0
100
AcDbMText
 10
73.16527
 20
252.888954
 30
0.0
 40
3.0
 41
0.0
 71
     5
 72
     1
  1
\A2;26{\H2.400000;\S+0.02^  0;}
  0
POINT
  5
39C
100
AcDbEntity
  8
DEFPOINTS
  6
BYBLOCK
 62
     0
100
AcDbPoint
 10
60.16527
 20
207.776236
 30
0.0
  0
POINT
  5
39D
100
AcDbEntity
  8
DEFPOINTS
  6
BYBLOCK
 62
     0
100
AcDbPoint
 10
86.16527
 20
177.776236
 30
0.0
  0
POINT
  5
39E
100
AcDbEntity
  8
DEFPOINTS
  6
BYBLOCK
 62
     0
100
AcDbPoint
 10
86.16527
 20
249.523245
 30
0.0
  0
ENDBLK
  5
39F
100
AcDbEntity
  8
0
100
AcDbBlockEnd
  0
BLOCK
  5
2AB
100
AcDbEntity
  8
0
100
AcDbBlockBegin
  2
*D3
 70
    65
 10
0.0
 20
0.0
 30
0.0
  3
*D3
  1

  0
LINE
  5
2AC
100
AcDbEntity
  8
0
  6
BYBLOCK
 62
     0
100
AcDbLine
 10
85.697706
 20
207.776236
 30
0.0
 11
71.119949
 21
207.776236
 31
0.0
  0
LINE
  5
2AD
100
AcDbEntity
  8
0
  6
BYBLOCK
 62
     0
100
AcDbLine
 10
85.697706
 20
190.776236
 30
0.0
 11
71.119949
 21
190.776236
 31
0.0
  0
LINE
  5
2AE
100
AcDbEntity
  8
0
  6
BYBLOCK
 62
     0
100
AcDbLine
 10
72.369949
 20
205.276236
 30
0.0
 11
72.369949
 21
193.276236
 31
0.0
  0
SOLID
  5
2AF
100
AcDbEntity
  8
0
  6
BYBLOCK
 62
     0
100
AcDbTrace
 10
71.953283
 20
205.276236
 30
0.0
 11
72.786616
 21
205.276236
 31
0.0
 12
72.369949
 22
207.776236
 32
0.0
 13
72.369949
 23
207.776236
 33
0.0
  0
SOLID
  5
2B0
100
AcDbEntity
  8
0
  6
BYBLOCK
 62
     0
100
AcDbTrace
 10
71.953283
 20
193.276236
 30
0.0
 11
72.786616
 21
193.276236
 31
0.0
 12
72.369949
 22
190.776236
 32
0.0
 13
72.369949
 23
190.776236
 33
0.0
  0
MTEXT
  5
2B1
100
AcDbEntity
  8
0
  6
BYBLOCK
 62
     0
100
AcDbMText
 10
70.244949
 20
199.276236
 30
0.0
 40
3.0
 41
0.0
 71
     5
 72
     1
  1
\A1;17
 11
0.0
 21
1.0
 31
0.0
  0
POINT
  5
2B2
100
AcDbEntity
  8
DEFPOINTS
  6
BYBLOCK
 62
     0
100
AcDbPoint
 10
86.322706
 20
207.776236
 30
0.0
  0
POINT
  5
2B3
100
AcDbEntity
  8
DEFPOINTS
  6
BYBLOCK
 62
     0
100
AcDbPoint
 10
86.322706
 20
190.776236
 30
0.0
  0
POINT
  5
2B4
100
AcDbEntity
  8
DEFPOINTS
  6
BYBLOCK
 62
     0
100
AcDbPoint
 10
72.369949
 20
190.776236
 30
0.0
  0
ENDBLK
  5
2B5
100
AcDbEntity
  8
0
100
AcDbBlockEnd
  0
BLOCK
  5
2B8
100
AcDbEntity
  8
0
100
AcDbBlockBegin
  2
*D4
 70
    65
 10
0.0
 20
0.0
 30
0.0
  3
*D4
  1

  0
LINE
  5
2B9
100
AcDbEntity
  8
0
  6
BYBLOCK
 62
     0
100
AcDbLine
 10
85.697706
 20
190.776236
 30
0.0
 11
71.23014
 21
190.776236
 31
0.0
  0
LINE
  5
2BA
100
AcDbEntity
  8
0
  6
BYBLOCK
 62
     0
100
AcDbLine
 10
85.697706
 20
182.376236
 30
0.0
 11
71.23014
 21
182.376236
 31
0.0
  0
LINE
  5
2BB
100
AcDbEntity
  8
0
  6
BYBLOCK
 62
     0
100
AcDbLine
 10
72.48014
 20
193.276236
 30
0.0
 11
72.48014
 21
195.776236
 31
0.0
  0
LINE
  5
2BC
100
AcDbEntity
  8
0
  6
BYBLOCK
 62
     0
100
AcDbLine
 10
72.48014
 20
179.876236
 30
0.0
 11
72.48014
 21
177.376236
 31
0.0
  0
SOLID
  5
2BD
100
AcDbEntity
  8
0
  6
BYBLOCK
 62
     0
100
AcDbTrace
 10
72.063473
 20
193.276236
 30
0.0
 11
72.896807
 21
193.276236
 31
0.0
 12
72.48014
 22
190.776236
 32
0.0
 13
72.48014
 23
190.776236
 33
0.0
  0
SOLID
  5
2BE
100
AcDbEntity
  8
0
  6
BYBLOCK
 62
     0
100
AcDbTrace
 10
72.063473
 20
179.876236
 30
0.0
 11
72.896807
 21
179.876236
 31
0.0
 12
72.48014
 22
182.376236
 32
0.0
 13
72.48014
 23
182.376236
 33
0.0
  0
MTEXT
  5
2BF
100
AcDbEntity
  8
0
  6
BYBLOCK
 62
     0
100
AcDbMText
 10
70.35514
 20
186.576236
 30
0.0
 40
3.0
 41
0.0
 71
     5
 72
     1
  1
\A1;8.4
 11
0.0
 21
1.0
 31
0.0
  0
POINT
  5
2C0
100
AcDbEntity
  8
DEFPOINTS
  6
BYBLOCK
 62
     0
100
AcDbPoint
 10
86.322706
 20
190.776236
 30
0.0
  0
POINT
  5
2C1
100
AcDbEntity
  8
DEFPOINTS
  6
BYBLOCK
 62
     0
100
AcDbPoint
 10
86.322706
 20
182.376236
 30
0.0
  0
POINT
  5
2C2
100
AcDbEntity
  8
DEFPOINTS
  6
BYBLOCK
 62
     0
100
AcDbPoint
 10
72.48014
 20
182.376236
 30
0.0
  0
ENDBLK
  5
2C3
100
AcDbEntity
  8
0
100
AcDbBlockEnd
  0
BLOCK
  5
2D3
100
AcDbEntity
  8
0
100
AcDbBlockBegin
  2
*D5
 70
    65
 10
0.0
 20
0.0
 30
0.0
  3
*D5
  1

  0
LINE
  5
2D4
100
AcDbEntity
  8
0
  6
BYBLOCK
 62
     0
100
AcDbLine
 10
86.322706
 20
191.401236
 30
0.0
 11
86.322706
 21
200.691024
 31
0.0
  0
LINE
  5
2D5
100
AcDbEntity
  8
0
  6
BYBLOCK
 62
     0
100
AcDbLine
 10
89.822706
 20
191.401236
 30
0.0
 11
89.822706
 21
200.691024
 31
0.0
  0
LINE
  5
2D6
100
AcDbEntity
  8
0
  6
BYBLOCK
 62
     0
100
AcDbLine
 10
83.822706
 20
199.441024
 30
0.0
 11
81.322706
 21
199.441024
 31
0.0
  0
LINE
  5
2D7
100
AcDbEntity
  8
0
  6
BYBLOCK
 62
     0
100
AcDbLine
 10
92.322706
 20
199.441024
 30
0.0
 11
98.954397
 21
199.441024
 31
0.0
  0
SOLID
  5
2D8
100
AcDbEntity
  8
0
  6
BYBLOCK
 62
     0
100
AcDbTrace
 10
83.822706
 20
199.857691
 30
0.0
 11
83.822706
 21
199.024357
 31
0.0
 12
86.322706
 22
199.441024
 32
0.0
 13
86.322706
 23
199.441024
 33
0.0
  0
SOLID
  5
2D9
100
AcDbEntity
  8
0
  6
BYBLOCK
 62
     0
100
AcDbTrace
 10
92.322706
 20
199.857691
 30
0.0
 11
92.322706
 21
199.024357
 31
0.0
 12
89.822706
 22
199.441024
 32
0.0
 13
89.822706
 23
199.441024
 33
0.0
  0
MTEXT
  5
2DA
100
AcDbEntity
  8
0
  6
BYBLOCK
 62
     0
100
AcDbMText
 10
95.951052
 20
201.566024
 30
0.0
 40
3.0
 41
0.0
 71
     5
 72
     1
  1
\A1;3.5
  0
POINT
  5
2DB
100
AcDbEntity
  8
DEFPOINTS
  6
BYBLOCK
 62
     0
100
AcDbPoint
 10
86.322706
 20
190.776236
 30
0.0
  0
POINT
  5
2DC
100
AcDbEntity
  8
DEFPOINTS
  6
BYBLOCK
 62
     0
100
AcDbPoint
 10
89.822706
 20
190.776236
 30
0.0
  0
POINT
  5
2DD
100
AcDbEntity
  8
DEFPOINTS
  6
BYBLOCK
 62
     0
100
AcDbPoint
 10
89.822706
 20
199.441024
 30
0.0
  0
ENDBLK
  5
2DE
100
AcDbEntity
  8
0
100
AcDbBlockEnd
  0
BLOCK
  5
2E0
100
AcDbEntity
  8
0
100
AcDbBlockBegin
  2
*D6
 70
    65
 10
0.0
 20
0.0
 30
0.0
  3
*D6
  1

  0
LINE
  5
2E1
100
AcDbEntity
  8
0
  6
BYBLOCK
 62
     0
100
AcDbLine
 10
99.947706
 20
207.776236
 30
0.0
 11
144.693099
 21
207.776236
 31
0.0
  0
LINE
  5
2E2
100
AcDbEntity
  8
0
  6
BYBLOCK
 62
     0
100
AcDbLine
 10
112.947706
 20
177.776236
 30
0.0
 11
144.693099
 21
177.776236
 31
0.0
  0
LINE
  5
2E3
100
AcDbEntity
  8
0
  6
BYBLOCK
 62
     0
100
AcDbLine
 10
143.443099
 20
205.276236
 30
0.0
 11
143.443099
 21
180.276236
 31
0.0
  0
SOLID
  5
2E4
100
AcDbEntity
  8
0
  6
BYBLOCK
 62
     0
100
AcDbTrace
 10
143.026432
 20
205.276236
 30
0.0
 11
143.859765
 21
205.276236
 31
0.0
 12
143.443099
 22
207.776236
 32
0.0
 13
143.443099
 23
207.776236
 33
0.0
  0
SOLID
  5
2E5
100
AcDbEntity
  8
0
  6
BYBLOCK
 62
     0
100
AcDbTrace
 10
143.026432
 20
180.276236
 30
0.0
 11
143.859765
 21
180.276236
 31
0.0
 12
143.443099
 22
177.776236
 32
0.0
 13
143.443099
 23
177.776236
 33
0.0
  0
MTEXT
  5
2E6
100
AcDbEntity
  8
0
  6
BYBLOCK
 62
     0
100
AcDbMText
 10
141.318099
 20
192.776236
 30
0.0
 40
3.0
 41
0.0
 71
     5
 72
     1
  1
\A1;30
 11
0.0
 21
1.0
 31
0.0
  0
POINT
  5
2E7
100
AcDbEntity
  8
DEFPOINTS
  6
BYBLOCK
 62
     0
100
AcDbPoint
 10
99.322706
 20
207.776236
 30
0.0
  0
POINT
  5
2E8
100
AcDbEntity
  8
DEFPOINTS
  6
BYBLOCK
 62
     0
100
AcDbPoint
 10
112.322706
 20
177.776236
 30
0.0
  0
POINT
  5
2E9
100
AcDbEntity
  8
DEFPOINTS
  6
BYBLOCK
 62
     0
100
AcDbPoint
 10
143.443099
 20
177.776236
 30
0.0
  0
ENDBLK
  5
2EA
100
AcDbEntity
  8
0
100
AcDbBlockEnd
  0
BLOCK
  5
3D0
100
AcDbEntity
  8
0
100
AcDbBlockBegin
  2
*D7
 70
    65
 10
0.0
 20
0.0
 30
0.0
  3
*D7
  1

  0
LINE
  5
3D1
100
AcDbEntity
  8
0
  6
BYBLOCK
 62
     0
100
AcDbLine
 10
86.79027
 20
177.776236
 30
0.0
 11
118.646142
 21
177.776236
 31
0.0
  0
LINE
  5
3D2
100
AcDbEntity
  8
0
  6
BYBLOCK
 62
     0
100
AcDbLine
 10
80.79027
 20
91.776236
 30
0.0
 11
118.646142
 21
91.776236
 31
0.0
  0
LINE
  5
3D3
100
AcDbEntity
  8
0
  6
BYBLOCK
 62
     0
100
AcDbLine
 10
117.396142
 20
175.276236
 30
0.0
 11
117.396142
 21
94.276236
 31
0.0
  0
SOLID
  5
3D4
100
AcDbEntity
  8
0
  6
BYBLOCK
 62
     0
100
AcDbTrace
 10
116.979476
 20
175.276236
 30
0.0
 11
117.812809
 21
175.276236
 31
0.0
 12
117.396142
 22
177.776236
 32
0.0
 13
117.396142
 23
177.776236
 33
0.0
  0
SOLID
  5
3D5
100
AcDbEntity
  8
0
  6
BYBLOCK
 62
     0
100
AcDbTrace
 10
116.979476
 20
94.276236
 30
0.0
 11
117.812809
 21
94.276236
 31
0.0
 12
117.396142
 22
91.776236
 32
0.0
 13
117.396142
 23
91.776236
 33
0.0
  0
MTEXT
  5
3D6
100
AcDbEntity
  8
0
  6
BYBLOCK
 62
     0
100
AcDbMText
 10
114.030434
 20
134.776236
 30
0.0
 40
3.0
 41
0.0
 71
     5
 72
     1
  1
\A2;86{\H2.400000;\S+0.02^  0;}
 11
0.0
 21
1.0
 31
0.0
  0
POINT
  5
3D7
100
AcDbEntity
  8
DEFPOINTS
  6
BYBLOCK
 62
     0
100
AcDbPoint
 10
86.16527
 20
177.776236
 30
0.0
  0
POINT
  5
3D8
100
AcDbEntity
  8
DEFPOINTS
  6
BYBLOCK
 62
     0
100
AcDbPoint
 10
80.16527
 20
91.776236
 30
0.0
  0
POINT
  5
3D9
100
AcDbEntity
  8
DEFPOINTS
  6
BYBLOCK
 62
     0
100
AcDbPoint
 10
117.396142
 20
91.776236
 30
0.0
  0
ENDBLK
  5
3DA
100
AcDbEntity
  8
0
100
AcDbBlockEnd
  0
BLOCK
  5
315
100
AcDbEntity
  8
0
100
AcDbBlockBegin
  2
*D8
 70
    65
 10
0.0
 20
0.0
 30
0.0
  3
*D8
  1

  0
LINE
  5
316
100
AcDbEntity
  8
0
  6
BYBLOCK
 62
     0
100
AcDbLine
 10
99.947706
 20
207.776236
 30
0.0
 11
165.519473
 21
207.776236
 31
0.0
  0
LINE
  5
317
100
AcDbEntity
  8
0
  6
BYBLOCK
 62
     0
100
AcDbLine
 10
106.947706
 20
91.776236
 30
0.0
 11
165.519473
 21
91.776236
 31
0.0
  0
LINE
  5
318
100
AcDbEntity
  8
0
  6
BYBLOCK
 62
     0
100
AcDbLine
 10
164.269473
 20
205.276236
 30
0.0
 11
164.269473
 21
94.276236
 31
0.0
  0
SOLID
  5
319
100
AcDbEntity
  8
0
  6
BYBLOCK
 62
     0
100
AcDbTrace
 10
163.852807
 20
205.276236
 30
0.0
 11
164.68614
 21
205.276236
 31
0.0
 12
164.269473
 22
207.776236
 32
0.0
 13
164.269473
 23
207.776236
 33
0.0
  0
SOLID
  5
31A
100
AcDbEntity
  8
0
  6
BYBLOCK
 62
     0
100
AcDbTrace
 10
163.852807
 20
94.276236
 30
0.0
 11
164.68614
 21
94.276236
 31
0.0
 12
164.269473
 22
91.776236
 32
0.0
 13
164.269473
 23
91.776236
 33
0.0
  0
MTEXT
  5
31B
100
AcDbEntity
  8
0
  6
BYBLOCK
 62
     0
100
AcDbMText
 10
162.144473
 20
149.776236
 30
0.0
 40
3.0
 41
0.0
 71
     5
 72
     1
  1
\A1;116
 11
0.0
 21
1.0
 31
0.0
  0
POINT
  5
31C
100
AcDbEntity
  8
DEFPOINTS
  6
BYBLOCK
 62
     0
100
AcDbPoint
 10
99.322706
 20
207.776236
 30
0.0
  0
POINT
  5
31D
100
AcDbEntity
  8
DEFPOINTS
  6
BYBLOCK
 62
     0
100
AcDbPoint
 10
106.322706
 20
91.776236
 30
0.0
  0
POINT
  5
31E
100
AcDbEntity
  8
DEFPOINTS
  6
BYBLOCK
 62
     0
100
AcDbPoint
 10
164.269473
 20
91.776236
 30
0.0
  0
ENDBLK
  5
31F
100
AcDbEntity
  8
0
100
AcDbBlockEnd
  0
BLOCK
  5
3F5
100
AcDbEntity
  8
0
100
AcDbBlockBegin
  2
*D9
 70
    65
 10
0.0
 20
0.0
 30
0.0
  3
*D9
  1

  0
LINE
  5
3F6
100
AcDbEntity
  8
0
  6
BYBLOCK
 62
     0
100
AcDbLine
 10
86.79027
 20
177.776236
 30
0.0
 11
103.070028
 21
177.776236
 31
0.0
  0
LINE
  5
3F7
100
AcDbEntity
  8
0
  6
BYBLOCK
 62
     0
100
AcDbLine
 10
86.79027
 20
169.176236
 30
0.0
 11
103.070028
 21
169.176236
 31
0.0
  0
LINE
  5
3F8
100
AcDbEntity
  8
0
  6
BYBLOCK
 62
     0
100
AcDbLine
 10
101.820028
 20
180.276236
 30
0.0
 11
101.820028
 21
182.776236
 31
0.0
  0
LINE
  5
3F9
100
AcDbEntity
  8
0
  6
BYBLOCK
 62
     0
100
AcDbLine
 10
101.820028
 20
166.676236
 30
0.0
 11
101.820028
 21
164.176236
 31
0.0
  0
SOLID
  5
3FA
100
AcDbEntity
  8
0
  6
BYBLOCK
 62
     0
100
AcDbTrace
 10
101.403362
 20
180.276236
 30
0.0
 11
102.236695
 21
180.276236
 31
0.0
 12
101.820028
 22
177.776236
 32
0.0
 13
101.820028
 23
177.776236
 33
0.0
  0
SOLID
  5
3FB
100
AcDbEntity
  8
0
  6
BYBLOCK
 62
     0
100
AcDbTrace
 10
101.403362
 20
166.676236
 30
0.0
 11
102.236695
 21
166.676236
 31
0.0
 12
101.820028
 22
169.176236
 32
0.0
 13
101.820028
 23
169.176236
 33
0.0
  0
MTEXT
  5
3FC
100
AcDbEntity
  8
0
  6
BYBLOCK
 62
     0
100
AcDbMText
 10
99.695028
 20
173.476236
 30
0.0
 40
3.0
 41
0.0
 71
     5
 72
     1
  1
\A1;8.6
 11
0.0
 21
1.0
 31
0.0
  0
POINT
  5
3FD
100
AcDbEntity
  8
DEFPOINTS
  6
BYBLOCK
 62
     0
100
AcDbPoint
 10
86.16527
 20
177.776236
 30
0.0
  0
POINT
  5
3FE
100
AcDbEntity
  8
DEFPOINTS
  6
BYBLOCK
 62
     0
100
AcDbPoint
 10
86.16527
 20
169.176236
 30
0.0
  0
POINT
  5
3FF
100
AcDbEntity
  8
DEFPOINTS
  6
BYBLOCK
 62
     0
100
AcDbPoint
 10
101.820028
 20
169.176236
 30
0.0
  0
ENDBLK
  5
400
100
AcDbEntity
  8
0
100
AcDbBlockEnd
  0
BLOCK
  5
451
100
AcDbEntity
  8
0
100
AcDbBlockBegin
  2
*D10
 70
    65
 10
0.0
 20
0.0
 30
0.0
  3
*D10
  1

  0
LINE
  5
452
100
AcDbEntity
  8
0
  6
BYBLOCK
 62
     0
100
AcDbLine
 10
157.992466
 20
139.210816
 30
0.0
 11
84.149444
 21
154.09015
 31
0.0
  0
SOLID
  5
453
100
AcDbEntity
  8
0
  6
BYBLOCK
 62
     0
100
AcDbTrace
 10
84.231747
 20
154.498607
 30
0.0
 11
84.06714
 21
153.681692
 31
0.0
 12
81.698701
 22
154.583973
 32
0.0
 13
81.698701
 23
154.583973
 33
0.0
  0
MTEXT
  5
454
100
AcDbEntity
  8
0
  6
BYBLOCK
 62
     0
100
AcDbMText
 10
107.411654
 20
151.570536
 30
0.0
 40
3.0
 41
0.0
 71
     5
 72
     1
  1
\A1;R77.83
 11
0.980297
 21
-0.197529
 31
0.0
  0
POINT
  5
455
100
AcDbEntity
  8
DEFPOINTS
  6
BYBLOCK
 62
     0
100
AcDbPoint
 10
81.698701
 20
154.583973
 30
0.0
  0
POINT
  5
456
100
AcDbEntity
  8
DEFPOINTS
  6
BYBLOCK
 62
     0
100
AcDbPoint
 10
157.992466
 20
139.210816
 30
0.0
  0
ENDBLK
  5
457
100
AcDbEntity
  8
0
100
AcDbBlockEnd
  0
BLOCK
  5
466
100
AcDbEntity
  8
0
100
AcDbBlockBegin
  2
*D11
 70
    65
 10
0.0
 20
0.0
 30
0.0
  3
*D11
  1

  0
LINE
  5
467
100
AcDbEntity
  8
0
  6
BYBLOCK
 62
     0
100
AcDbLine
 10
72.79027
 20
207.776236
 30
0.0
 11
168.079345
 21
207.776236
 31
0.0
  0
LINE
  5
468
100
AcDbEntity
  8
0
  6
BYBLOCK
 62
     0
100
AcDbLine
 10
158.617466
 20
139.210816
 30
0.0
 11
168.079345
 21
139.210816
 31
0.0
  0
LINE
  5
469
100
AcDbEntity
  8
0
  6
BYBLOCK
 62
     0
100
AcDbLine
 10
166.829345
 20
205.276236
 30
0.0
 11
166.829345
 21
141.710816
 31
0.0
  0
SOLID
  5
46A
100
AcDbEntity
  8
0
  6
BYBLOCK
 62
     0
100
AcDbTrace
 10
166.412678
 20
205.276236
 30
0.0
 11
167.246012
 21
205.276236
 31
0.0
 12
166.829345
 22
207.776236
 32
0.0
 13
166.829345
 23
207.776236
 33
0.0
  0
SOLID
  5
46B
100
AcDbEntity
  8
0
  6
BYBLOCK
 62
     0
100
AcDbTrace
 10
166.412678
 20
141.710816
 30
0.0
 11
167.246012
 21
141.710816
 31
0.0
 12
166.829345
 22
139.210816
 32
0.0
 13
166.829345
 23
139.210816
 33
0.0
  0
MTEXT
  5
46C
100
AcDbEntity
  8
0
  6
BYBLOCK
 62
     0
100
AcDbMText
 10
164.704345
 20
173.493526
 30
0.0
 40
3.0
 41
0.0
 71
     5
 72
     1
  1
\A1;68.57
 11
0.0
 21
1.0
 31
0.0
  0
POINT
  5
46D
100
AcDbEntity
  8
DEFPOINTS
  6
BYBLOCK
 62
     0
100
AcDbPoint
 10
72.16527
 20
207.776236
 30
0.0
  0
POINT
  5
46E
100
AcDbEntity
  8
DEFPOINTS
  6
BYBLOCK
 62
     0
100
AcDbPoint
 10
157.992466
 20
139.210816
 30
0.0
  0
POINT
  5
46F
100
AcDbEntity
  8
DEFPOINTS
  6
BYBLOCK
 62
     0
100
AcDbPoint
 10
166.829345
 20
139.210816
 30
0.0
  0
ENDBLK
  5
470
100
AcDbEntity
  8
0
100
AcDbBlockEnd
  0
BLOCK
  5
48A
100
AcDbEntity
  8
0
100
AcDbBlockBegin
  2
*D12
 70
    65
 10
0.0
 20
0.0
 30
0.0
  3
*D12
  1

  0
LINE
  5
48B
100
AcDbEntity
  8
0
  6
BYBLOCK
 62
     0
100
AcDbLine
 10
86.79027
 20
109.245397
 30
0.0
 11
103.529665
 21
109.245397
 31
0.0
  0
LINE
  5
48C
100
AcDbEntity
  8
0
  6
BYBLOCK
 62
     0
100
AcDbLine
 10
86.79027
 20
107.31754
 30
0.0
 11
103.529665
 21
107.31754
 31
0.0
  0
LINE
  5
48D
100
AcDbEntity
  8
0
  6
BYBLOCK
 62
     0
100
AcDbLine
 10
102.279665
 20
104.81754
 30
0.0
 11
102.279665
 21
102.31754
 31
0.0
  0
LINE
  5
48E
100
AcDbEntity
  8
0
  6
BYBLOCK
 62
     0
100
AcDbLine
 10
102.279665
 20
111.745397
 30
0.0
 11
102.279665
 21
120.038619
 31
0.0
  0
SOLID
  5
48F
100
AcDbEntity
  8
0
  6
BYBLOCK
 62
     0
100
AcDbTrace
 10
101.862998
 20
104.81754
 30
0.0
 11
102.696331
 21
104.81754
 31
0.0
 12
102.279665
 22
107.31754
 32
0.0
 13
102.279665
 23
107.31754
 33
0.0
  0
SOLID
  5
490
100
AcDbEntity
  8
0
  6
BYBLOCK
 62
     0
100
AcDbTrace
 10
101.862998
 20
111.745397
 30
0.0
 11
102.696331
 21
111.745397
 31
0.0
 12
102.279665
 22
109.245397
 32
0.0
 13
102.279665
 23
109.245397
 33
0.0
  0
MTEXT
  5
491
100
AcDbEntity
  8
0
  6
BYBLOCK
 62
     0
100
AcDbMText
 10
100.154665
 20
116.204508
 30
0.0
 40
3.0
 41
0.0
 71
     5
 72
     1
  1
\A1;1.93
 11
0.0
 21
1.0
 31
0.0
  0
POINT
  5
492
100
AcDbEntity
  8
DEFPOINTS
  6
BYBLOCK
 62
     0
100
AcDbPoint
 10
86.16527
 20
109.245397
 30
0.0
  0
POINT
  5
493
100
AcDbEntity
  8
DEFPOINTS
  6
BYBLOCK
 62
     0
100
AcDbPoint
 10
86.16527
 20
107.31754
 30
0.0
  0
POINT
  5
494
100
AcDbEntity
  8
DEFPOINTS
  6
BYBLOCK
 62
     0
100
AcDbPoint
 10
102.279665
 20
107.31754
 30
0.0
  0
ENDBLK
  5
495
100
AcDbEntity
  8
0
100
AcDbBlockEnd
  0
BLOCK
  5
497
100
AcDbEntity
  8
0
100
AcDbBlockBegin
  2
*D13
 70
    65
 10
0.0
 20
0.0
 30
0.0
  3
*D13
  1

  0
LINE
  5
498
100
AcDbEntity
  8
0
  6
BYBLOCK
 62
     0
100
AcDbLine
 10
75.378978
 20
110.416821
 30
0.0
 11
69.692831
 21
128.450974
 31
0.0
  0
LINE
  5
499
100
AcDbEntity
  8
0
  6
BYBLOCK
 62
     0
100
AcDbLine
 10
73.386181
 20
109.788494
 30
0.0
 11
67.700034
 21
127.822647
 31
0.0
  0
LINE
  5
49A
100
AcDbEntity
  8
0
  6
BYBLOCK
 62
     0
100
AcDbLine
 10
72.453006
 20
128.010592
 30
0.0
 11
74.837298
 21
128.762357
 31
0.0
  0
LINE
  5
49B
100
AcDbEntity
  8
0
  6
BYBLOCK
 62
     0
100
AcDbLine
 10
65.691624
 20
125.878737
 30
0.0
 11
55.161237
 21
122.558518
 31
0.0
  0
SOLID
  5
49C
100
AcDbEntity
  8
0
  6
BYBLOCK
 62
     0
100
AcDbTrace
 10
72.327712
 20
128.407974
 30
0.0
 11
72.5783
 21
127.61321
 31
0.0
 12
70.068714
 22
127.258828
 32
0.0
 13
70.068714
 23
127.258828
 33
0.0
  0
SOLID
  5
49D
100
AcDbEntity
  8
0
  6
BYBLOCK
 62
     0
100
AcDbTrace
 10
65.56633
 20
126.276119
 30
0.0
 11
65.816918
 21
125.481355
 31
0.0
 12
68.075916
 22
126.630501
 32
0.0
 13
68.075916
 23
126.630501
 33
0.0
  0
MTEXT
  5
49E
100
AcDbEntity
  8
0
  6
BYBLOCK
 62
     0
100
AcDbMText
 10
58.595284
 20
125.869394
 30
0.0
 40
3.0
 41
0.0
 71
     5
 72
     1
  1
\A1;2.09
 11
0.953717
 21
0.300706
 31
0.0
  0
POINT
  5
49F
100
AcDbEntity
  8
DEFPOINTS
  6
BYBLOCK
 62
     0
100
AcDbPoint
 10
75.566919
 20
109.820748
 30
0.0
  0
POINT
  5
4A0
100
AcDbEntity
  8
DEFPOINTS
  6
BYBLOCK
 62
     0
100
AcDbPoint
 10
73.574122
 20
109.192421
 30
0.0
  0
POINT
  5
4A1
100
AcDbEntity
  8
DEFPOINTS
  6
BYBLOCK
 62
     0
100
AcDbPoint
 10
68.075916
 20
126.630501
 30
0.0
  0
ENDBLK
  5
4A2
100
AcDbEntity
  8
0
100
AcDbBlockEnd
  0
BLOCK
  5
4B4
100
AcDbEntity
  8
0
100
AcDbBlockBegin
  2
*D14
 70
    65
 10
0.0
 20
0.0
 30
0.0
  3
*D14
  1

  0
LINE
  5
4B5
100
AcDbEntity
  8
0
  6
BYBLOCK
 62
     0
100
AcDbLine
 10
79.977328
 20
87.691898
 30
0.0
 11
73.692828
 21
67.760008
 31
0.0
  0
LINE
  5
4B6
100
AcDbEntity
  8
0
  6
BYBLOCK
 62
     0
100
AcDbLine
 10
80.353211
 20
87.691898
 30
0.0
 11
86.637711
 21
67.760008
 31
0.0
  0
ARC
  5
4B7
100
AcDbEntity
  8
0
  6
BYBLOCK
 62
     0
100
AcDbCircle
 10
80.16527
 20
88.287971
 30
0.0
 40
20.274167
100
AcDbArc
 50
259.569605
 51
280.430395
  0
SOLID
  5
4B8
100
AcDbEntity
  8
0
  6
BYBLOCK
 62
     0
100
AcDbTrace
 10
76.394261
 20
67.944472
 30
0.0
 11
76.595371
 21
68.753175
 31
0.0
 12
74.06871
 22
68.952155
 32
0.0
 13
74.06871
 23
68.952155
 33
0.0
  0
SOLID
  5
4B9
100
AcDbEntity
  8
0
  6
BYBLOCK
 62
     0
100
AcDbTrace
 10
83.735168
 20
68.753175
 30
0.0
 11
83.936278
 21
67.944472
 31
0.0
 12
86.261829
 22
68.952155
 32
0.0
 13
86.261829
 23
68.952155
 33
0.0
  0
MTEXT
  5
4BA
100
AcDbEntity
  8
0
  6
BYBLOCK
 62
     0
100
AcDbMText
 10
80.16527
 20
70.138804
 30
0.0
 40
3.0
 41
0.0
 71
     5
 72
     1
  1
\A1;35°
  0
POINT
  5
4BB
100
AcDbEntity
  8
DEFPOINTS
  6
BYBLOCK
 62
     0
100
AcDbPoint
 10
78.104703
 20
68.118789
 30
0.0
  0
POINT
  5
4BC
100
AcDbEntity
  8
DEFPOINTS
  6
BYBLOCK
 62
     0
100
AcDbPoint
 10
78.734694
 20
92.825177
 30
0.0
  0
POINT
  5
4BD
100
AcDbEntity
  8
DEFPOINTS
  6
BYBLOCK
 62
     0
100
AcDbPoint
 10
81.595845
 20
92.825177
 30
0.0
  0
POINT
  5
4BE
100
AcDbEntity
  8
DEFPOINTS
  6
BYBLOCK
 62
     0
100
AcDbPoint
 10
86.16527
 20
107.31754
 30
0.0
  0
POINT
  5
4BF
100
AcDbEntity
  8
DEFPOINTS
  6
BYBLOCK
 62
     0
100
AcDbPoint
 10
74.202448
 20
107.199624
 30
0.0
  0
ENDBLK
  5
4C0
100
AcDbEntity
  8
0
100
AcDbBlockEnd
  0
BLOCK
  5
4C2
100
AcDbEntity
  8
0
100
AcDbBlockBegin
  2
*D15
 70
    65
 10
0.0
 20
0.0
 30
0.0
  3
*D15
  1

  0
LINE
  5
4C3
100
AcDbEntity
  8
0
  6
BYBLOCK
 62
     0
100
AcDbLine
 10
81.662963
 20
89.567204
 30
0.0
 11
85.589426
 21
79.843338
 31
0.0
  0
SOLID
  5
4C4
100
AcDbEntity
  8
0
  6
BYBLOCK
 62
     0
100
AcDbTrace
 10
82.049321
 20
89.723214
 30
0.0
 11
81.276606
 21
89.411194
 31
0.0
 12
80.726905
 22
91.885349
 32
0.0
 13
80.726905
 23
91.885349
 33
0.0
  0
MTEXT
  5
4C5
100
AcDbEntity
  8
0
  6
BYBLOCK
 62
     0
100
AcDbMText
 10
86.064647
 20
84.341849
 30
0.0
 40
3.0
 41
0.0
 71
     5
 72
     1
  1
\A1;R1.5
 11
0.374423
 21
-0.927258
 31
0.0
  0
LINE
  5
4C6
100
AcDbEntity
  8
0
  6
BYBLOCK
 62
     0
100
AcDbLine
 10
77.66527
 20
93.276236
 30
0.0
 11
82.66527
 21
93.276236
 31
0.0
  0
LINE
  5
4C7
100
AcDbEntity
  8
0
  6
BYBLOCK
 62
     0
100
AcDbLine
 10
80.16527
 20
90.776236
 30
0.0
 11
80.16527
 21
95.776236
 31
0.0
  0
POINT
  5
4C8
100
AcDbEntity
  8
DEFPOINTS
  6
BYBLOCK
 62
     0
100
AcDbPoint
 10
80.726905
 20
91.885349
 30
0.0
  0
POINT
  5
4C9
100
AcDbEntity
  8
DEFPOINTS
  6
BYBLOCK
 62
     0
100
AcDbPoint
 10
80.16527
 20
93.276236
 30
0.0
  0
ENDBLK
  5
4CA
100
AcDbEntity
  8
0
100
AcDbBlockEnd
  0
BLOCK
  5
4CD
100
AcDbEntity
  8
0
100
AcDbBlockBegin
  2
*D16
 70
    65
 10
0.0
 20
0.0
 30
0.0
  3
*D16
  1

  0
LINE
  5
4CE
100
AcDbEntity
  8
0
  6
BYBLOCK
 62
     0
100
AcDbLine
 10
73.619498
 20
106.97425
 30
0.0
 11
58.609126
 21
101.171105
 31
0.0
  0
LINE
  5
4CF
100
AcDbEntity
  8
0
  6
BYBLOCK
 62
     0
100
AcDbLine
 10
79.582319
 20
91.550862
 30
0.0
 11
64.571947
 21
85.747716
 31
0.0
  0
LINE
  5
4D0
100
AcDbEntity
  8
0
  6
BYBLOCK
 62
     0
100
AcDbLine
 10
60.676523
 20
99.29005
 30
0.0
 11
64.836352
 21
88.530267
 31
0.0
  0
SOLID
  5
4D1
100
AcDbEntity
  8
0
  6
BYBLOCK
 62
     0
100
AcDbTrace
 10
61.065157
 20
99.440299
 30
0.0
 11
60.287889
 21
99.1398
 31
0.0
 12
59.775027
 22
101.621853
 32
0.0
 13
59.775027
 23
101.621853
 33
0.0
  0
SOLID
  5
4D2
100
AcDbEntity
  8
0
  6
BYBLOCK
 62
     0
100
AcDbTrace
 10
65.224986
 20
88.680516
 30
0.0
 11
64.447718
 21
88.380018
 31
0.0
 12
65.737848
 22
86.198464
 32
0.0
 13
65.737848
 23
86.198464
 33
0.0
  0
MTEXT
  5
4D3
100
AcDbEntity
  8
0
  6
BYBLOCK
 62
     0
100
AcDbMText
 10
64.73847
 20
94.67643
 30
0.0
 40
3.0
 41
0.0
 71
     5
 72
     1
  1
\A1;16.54
 11
0.360598
 21
-0.932721
 31
0.0
  0
POINT
  5
4D4
100
AcDbEntity
  8
DEFPOINTS
  6
BYBLOCK
 62
     0
100
AcDbPoint
 10
74.202448
 20
107.199624
 30
0.0
  0
POINT
  5
4D5
100
AcDbEntity
  8
DEFPOINTS
  6
BYBLOCK
 62
     0
100
AcDbPoint
 10
80.16527
 20
91.776236
 30
0.0
  0
POINT
  5
4D6
100
AcDbEntity
  8
DEFPOINTS
  6
BYBLOCK
 62
     0
100
AcDbPoint
 10
65.737848
 20
86.198464
 30
0.0
  0
ENDBLK
  5
4D7
100
AcDbEntity
  8
0
100
AcDbBlockEnd
  0
BLOCK
  5
4F4
100
AcDbEntity
  8
0
100
AcDbBlockBegin
  2
*X17
 70
    65
 10
0.0
 20
0.0
 30
0.0
  3
*X17
  1

  0
LINE
  5
4F6
100
AcDbEntity
  8
0
 62
     0
100
AcDbLine
 10
78.66807
 20
93.03648
 30
0.0
 11
80.16527
 21
94.533679
 31
0.0
  0
LINE
  5
4F7
100
AcDbEntity
  8
0
 62
     0
100
AcDbLine
 10
80.16527
 20
94.533679
 30
0.0
 11
81.020608
 21
95.389018
 31
0.0
  0
LINE
  5
4F8
100
AcDbEntity
  8
0
 62
     0
100
AcDbLine
 10
78.614253
 20
93.207169
 30
0.0
 11
80.16527
 21
94.758186
 31
0.0
  0
LINE
  5
4F9
100
AcDbEntity
  8
0
 62
     0
100
AcDbLine
 10
80.16527
 20
94.758186
 30
0.0
 11
80.72409
 21
95.317006
 31
0.0
  0
LINE
  5
4FA
100
AcDbEntity
  8
0
 62
     0
100
AcDbLine
 10
78.560435
 20
93.377857
 30
0.0
 11
80.16527
 21
94.982692
 31
0.0
  0
LINE
  5
4FB
100
AcDbEntity
  8
0
 62
     0
100
AcDbLine
 10
80.16527
 20
94.982692
 30
0.0
 11
80.461765
 21
95.279187
 31
0.0
  0
LINE
  5
4FC
100
AcDbEntity
  8
0
 62
     0
100
AcDbLine
 10
78.506617
 20
93.548546
 30
0.0
 11
80.16527
 21
95.207199
 31
0.0
  0
LINE
  5
4FD
100
AcDbEntity
  8
0
 62
     0
100
AcDbLine
 10
80.16527
 20
95.207199
 30
0.0
 11
80.223129
 21
95.265058
 31
0.0
  0
LINE
  5
4FE
100
AcDbEntity
  8
0
 62
     0
100
AcDbLine
 10
78.452799
 20
93.719234
 30
0.0
 11
80.002484
 21
95.26892
 31
0.0
  0
LINE
  5
4FF
100
AcDbEntity
  8
0
 62
     0
100
AcDbLine
 10
78.398981
 20
93.889923
 30
0.0
 11
79.79633
 21
95.287272
 31
0.0
  0
LINE
  5
500
100
AcDbEntity
  8
0
 62
     0
100
AcDbLine
 10
78.345163
 20
94.060611
 30
0.0
 11
79.60234
 21
95.317788
 31
0.0
  0
LINE
  5
501
100
AcDbEntity
  8
0
 62
     0
100
AcDbLine
 10
78.291345
 20
94.2313
 30
0.0
 11
79.418878
 21
95.358833
 31
0.0
  0
LINE
  5
502
100
AcDbEntity
  8
0
 62
     0
100
AcDbLine
 10
78.237527
 20
94.401988
 30
0.0
 11
79.244754
 21
95.409215
 31
0.0
  0
LINE
  5
503
100
AcDbEntity
  8
0
 62
     0
100
AcDbLine
 10
78.18371
 20
94.572677
 30
0.0
 11
79.079074
 21
95.468041
 31
0.0
  0
LINE
  5
504
100
AcDbEntity
  8
0
 62
     0
100
AcDbLine
 10
78.129892
 20
94.743365
 30
0.0
 11
78.921157
 21
95.534631
 31
0.0
  0
LINE
  5
505
100
AcDbEntity
  8
0
 62
     0
100
AcDbLine
 10
78.076074
 20
94.914054
 30
0.0
 11
78.770478
 21
95.608458
 31
0.0
  0
LINE
  5
506
100
AcDbEntity
  8
0
 62
     0
100
AcDbLine
 10
78.022256
 20
95.084742
 30
0.0
 11
78.626631
 21
95.689118
 31
0.0
  0
LINE
  5
507
100
AcDbEntity
  8
0
 62
     0
100
AcDbLine
 10
77.968438
 20
95.255431
 30
0.0
 11
78.489306
 21
95.776299
 31
0.0
  0
LINE
  5
508
100
AcDbEntity
  8
0
 62
     0
100
AcDbLine
 10
77.91462
 20
95.42612
 30
0.0
 11
78.358268
 21
95.869767
 31
0.0
  0
LINE
  5
509
100
AcDbEntity
  8
0
 62
     0
100
AcDbLine
 10
77.860802
 20
95.596808
 30
0.0
 11
78.23335
 21
95.969356
 31
0.0
  0
LINE
  5
50A
100
AcDbEntity
  8
0
 62
     0
100
AcDbLine
 10
77.806984
 20
95.767497
 30
0.0
 11
78.114442
 21
96.074955
 31
0.0
  0
LINE
  5
50B
100
AcDbEntity
  8
0
 62
     0
100
AcDbLine
 10
77.753166
 20
95.938185
 30
0.0
 11
78.001489
 21
96.186507
 31
0.0
  0
LINE
  5
50C
100
AcDbEntity
  8
0
 62
     0
100
AcDbLine
 10
77.699349
 20
96.108874
 30
0.0
 11
77.894483
 21
96.304008
 31
0.0
  0
LINE
  5
50D
100
AcDbEntity
  8
0
 62
     0
100
AcDbLine
 10
77.645531
 20
96.279562
 30
0.0
 11
77.79347
 21
96.427501
 31
0.0
  0
LINE
  5
50E
100
AcDbEntity
  8
0
 62
     0
100
AcDbLine
 10
77.591713
 20
96.450251
 30
0.0
 11
77.698545
 21
96.557083
 31
0.0
  0
LINE
  5
50F
100
AcDbEntity
  8
0
 62
     0
100
AcDbLine
 10
77.537895
 20
96.620939
 30
0.0
 11
77.609864
 21
96.692908
 31
0.0
  0
LINE
  5
510
100
AcDbEntity
  8
0
 62
     0
100
AcDbLine
 10
77.484077
 20
96.791628
 30
0.0
 11
77.527642
 21
96.835192
 31
0.0
  0
LINE
  5
511
100
AcDbEntity
  8
0
 62
     0
100
AcDbLine
 10
77.430259
 20
96.962316
 30
0.0
 11
77.452171
 21
96.984228
 31
0.0
  0
LINE
  5
512
100
AcDbEntity
  8
0
 62
     0
100
AcDbLine
 10
77.376441
 20
97.133005
 30
0.0
 11
77.383833
 21
97.140396
 31
0.0
  0
LINE
  5
513
100
AcDbEntity
  8
0
 62
     0
100
AcDbLine
 10
77.322623
 20
97.303693
 30
0.0
 11
77.323121
 21
97.304191
 31
0.0
  0
LINE
  5
514
100
AcDbEntity
  8
0
 62
     0
100
AcDbLine
 10
78.721888
 20
92.865792
 30
0.0
 11
80.16527
 21
94.309173
 31
0.0
  0
LINE
  5
515
100
AcDbEntity
  8
0
 62
     0
100
AcDbLine
 10
82.910297
 20
97.0542
 30
0.0
 11
82.937979
 21
97.081883
 31
0.0
  0
LINE
  5
516
100
AcDbEntity
  8
0
 62
     0
100
AcDbLine
 10
80.16527
 20
94.309173
 30
0.0
 11
81.375569
 21
95.519473
 31
0.0
  0
LINE
  5
517
100
AcDbEntity
  8
0
 62
     0
100
AcDbLine
 10
78.780437
 20
92.699834
 30
0.0
 11
80.16527
 21
94.084667
 31
0.0
  0
LINE
  5
518
100
AcDbEntity
  8
0
 62
     0
100
AcDbLine
 10
82.618846
 20
96.538243
 30
0.0
 11
82.834596
 21
96.753993
 31
0.0
  0
LINE
  5
519
100
AcDbEntity
  8
0
 62
     0
100
AcDbLine
 10
80.16527
 20
94.084667
 30
0.0
 11
81.891526
 21
95.810923
 31
0.0
  0
LINE
  5
51A
100
AcDbEntity
  8
0
 62
     0
100
AcDbLine
 10
78.853622
 20
92.548513
 30
0.0
 11
80.16527
 21
93.86016
 31
0.0
  0
LINE
  5
51B
100
AcDbEntity
  8
0
 62
     0
100
AcDbLine
 10
80.16527
 20
93.86016
 30
0.0
 11
82.731213
 21
96.426103
 31
0.0
  0
LINE
  5
51C
100
AcDbEntity
  8
0
 62
     0
100
AcDbLine
 10
78.940235
 20
92.41062
 30
0.0
 11
80.16527
 21
93.635654
 31
0.0
  0
LINE
  5
51D
100
AcDbEntity
  8
0
 62
     0
100
AcDbLine
 10
80.16527
 20
93.635654
 30
0.0
 11
82.62783
 21
96.098214
 31
0.0
  0
LINE
  5
51E
100
AcDbEntity
  8
0
 62
     0
100
AcDbLine
 10
79.039301
 20
92.285178
 30
0.0
 11
80.16527
 21
93.411147
 31
0.0
  0
LINE
  5
51F
100
AcDbEntity
  8
0
 62
     0
100
AcDbLine
 10
80.16527
 20
93.411147
 30
0.0
 11
82.524446
 21
95.770324
 31
0.0
  0
LINE
  5
520
100
AcDbEntity
  8
0
 62
     0
100
AcDbLine
 10
79.150353
 20
92.171725
 30
0.0
 11
80.16527
 21
93.186641
 31
0.0
  0
LINE
  5
521
100
AcDbEntity
  8
0
 62
     0
100
AcDbLine
 10
80.16527
 20
93.186641
 30
0.0
 11
82.421063
 21
95.442435
 31
0.0
  0
LINE
  5
522
100
AcDbEntity
  8
0
 62
     0
100
AcDbLine
 10
79.273351
 20
92.070216
 30
0.0
 11
80.16527
 21
92.962135
 31
0.0
  0
LINE
  5
523
100
AcDbEntity
  8
0
 62
     0
100
AcDbLine
 10
80.16527
 20
92.962135
 30
0.0
 11
82.31768
 21
95.114545
 31
0.0
  0
LINE
  5
524
100
AcDbEntity
  8
0
 62
     0
100
AcDbLine
 10
79.408671
 20
91.98103
 30
0.0
 11
80.16527
 21
92.737628
 31
0.0
  0
LINE
  5
525
100
AcDbEntity
  8
0
 62
     0
100
AcDbLine
 10
80.16527
 20
92.737628
 30
0.0
 11
82.214297
 21
94.786655
 31
0.0
  0
LINE
  5
526
100
AcDbEntity
  8
0
 62
     0
100
AcDbLine
 10
79.557173
 20
91.905025
 30
0.0
 11
80.16527
 21
92.513122
 31
0.0
  0
LINE
  5
527
100
AcDbEntity
  8
0
 62
     0
100
AcDbLine
 10
80.16527
 20
92.513122
 30
0.0
 11
82.110914
 21
94.458766
 31
0.0
  0
LINE
  5
528
100
AcDbEntity
  8
0
 62
     0
100
AcDbLine
 10
79.720383
 20
91.843729
 30
0.0
 11
80.16527
 21
92.288615
 31
0.0
  0
LINE
  5
529
100
AcDbEntity
  8
0
 62
     0
100
AcDbLine
 10
80.16527
 20
92.288615
 30
0.0
 11
82.00753
 21
94.130876
 31
0.0
  0
LINE
  5
52A
100
AcDbEntity
  8
0
 62
     0
100
AcDbLine
 10
79.900881
 20
91.79972
 30
0.0
 11
80.16527
 21
92.064109
 31
0.0
  0
LINE
  5
52B
100
AcDbEntity
  8
0
 62
     0
100
AcDbLine
 10
80.16527
 20
92.064109
 30
0.0
 11
81.904147
 21
93.802987
 31
0.0
  0
LINE
  5
52C
100
AcDbEntity
  8
0
 62
     0
100
AcDbLine
 10
80.103188
 20
91.777521
 30
0.0
 11
80.16527
 21
91.839603
 31
0.0
  0
LINE
  5
52D
100
AcDbEntity
  8
0
 62
     0
100
AcDbLine
 10
80.16527
 20
91.839603
 30
0.0
 11
81.800764
 21
93.475097
 31
0.0
  0
LINE
  5
52E
100
AcDbEntity
  8
0
 62
     0
100
AcDbLine
 10
80.336177
 20
91.786004
 30
0.0
 11
81.697381
 21
93.147207
 31
0.0
  0
LINE
  5
52F
100
AcDbEntity
  8
0
 62
     0
100
AcDbLine
 10
80.622207
 20
91.847527
 30
0.0
 11
81.593978
 21
92.819298
 31
0.0
  0
LINE
  5
530
100
AcDbEntity
  8
0
 62
     0
100
AcDbLine
 10
81.111652
 20
92.112465
 30
0.0
 11
81.32904
 21
92.329853
 31
0.0
  0
ENDBLK
  5
531
100
AcDbEntity
  8
0
100
AcDbBlockEnd
  0
BLOCK
  5
539
100
AcDbEntity
  8
QUOTE
100
AcDbBlockBegin
  2
RUGOSITA
 70
     2
 10
0.0
 20
0.0
 30
0.0
  3
RUGOSITA
  1

  0
ATTDEF
  5
535
100
AcDbEntity
  8
QUOTE
100
AcDbText
 10
-1.071886
 20
3.214106
 30
0.0
 40
1.5
  1
0.8
100
AcDbAttributeDefinition
  3
CHE RUGOSITA ?
  2
RUGOSITA
 70
     0
  0
LINE
  5
536
100
AcDbEntity
  8
QUOTE
100
AcDbLine
 10
0.0
 20
0.0
 30
0.0
 11
4.0
 21
6.928203
 31
0.0
  0
LINE
  5
537
100
AcDbEntity
  8
QUOTE
100
AcDbLine
 10
0.0
 20
0.0
 30
0.0
 11
-1.75
 21
3.031089
 31
0.0
  0
LINE
  5
538
100
AcDbEntity
  8
QUOTE
100
AcDbLine
 10
-1.75
 20
3.031089
 30
0.0
 11
1.75
 21
3.031089
 31
0.0
  0
ENDBLK
  5
53A
100
AcDbEntity
  8
QUOTE
100
AcDbBlockEnd
  0
BLOCK
  5
564
100
AcDbEntity
  8
QUOTE
100
AcDbBlockBegin
  2
A$CB1E2
 70
     0
 10
0.0
 20
0.0
 30
0.0
  3
A$CB1E2
  1

  0
TOLERANCE
  5
55B
100
AcDbEntity
  8
TESTO
  6
CONTINUOUS
100
AcDbFcf
  3
ISO-25
 10
117.276845
 20
55.294488
 30
0.0
  1
{\Fgdt;b}%%v0.02%%v%%v%%v%%v
1001
ACAD
1000
DSTYLE
1002
{
1070
   140
1040
2.6
1070
    47
1040
0.02
1070
    73
1070
     0
1070
   272
1070
     2
1070
   147
1040
0.53
1070
    42
1040
0.5261
1070
    44
1040
1.0522
1070
    43
1040
3.1566
1070
   271
1070
     2
1070
   141
1040
2.1044
1070
    41
1040
2.6
1002
}
  0
TEXT
  5
55C
100
AcDbEntity
  8
TESTO
100
AcDbText
 10
114.07229
 20
59.23042
 30
0.0
 40
2.5
  1
TOLLERANZE AL METRO
 41
1.1
100
AcDbText
  0
POLYLINE
  5
55D
100
AcDbEntity
  8
TESTO
100
AcDb2dPolyline
 66
     1
 10
0.0
 20
0.0
 30
0.0
 70
     1
  0
VERTEX
  5
55E
100
AcDbEntity
  8
TESTO
100
AcDbVertex
100
AcDb2dVertex
 10
113.478705
 20
63.69438
 30
0.0
  0
VERTEX
  5
55F
100
AcDbEntity
  8
TESTO
100
AcDbVertex
100
AcDb2dVertex
 10
113.478705
 20
50.979772
 30
0.0
  0
VERTEX
  5
560
100
AcDbEntity
  8
TESTO
100
AcDbVertex
100
AcDb2dVertex
 10
154.597745
 20
50.979772
 30
0.0
  0
VERTEX
  5
561
100
AcDbEntity
  8
TESTO
100
AcDbVertex
100
AcDb2dVertex
 10
154.597745
 20
63.69438
 30
0.0
  0
SEQEND
  5
562
100
AcDbEntity
  8
TESTO
  0
TOLERANCE
  5
563
100
AcDbEntity
  8
TESTO
  6
CONTINUOUS
100
AcDbFcf
  3
ISO-25
 10
132.834803
 20
55.294488
 30
0.0
  1
{\Fgdt;u}%%v0.02%%v%%v%%v%%v
1001
ACAD
1000
DSTYLE
1002
{
1070
   140
1040
2.6
1070
    47
1040
0.02
1070
    73
1070
     0
1070
   272
1070
     2
1070
   147
1040
0.53
1070
    42
1040
0.5261
1070
    44
1040
1.0522
1070
    43
1040
3.1566
1070
   271
1070
     2
1070
   141
1040
2.1044
1070
    41
1040
2.6
1002
}
  0
ENDBLK
  5
565
100
AcDbEntity
  8
QUOTE
100
AcDbBlockEnd
  0
ENDSEC
  0
SECTION
  2
ENTITIES
  0
LINE
  5
263
100
AcDbEntity
  8
DISEGNO
100
AcDbLine
 10
61.16527
 20
207.776236
 30
0.0
 11
72.16527
 21
207.776236
 31
0.0
  0
LINE
  5
264
100
AcDbEntity
  8
DISEGNO
100
AcDbLine
 10
73.16527
 20
206.776236
 30
0.0
 11
73.16527
 21
177.776236
 31
0.0
  0
LINE
  5
265
100
AcDbEntity
  8
DISEGNO
100
AcDbLine
 10
73.16527
 20
177.776236
 30
0.0
 11
85.16527
 21
177.776236
 31
0.0
  0
LINE
  5
267
100
AcDbEntity
  8
DISEGNO
100
AcDbLine
 10
60.16527
 20
206.776236
 30
0.0
 11
60.16527
 21
190.776236
 31
0.0
  0
LINE
  5
268
100
AcDbEntity
  8
DISEGNO
100
AcDbLine
 10
60.16527
 20
190.776236
 30
0.0
 11
63.66527
 21
190.776236
 31
0.0
  0
LINE
  5
269
100
AcDbEntity
  8
DISEGNO
100
AcDbLine
 10
63.66527
 20
190.776236
 30
0.0
 11
63.66527
 21
182.376236
 31
0.0
  0
LINE
  5
26A
100
AcDbEntity
  8
DISEGNO
100
AcDbLine
 10
63.66527
 20
182.376236
 30
0.0
 11
60.16527
 21
182.376236
 31
0.0
  0
LINE
  5
26B
100
AcDbEntity
  8
DISEGNO
100
AcDbLine
 10
60.16527
 20
182.376236
 30
0.0
 11
60.16527
 21
158.668539
 31
0.0
  0
LINE
  5
27E
100
AcDbEntity
  8
DISEGNO
100
AcDbLine
 10
74.202448
 20
107.199624
 30
0.0
 11
75.566919
 21
109.820748
 31
0.0
  0
LINE
  5
280
100
AcDbEntity
  8
DISEGNO
100
AcDbLine
 10
75.566919
 20
109.820748
 30
0.0
 11
60.16527
 21
158.668539
 31
0.0
  0
LINE
  5
3DB
100
AcDbEntity
  8
DISEGNO
100
AcDbLine
 10
86.16527
 20
176.776236
 30
0.0
 11
86.16527
 21
169.176236
 31
0.0
  0
LINE
  5
40F
100
AcDbEntity
  8
DISEGNO
100
AcDbLine
 10
60.16527
 20
206.776236
 30
0.0
 11
61.16527
 21
207.776236
 31
0.0
  0
LINE
  5
410
100
AcDbEntity
  8
DISEGNO
100
AcDbLine
 10
72.16527
 20
207.776236
 30
0.0
 11
73.16527
 21
206.776236
 31
0.0
  0
LINE
  5
411
100
AcDbEntity
  8
DISEGNO
100
AcDbLine
 10
85.16527
 20
177.776236
 30
0.0
 11
86.16527
 21
176.776236
 31
0.0
  0
LINE
  5
445
100
AcDbEntity
  8
DISEGNO
100
AcDbLine
 10
86.16527
 20
107.31754
 30
0.0
 11
86.16527
 21
109.245397
 31
0.0
  0
ARC
  5
446
100
AcDbEntity
  8
DISEGNO
100
AcDbCircle
 10
157.992466
 20
139.210816
 30
0.0
 40
77.827197
100
AcDbArc
 50
157.354705
 51
202.645295
  0
ARC
  5
479
100
AcDbEntity
  8
DISEGNO
100
AcDbCircle
 10
80.16527
 20
93.276236
 30
0.0
 40
1.5
100
AcDbArc
 50
197.5
 51
342.5
1001
ACAD
1000
ASC_BOUNDS
1002
{
1070
    19
1002
}
  0
LINE
  5
47A
100
AcDbEntity
  8
DISEGNO
100
AcDbLine
 10
81.595845
 20
92.825177
 30
0.0
 11
86.16527
 21
107.31754
 31
0.0
1001
ACAD
1000
ASC_BOUNDS
1002
{
1070
    19
1002
}
  0
LINE
  5
47B
100
AcDbEntity
  8
DISEGNO
100
AcDbLine
 10
78.734694
 20
92.825177
 30
0.0
 11
74.202448
 21
107.199624
 31
0.0
1001
ACAD
1000
ASC_BOUNDS
1002
{
1070
    19
1002
}
  0
ENDSEC
  0
SECTION
  2
OBJECTS
  0
DICTIONARY
  5
C
100
AcDbDictionary
  3
ACAD_GROUP
350
D
  3
ACAD_MLINESTYLE
350
E
  0
DICTIONARY
  5
D
102
{ACAD_REACTORS
330
C
102
}
100
AcDbDictionary
  0
DICTIONARY
  5
E
102
{ACAD_REACTORS
330
C
102
}
100
AcDbDictionary
  3
STANDARD
350
1C
  0
MLINESTYLE
  5
1C
102
{ACAD_REACTORS
330
E
102
}
100
AcDbMlineStyle
  2
STANDARD
 70
     0
  3

 62
     0
 51
90.0
 52
90.0
 71
     2
 49
0.5
 62
   256
  6
BYLAYER
 49
-0.5
 62
   256
  6
BYLAYER
  0
ENDSEC
  0
EOF
