  0
SECTION
  2
HEADER
  9
$ACADVER
  1
AC1012
  9
$DWGCODEPAGE
  3
iso8859-1
  9
$INSBASE
 10
0.0
 20
0.0
 30
0.0
  9
$EXTMIN
 10
6.84992
 20
5.0
 30
0.0
  9
$EXTMAX
 10
202.0
 20
288.0
 30
0.0
  9
$LIMMIN
 10
0.0
 20
0.0
  9
$LIMMAX
 10
210.0
 20
297.0
  9
$ORTHOMODE
 70
     0
  9
$REGENMODE
 70
     1
  9
$FILLMODE
 70
     1
  9
$QTEXTMODE
 70
     0
  9
$MIRRTEXT
 70
     1
  9
$DRAGMODE
 70
     2
  9
$LTSCALE
 40
1.0
  9
$OSMODE
 70
     0
  9
$ATTMODE
 70
     1
  9
$TEXTSIZE
 40
3.0
  9
$TRACEWID
 40
0.05
  9
$TEXTSTYLE
  7
STANDARD
  9
$CLAYER
  8
QUOTE
  9
$CELTYPE
  6
BYLAYER
  9
$CECOLOR
 62
   256
  9
$CELTSCALE
 40
1.0
  9
$DELOBJ
 70
     1
  9
$DISPSILH
 70
     0
  9
$DIMSCALE
 40
1.0
  9
$DIMASZ
 40
2.5
  9
$DIMEXO
 40
0.625
  9
$DIMDLI
 40
3.75
  9
$DIMRND
 40
0.0
  9
$DIMDLE
 40
0.0
  9
$DIMEXE
 40
1.25
  9
$DIMTP
 40
0.0
  9
$DIMTM
 40
0.0
  9
$DIMTXT
 40
3.0
  9
$DIMCEN
 40
2.5
  9
$DIMTSZ
 40
0.0
  9
$DIMTOL
 70
     0
  9
$DIMLIM
 70
     0
  9
$DIMTIH
 70
     0
  9
$DIMTOH
 70
     0
  9
$DIMSE1
 70
     0
  9
$DIMSE2
 70
     0
  9
$DIMTAD
 70
     1
  9
$DIMZIN
 70
     8
  9
$DIMBLK
  1

  9
$DIMASO
 70
     1
  9
$DIMSHO
 70
     1
  9
$DIMPOST
  1

  9
$DIMAPOST
  1

  9
$DIMALT
 70
     0
  9
$DIMALTD
 70
     2
  9
$DIMALTF
 40
0.03937
  9
$DIMLFAC
 40
1.0
  9
$DIMTOFL
 70
     0
  9
$DIMTVP
 40
0.0
  9
$DIMTIX
 70
     0
  9
$DIMSOXD
 70
     0
  9
$DIMSAH
 70
     0
  9
$DIMBLK1
  1

  9
$DIMBLK2
  1

  9
$DIMSTYLE
  2
STANDARD
  9
$DIMCLRD
 70
     0
  9
$DIMCLRE
 70
     0
  9
$DIMCLRT
 70
     0
  9
$DIMTFAC
 40
1.0
  9
$DIMGAP
 40
0.625
  9
$DIMJUST
 70
     0
  9
$DIMSD1
 70
     0
  9
$DIMSD2
 70
     0
  9
$DIMTOLJ
 70
     1
  9
$DIMTZIN
 70
     8
  9
$DIMALTZ
 70
     0
  9
$DIMALTTZ
 70
     0
  9
$DIMFIT
 70
     3
  9
$DIMUPT
 70
     0
  9
$DIMUNIT
 70
     2
  9
$DIMDEC
 70
     2
  9
$DIMTDEC
 70
     2
  9
$DIMALTU
 70
     2
  9
$DIMALTTD
 70
     2
  9
$DIMTXSTY
  7
STANDARD
  9
$DIMAUNIT
 70
     0
  9
$LUNITS
 70
     2
  9
$LUPREC
 70
     4
  9
$SKETCHINC
 40
0.1
  9
$FILLETRAD
 40
4.0
  9
$AUNITS
 70
     0
  9
$AUPREC
 70
     0
  9
$MENU
  1
acad
  9
$ELEVATION
 40
0.0
  9
$PELEVATION
 40
0.0
  9
$THICKNESS
 40
0.0
  9
$LIMCHECK
 70
     0
  9
$BLIPMODE
 70
     1
  9
$CHAMFERA
 40
0.0
  9
$CHAMFERB
 40
0.0
  9
$CHAMFERC
 40
20.0
  9
$CHAMFERD
 40
0.0
  9
$SKPOLY
 70
     0
  9
$TDCREATE
 40
2451758.483140856
  9
$TDUPDATE
 40
2452158.621588657
  9
$TDINDWG
 40
0.0771893519
  9
$TDUSRTIMER
 40
0.0771893519
  9
$USRTIMER
 70
     1
  9
$ANGBASE
 50
0.0
  9
$ANGDIR
 70
     0
  9
$PDMODE
 70
     0
  9
$PDSIZE
 40
0.0
  9
$PLINEWID
 40
0.0
  9
$COORDS
 70
     1
  9
$SPLFRAME
 70
     0
  9
$SPLINETYPE
 70
     6
  9
$SPLINESEGS
 70
     8
  9
$ATTDIA
 70
     0
  9
$ATTREQ
 70
     1
  9
$HANDLING
 70
     1
  9
$HANDSEED
  5
604
  9
$SURFTAB1
 70
     6
  9
$SURFTAB2
 70
     6
  9
$SURFTYPE
 70
     6
  9
$SURFU
 70
     6
  9
$SURFV
 70
     6
  9
$UCSNAME
  2

  9
$UCSORG
 10
0.0
 20
0.0
 30
0.0
  9
$UCSXDIR
 10
1.0
 20
0.0
 30
0.0
  9
$UCSYDIR
 10
0.0
 20
1.0
 30
0.0
  9
$PUCSNAME
  2

  9
$PUCSORG
 10
0.0
 20
0.0
 30
0.0
  9
$PUCSXDIR
 10
1.0
 20
0.0
 30
0.0
  9
$PUCSYDIR
 10
0.0
 20
1.0
 30
0.0
  9
$USERI1
 70
     0
  9
$USERI2
 70
     0
  9
$USERI3
 70
     0
  9
$USERI4
 70
     0
  9
$USERI5
 70
     0
  9
$USERR1
 40
0.0
  9
$USERR2
 40
0.0
  9
$USERR3
 40
0.0
  9
$USERR4
 40
0.0
  9
$USERR5
 40
0.0
  9
$WORLDVIEW
 70
     1
  9
$SHADEDGE
 70
     3
  9
$SHADEDIF
 70
    70
  9
$TILEMODE
 70
     1
  9
$MAXACTVP
 70
    16
  9
$PINSBASE
 10
0.0
 20
0.0
 30
0.0
  9
$PLIMCHECK
 70
     0
  9
$PEXTMIN
 10
1.000000E+20
 20
1.000000E+20
 30
1.000000E+20
  9
$PEXTMAX
 10
-1.000000E+20
 20
-1.000000E+20
 30
-1.000000E+20
  9
$PLIMMIN
 10
0.0
 20
0.0
  9
$PLIMMAX
 10
12.0
 20
9.0
  9
$UNITMODE
 70
     0
  9
$VISRETAIN
 70
     0
  9
$PLINEGEN
 70
     0
  9
$PSLTSCALE
 70
     1
  9
$TREEDEPTH
 70
  3020
  9
$PICKSTYLE
 70
     1
  9
$CMLSTYLE
  2
STANDARD
  9
$CMLJUST
 70
     0
  9
$CMLSCALE
 40
20.0
  9
$SAVEIMAGES
 70
     0
  0
ENDSEC
  0
SECTION
  2
CLASSES
  0
ENDSEC
  0
SECTION
  2
TABLES
  0
TABLE
  2
VPORT
  5
8
100
AcDbSymbolTable
 70
     2
  0
VPORT
  5
603
100
AcDbSymbolTableRecord
100
AcDbViewportTableRecord
  2
*ACTIVE
 70
     0
 10
0.0
 20
0.0
 11
1.0
 21
1.0
 12
188.480174
 22
77.313759
 13
0.0
 23
0.0
 14
10.0
 24
10.0
 15
10.0
 25
10.0
 16
0.0
 26
0.0
 36
1.0
 17
0.0
 27
0.0
 37
0.0
 40
501.365884
 41
1.650113
 42
50.0
 43
0.0
 44
0.0
 50
0.0
 51
0.0
 71
     0
 72
   100
 73
     1
 74
     0
 75
     0
 76
     0
 77
     0
 78
     0
  0
ENDTAB
  0
TABLE
  2
LTYPE
  5
5
100
AcDbSymbolTable
 70
     4
  0
LTYPE
  5
13
100
AcDbSymbolTableRecord
100
AcDbLinetypeTableRecord
  2
BYBLOCK
 70
     0
  3

 72
    65
 73
     0
 40
0.0
  0
LTYPE
  5
14
100
AcDbSymbolTableRecord
100
AcDbLinetypeTableRecord
  2
BYLAYER
 70
     0
  3

 72
    65
 73
     0
 40
0.0
  0
LTYPE
  5
15
100
AcDbSymbolTableRecord
100
AcDbLinetypeTableRecord
  2
CONTINUOUS
 70
    64
  3
Solid line
 72
    65
 73
     0
 40
0.0
  0
LTYPE
  5
94
100
AcDbSymbolTableRecord
100
AcDbLinetypeTableRecord
  2
ACAD_ISO04W100
 70
    64
  3
____ . ____ . ____ . ____ . ____ . ____ . ____ 
 72
    65
 73
     4
 40
30.5
 49
24.0
 74
     0
 49
-3.0
 74
     0
 49
0.5
 74
     0
 49
-3.0
 74
     0
  0
LTYPE
  5
225
100
AcDbSymbolTableRecord
100
AcDbLinetypeTableRecord
  2
TRATTEGGIATAX2
 70
    64
  3
____  ____  ____  ____  ____  ____  ____  ____ 
 72
    65
 73
     2
 40
1.5
 49
1.0
 74
     0
 49
-0.5
 74
     0
  0
LTYPE
  5
226
100
AcDbSymbolTableRecord
100
AcDbLinetypeTableRecord
  2
NASCOSTA
 70
    64
  3
__ __ __ __ __ __ __ __ __ __ __ __ __ __ __ __
 72
    65
 73
     2
 40
0.375
 49
0.25
 74
     0
 49
-0.125
 74
     0
  0
ENDTAB
  0
TABLE
  2
LAYER
  5
2
100
AcDbSymbolTable
 70
     9
  0
LAYER
  5
F
100
AcDbSymbolTableRecord
100
AcDbLayerTableRecord
  2
0
 70
     0
 62
     7
  6
CONTINUOUS
  0
LAYER
  5
95
100
AcDbSymbolTableRecord
100
AcDbLayerTableRecord
  2
DISEGNO
 70
    64
 62
     7
  6
CONTINUOUS
  0
LAYER
  5
96
100
AcDbSymbolTableRecord
100
AcDbLayerTableRecord
  2
ASSI
 70
    64
 62
     1
  6
ACAD_ISO04W100
  0
LAYER
  5
97
100
AcDbSymbolTableRecord
100
AcDbLayerTableRecord
  2
SEZIONE
 70
    64
 62
     3
  6
CONTINUOUS
  0
LAYER
  5
98
100
AcDbSymbolTableRecord
100
AcDbLayerTableRecord
  2
TEMPRA
 70
    64
 62
     2
  6
CONTINUOUS
  0
LAYER
  5
99
100
AcDbSymbolTableRecord
100
AcDbLayerTableRecord
  2
QUOTE
 70
    64
 62
     5
  6
CONTINUOUS
  0
LAYER
  5
9A
100
AcDbSymbolTableRecord
100
AcDbLayerTableRecord
  2
FOGLIO
 70
    64
 62
     8
  6
CONTINUOUS
  0
LAYER
  5
1A3
100
AcDbSymbolTableRecord
100
AcDbLayerTableRecord
  2
TRATTO
 70
    64
 62
     6
  6
NASCOSTA
  0
LAYER
  5
27D
100
AcDbSymbolTableRecord
100
AcDbLayerTableRecord
  2
DEFPOINTS
 70
    64
 62
     7
  6
CONTINUOUS
  0
ENDTAB
  0
TABLE
  2
STYLE
  5
3
100
AcDbSymbolTable
 70
     2
  0
STYLE
  5
10
100
AcDbSymbolTableRecord
100
AcDbTextStyleTableRecord
  2
STANDARD
 70
    64
 40
0.0
 41
1.1
 50
0.0
 71
     0
 42
3.0
  3
D:\Programmi\AutoCAD LT\isocp.shx
  4

  0
STYLE
  5
B0
100
AcDbSymbolTableRecord
100
AcDbTextStyleTableRecord
  2
STYLE3
 70
    64
 40
0.0
 41
1.5
 50
0.0
 71
     0
 42
4.0
  3
C:\Programmi\AutoCAD LT\isocp3.shx
  4

  0
ENDTAB
  0
TABLE
  2
VIEW
  5
6
100
AcDbSymbolTable
 70
     0
  0
ENDTAB
  0
TABLE
  2
UCS
  5
7
100
AcDbSymbolTable
 70
     0
  0
ENDTAB
  0
TABLE
  2
APPID
  5
9
100
AcDbSymbolTable
 70
     1
  0
APPID
  5
11
100
AcDbSymbolTableRecord
100
AcDbRegAppTableRecord
  2
ACAD
 70
     0
  0
ENDTAB
  0
TABLE
  2
DIMSTYLE
  5
A
100
AcDbSymbolTable
 70
    12
  0
DIMSTYLE
105
1D
100
AcDbSymbolTableRecord
100
AcDbDimStyleTableRecord
  2
STANDARD
 70
     0
  3

  4

  5

  6

  7

 40
1.0
 41
2.5
 42
0.625
 43
3.75
 44
1.25
 45
0.0
 46
0.0
 47
0.0
 48
0.0
140
3.0
141
2.5
142
0.0
143
0.03937
144
1.0
145
0.0
146
1.0
147
0.625
 71
     0
 72
     0
 73
     0
 74
     0
 75
     0
 76
     0
 77
     1
 78
     8
170
     0
171
     2
172
     0
173
     0
174
     0
175
     0
176
     0
177
     0
178
     0
270
     2
271
     2
272
     2
273
     2
274
     2
340
10
275
     0
280
     0
281
     0
282
     0
283
     1
284
     8
285
     0
286
     0
287
     3
288
     0
  0
DIMSTYLE
105
198
100
AcDbSymbolTableRecord
100
AcDbDimStyleTableRecord
  2
TOLL-06
 70
     0
  3

  4

  5

  6

  7

 40
1.0
 41
2.5
 42
0.625
 43
3.75
 44
1.25
 45
0.0
 46
0.0
 47
-0.05
 48
0.0
140
3.0
141
2.5
142
0.0
143
0.03937
144
1.0
145
0.0
146
0.8
147
0.625
 71
     1
 72
     0
 73
     0
 74
     0
 75
     0
 76
     0
 77
     1
 78
     8
170
     0
171
     2
172
     0
173
     0
174
     0
175
     0
176
     0
177
     0
178
     0
270
     2
271
     2
272
     2
273
     2
274
     2
340
10
275
     0
280
     0
281
     0
282
     0
283
     2
284
     8
285
     0
286
     0
287
     3
288
     0
  0
DIMSTYLE
105
20B
100
AcDbSymbolTableRecord
100
AcDbDimStyleTableRecord
  2
TOLL-01
 70
     0
  3

  4

  5

  6

  7

 40
1.0
 41
2.5
 42
0.625
 43
3.75
 44
1.25
 45
0.0
 46
0.0
 47
0.02
 48
0.0
140
3.0
141
2.5
142
0.0
143
0.03937
144
1.0
145
0.0
146
0.8
147
0.625
 71
     1
 72
     0
 73
     0
 74
     0
 75
     0
 76
     0
 77
     1
 78
     8
170
     0
171
     2
172
     0
173
     0
174
     0
175
     0
176
     0
177
     0
178
     0
270
     2
271
     2
272
     2
273
     2
274
     2
340
10
275
     0
280
     0
281
     0
282
     0
283
     2
284
     8
285
     0
286
     0
287
     3
288
     0
  0
DIMSTYLE
105
232
100
AcDbSymbolTableRecord
100
AcDbDimStyleTableRecord
  2
TOLL-02
 70
     0
  3

  4

  5

  6

  7

 40
1.0
 41
2.5
 42
0.625
 43
3.75
 44
1.25
 45
0.0
 46
0.0
 47
-0.02
 48
0.0
140
3.0
141
2.5
142
0.0
143
0.03937
144
1.0
145
0.0
146
0.8
147
0.625
 71
     1
 72
     0
 73
     0
 74
     0
 75
     0
 76
     0
 77
     1
 78
     8
170
     0
171
     2
172
     0
173
     0
174
     0
175
     0
176
     0
177
     0
178
     0
270
     2
271
     2
272
     2
273
     2
274
     2
340
10
275
     0
280
     0
281
     0
282
     0
283
     2
284
     8
285
     0
286
     0
287
     3
288
     0
  0
DIMSTYLE
105
233
100
AcDbSymbolTableRecord
100
AcDbDimStyleTableRecord
  2
TOLL-03
 70
     0
  3

  4

  5

  6

  7

 40
1.0
 41
2.5
 42
0.625
 43
3.75
 44
1.25
 45
0.0
 46
0.0
 47
0.01
 48
0.01
140
3.0
141
2.5
142
0.0
143
0.03937
144
1.0
145
0.0
146
0.8
147
0.625
 71
     1
 72
     0
 73
     0
 74
     0
 75
     0
 76
     0
 77
     1
 78
     8
170
     0
171
     2
172
     0
173
     0
174
     0
175
     0
176
     0
177
     0
178
     0
270
     2
271
     2
272
     2
273
     2
274
     2
340
10
275
     0
280
     0
281
     0
282
     0
283
     2
284
     8
285
     0
286
     0
287
     3
288
     0
  0
DIMSTYLE
105
234
100
AcDbSymbolTableRecord
100
AcDbDimStyleTableRecord
  2
TOLL-04
 70
     0
  3

  4

  5

  6

  7

 40
1.0
 41
2.5
 42
0.625
 43
3.75
 44
1.25
 45
0.0
 46
0.0
 47
0.05
 48
0.05
140
3.0
141
2.5
142
0.0
143
0.03937
144
1.0
145
0.0
146
0.8
147
0.625
 71
     1
 72
     0
 73
     0
 74
     0
 75
     0
 76
     0
 77
     1
 78
     8
170
     0
171
     2
172
     0
173
     0
174
     0
175
     0
176
     0
177
     0
178
     0
270
     2
271
     2
272
     2
273
     2
274
     2
340
10
275
     0
280
     0
281
     0
282
     0
283
     2
284
     8
285
     0
286
     0
287
     3
288
     0
  0
DIMSTYLE
105
235
100
AcDbSymbolTableRecord
100
AcDbDimStyleTableRecord
  2
TOLL-05
 70
     0
  3

  4

  5

  6

  7

 40
1.0
 41
2.5
 42
0.625
 43
3.75
 44
1.25
 45
0.0
 46
0.0
 47
0.05
 48
0.0
140
3.0
141
2.5
142
0.0
143
0.03937
144
1.0
145
0.0
146
0.8
147
0.625
 71
     1
 72
     0
 73
     0
 74
     0
 75
     0
 76
     0
 77
     1
 78
     8
170
     0
171
     2
172
     0
173
     0
174
     0
175
     0
176
     0
177
     0
178
     0
270
     2
271
     2
272
     2
273
     2
274
     2
340
10
275
     0
280
     0
281
     0
282
     0
283
     2
284
     8
285
     0
286
     0
287
     3
288
     0
  0
DIMSTYLE
105
247
100
AcDbSymbolTableRecord
100
AcDbDimStyleTableRecord
  2
TOLL-07
 70
     0
  3

  4

  5

  6

  7

 40
1.0
 41
2.5
 42
0.625
 43
3.75
 44
1.25
 45
0.0
 46
0.0
 47
0.1
 48
0.1
140
3.0
141
2.5
142
0.0
143
0.03937
144
1.0
145
0.0
146
1.0
147
0.625
 71
     1
 72
     0
 73
     0
 74
     0
 75
     0
 76
     0
 77
     1
 78
     8
170
     0
171
     2
172
     0
173
     0
174
     0
175
     0
176
     0
177
     0
178
     0
270
     2
271
     2
272
     2
273
     2
274
     2
340
10
275
     0
280
     0
281
     0
282
     0
283
     1
284
     8
285
     0
286
     0
287
     3
288
     0
  0
DIMSTYLE
105
251
100
AcDbSymbolTableRecord
100
AcDbDimStyleTableRecord
  2
TOLL-08
 70
     0
  3

  4

  5

  6

  7

 40
1.0
 41
2.5
 42
0.625
 43
3.75
 44
1.25
 45
0.0
 46
0.0
 47
0.1
 48
0.0
140
3.0
141
2.5
142
0.0
143
0.03937
144
1.0
145
0.0
146
1.0
147
0.625
 71
     1
 72
     0
 73
     0
 74
     0
 75
     0
 76
     0
 77
     1
 78
     8
170
     0
171
     2
172
     0
173
     0
174
     0
175
     0
176
     0
177
     0
178
     0
270
     2
271
     2
272
     2
273
     2
274
     2
340
10
275
     0
280
     0
281
     0
282
     0
283
     1
284
     8
285
     0
286
     0
287
     3
288
     0
  0
DIMSTYLE
105
257
100
AcDbSymbolTableRecord
100
AcDbDimStyleTableRecord
  2
TOLL-09
 70
     0
  3

  4

  5

  6

  7

 40
1.0
 41
2.5
 42
0.625
 43
3.75
 44
1.25
 45
0.0
 46
0.0
 47
-0.1
 48
0.0
140
3.0
141
2.5
142
0.0
143
0.03937
144
1.0
145
0.0
146
1.0
147
0.625
 71
     1
 72
     0
 73
     0
 74
     0
 75
     0
 76
     0
 77
     1
 78
     8
170
     0
171
     2
172
     0
173
     0
174
     0
175
     0
176
     0
177
     0
178
     0
270
     2
271
     2
272
     2
273
     2
274
     2
340
10
275
     0
280
     0
281
     0
282
     0
283
     1
284
     8
285
     0
286
     0
287
     3
288
     0
  0
DIMSTYLE
105
258
100
AcDbSymbolTableRecord
100
AcDbDimStyleTableRecord
  2
TOLL-10
 70
     0
  3

  4

  5

  6

  7

 40
1.0
 41
2.5
 42
0.625
 43
3.75
 44
1.25
 45
0.0
 46
0.0
 47
0.2
 48
0.2
140
3.0
141
2.5
142
0.0
143
0.03937
144
1.0
145
0.0
146
1.0
147
0.625
 71
     1
 72
     0
 73
     0
 74
     0
 75
     0
 76
     0
 77
     1
 78
     8
170
     0
171
     2
172
     0
173
     0
174
     0
175
     0
176
     0
177
     0
178
     0
270
     2
271
     2
272
     2
273
     2
274
     2
340
10
275
     0
280
     0
281
     0
282
     0
283
     1
284
     8
285
     0
286
     0
287
     3
288
     0
  0
DIMSTYLE
105
259
100
AcDbSymbolTableRecord
100
AcDbDimStyleTableRecord
  2
TOLL-11
 70
     0
  3

  4

  5

  6

  7

 40
1.0
 41
2.5
 42
0.625
 43
3.75
 44
1.25
 45
0.0
 46
0.0
 47
0.2
 48
0.0
140
3.0
141
2.5
142
0.0
143
0.03937
144
1.0
145
0.0
146
1.0
147
0.625
 71
     1
 72
     0
 73
     0
 74
     0
 75
     0
 76
     0
 77
     1
 78
     8
170
     0
171
     2
172
     0
173
     0
174
     0
175
     0
176
     0
177
     0
178
     0
270
     2
271
     2
272
     2
273
     2
274
     2
340
10
275
     0
280
     0
281
     0
282
     0
283
     1
284
     8
285
     0
286
     0
287
     3
288
     0
  0
ENDTAB
  0
TABLE
  2
BLOCK_RECORD
  5
1
100
AcDbSymbolTable
 70
    12
  0
BLOCK_RECORD
  5
19
100
AcDbSymbolTableRecord
100
AcDbBlockTableRecord
  2
*MODEL_SPACE
  0
BLOCK_RECORD
  5
16
100
AcDbSymbolTableRecord
100
AcDbBlockTableRecord
  2
*PAPER_SPACE
  0
BLOCK_RECORD
  5
2AE
100
AcDbSymbolTableRecord
100
AcDbBlockTableRecord
  2
*D0
  0
BLOCK_RECORD
  5
2BB
100
AcDbSymbolTableRecord
100
AcDbBlockTableRecord
  2
*D1
  0
BLOCK_RECORD
  5
3E3
100
AcDbSymbolTableRecord
100
AcDbBlockTableRecord
  2
RUGOSITA
  0
BLOCK_RECORD
  5
474
100
AcDbSymbolTableRecord
100
AcDbBlockTableRecord
  2
*D3
  0
BLOCK_RECORD
  5
483
100
AcDbSymbolTableRecord
100
AcDbBlockTableRecord
  2
*D4
  0
BLOCK_RECORD
  5
48D
100
AcDbSymbolTableRecord
100
AcDbBlockTableRecord
  2
*D5
  0
BLOCK_RECORD
  5
4C8
100
AcDbSymbolTableRecord
100
AcDbBlockTableRecord
  2
*X6
  0
BLOCK_RECORD
  5
558
100
AcDbSymbolTableRecord
100
AcDbBlockTableRecord
  2
*D7
  0
BLOCK_RECORD
  5
59A
100
AcDbSymbolTableRecord
100
AcDbBlockTableRecord
  2
*D8
  0
BLOCK_RECORD
  5
5BD
100
AcDbSymbolTableRecord
100
AcDbBlockTableRecord
  2
*D9
  0
BLOCK_RECORD
  5
5E2
100
AcDbSymbolTableRecord
100
AcDbBlockTableRecord
  2
*D10
  0
BLOCK_RECORD
  5
5F1
100
AcDbSymbolTableRecord
100
AcDbBlockTableRecord
  2
A$CC223
  0
ENDTAB
  0
ENDSEC
  0
SECTION
  2
BLOCKS
  0
BLOCK
  5
1A
100
AcDbEntity
  8
0
100
AcDbBlockBegin
  2
*MODEL_SPACE
 70
     0
 10
0.0
 20
0.0
 30
0.0
  3
*MODEL_SPACE
  1

  0
ENDBLK
  5
1B
100
AcDbEntity
  8
0
100
AcDbBlockEnd
  0
BLOCK
  5
17
100
AcDbEntity
 67
     1
  8
0
100
AcDbBlockBegin
  2
*PAPER_SPACE
 70
     0
 10
0.0
 20
0.0
 30
0.0
  3
*PAPER_SPACE
  1

  0
ENDBLK
  5
18
100
AcDbEntity
 67
     1
  8
0
100
AcDbBlockEnd
  0
BLOCK
  5
2E1
100
AcDbEntity
  8
0
100
AcDbBlockBegin
  2
*D0
 70
    65
 10
0.0
 20
0.0
 30
0.0
  3
*D0
  1

  0
LINE
  5
2E2
100
AcDbEntity
  8
0
  6
BYBLOCK
 62
     0
100
AcDbLine
 10
73.650323
 20
116.395636
 30
0.0
 11
73.650323
 21
90.526732
 31
0.0
  0
LINE
  5
2E3
100
AcDbEntity
  8
0
  6
BYBLOCK
 62
     0
100
AcDbLine
 10
133.650323
 20
116.395636
 30
0.0
 11
133.650323
 21
90.526732
 31
0.0
  0
LINE
  5
2E4
100
AcDbEntity
  8
0
  6
BYBLOCK
 62
     0
100
AcDbLine
 10
76.150323
 20
91.776732
 30
0.0
 11
131.150323
 21
91.776732
 31
0.0
  0
SOLID
  5
2E5
100
AcDbEntity
  8
0
  6
BYBLOCK
 62
     0
100
AcDbTrace
 10
76.150323
 20
92.193398
 30
0.0
 11
76.150323
 21
91.360065
 31
0.0
 12
73.650323
 22
91.776732
 32
0.0
 13
73.650323
 23
91.776732
 33
0.0
  0
SOLID
  5
2E6
100
AcDbEntity
  8
0
  6
BYBLOCK
 62
     0
100
AcDbTrace
 10
131.150323
 20
92.193398
 30
0.0
 11
131.150323
 21
91.360065
 31
0.0
 12
133.650323
 22
91.776732
 32
0.0
 13
133.650323
 23
91.776732
 33
0.0
  0
MTEXT
  5
2E7
100
AcDbEntity
  8
0
  6
BYBLOCK
 62
     0
100
AcDbMText
 10
103.650323
 20
95.14244
 30
0.0
 40
3.0
 41
0.0
 71
     5
 72
     1
  1
\A2;60{\H2.400000;\S+0.02^  0;}
  0
POINT
  5
2E8
100
AcDbEntity
  8
DEFPOINTS
  6
BYBLOCK
 62
     0
100
AcDbPoint
 10
73.650323
 20
117.020636
 30
0.0
  0
POINT
  5
2E9
100
AcDbEntity
  8
DEFPOINTS
  6
BYBLOCK
 62
     0
100
AcDbPoint
 10
133.650323
 20
117.020636
 30
0.0
  0
POINT
  5
2EA
100
AcDbEntity
  8
DEFPOINTS
  6
BYBLOCK
 62
     0
100
AcDbPoint
 10
133.650323
 20
91.776732
 30
0.0
  0
ENDBLK
  5
2EB
100
AcDbEntity
  8
0
100
AcDbBlockEnd
  0
BLOCK
  5
2D6
100
AcDbEntity
  8
0
100
AcDbBlockBegin
  2
*D1
 70
    65
 10
0.0
 20
0.0
 30
0.0
  3
*D1
  1

  0
LINE
  5
2D7
100
AcDbEntity
  8
0
  6
BYBLOCK
 62
     0
100
AcDbLine
 10
74.025323
 20
176.020636
 30
0.0
 11
41.909691
 21
176.020636
 31
0.0
  0
LINE
  5
2D8
100
AcDbEntity
  8
0
  6
BYBLOCK
 62
     0
100
AcDbLine
 10
74.025323
 20
116.020636
 30
0.0
 11
41.909691
 21
116.020636
 31
0.0
  0
LINE
  5
2D9
100
AcDbEntity
  8
0
  6
BYBLOCK
 62
     0
100
AcDbLine
 10
43.159691
 20
173.520636
 30
0.0
 11
43.159691
 21
118.520636
 31
0.0
  0
SOLID
  5
2DA
100
AcDbEntity
  8
0
  6
BYBLOCK
 62
     0
100
AcDbTrace
 10
42.743024
 20
173.520636
 30
0.0
 11
43.576357
 21
173.520636
 31
0.0
 12
43.159691
 22
176.020636
 32
0.0
 13
43.159691
 23
176.020636
 33
0.0
  0
SOLID
  5
2DB
100
AcDbEntity
  8
0
  6
BYBLOCK
 62
     0
100
AcDbTrace
 10
42.743024
 20
118.520636
 30
0.0
 11
43.576357
 21
118.520636
 31
0.0
 12
43.159691
 22
116.020636
 32
0.0
 13
43.159691
 23
116.020636
 33
0.0
  0
MTEXT
  5
2DC
100
AcDbEntity
  8
0
  6
BYBLOCK
 62
     0
100
AcDbMText
 10
39.793982
 20
146.020636
 30
0.0
 40
3.0
 41
0.0
 71
     5
 72
     1
  1
\A2;60{\H2.400000;\S+0.02^  0;}
 11
0.0
 21
1.0
 31
0.0
  0
POINT
  5
2DD
100
AcDbEntity
  8
DEFPOINTS
  6
BYBLOCK
 62
     0
100
AcDbPoint
 10
74.650323
 20
176.020636
 30
0.0
  0
POINT
  5
2DE
100
AcDbEntity
  8
DEFPOINTS
  6
BYBLOCK
 62
     0
100
AcDbPoint
 10
74.650323
 20
116.020636
 30
0.0
  0
POINT
  5
2DF
100
AcDbEntity
  8
DEFPOINTS
  6
BYBLOCK
 62
     0
100
AcDbPoint
 10
43.159691
 20
116.020636
 30
0.0
  0
ENDBLK
  5
2E0
100
AcDbEntity
  8
0
100
AcDbBlockEnd
  0
BLOCK
  5
3E8
100
AcDbEntity
  8
QUOTE
100
AcDbBlockBegin
  2
RUGOSITA
 70
     2
 10
0.0
 20
0.0
 30
0.0
  3
RUGOSITA
  1

  0
ATTDEF
  5
3E4
100
AcDbEntity
  8
QUOTE
100
AcDbText
 10
-1.071886
 20
3.214106
 30
0.0
 40
1.5
  1
0.8
100
AcDbAttributeDefinition
  3
CHE RUGOSITA ?
  2
RUGOSITA
 70
     0
  0
LINE
  5
3E5
100
AcDbEntity
  8
QUOTE
100
AcDbLine
 10
0.0
 20
0.0
 30
0.0
 11
4.0
 21
6.928203
 31
0.0
  0
LINE
  5
3E6
100
AcDbEntity
  8
QUOTE
100
AcDbLine
 10
0.0
 20
0.0
 30
0.0
 11
-1.75
 21
3.031089
 31
0.0
  0
LINE
  5
3E7
100
AcDbEntity
  8
QUOTE
100
AcDbLine
 10
-1.75
 20
3.031089
 30
0.0
 11
1.75
 21
3.031089
 31
0.0
  0
ENDBLK
  5
3E9
100
AcDbEntity
  8
QUOTE
100
AcDbBlockEnd
  0
BLOCK
  5
475
100
AcDbEntity
  8
0
100
AcDbBlockBegin
  2
*D3
 70
    65
 10
0.0
 20
0.0
 30
0.0
  3
*D3
  1

  0
LINE
  5
476
100
AcDbEntity
  8
0
  6
BYBLOCK
 62
     0
100
AcDbLine
 10
84.531851
 20
230.394879
 30
0.0
 11
84.531851
 21
245.730357
 31
0.0
  0
LINE
  5
477
100
AcDbEntity
  8
0
  6
BYBLOCK
 62
     0
100
AcDbLine
 10
124.531851
 20
230.394879
 30
0.0
 11
124.531851
 21
245.730357
 31
0.0
  0
LINE
  5
478
100
AcDbEntity
  8
0
  6
BYBLOCK
 62
     0
100
AcDbLine
 10
87.031851
 20
244.480357
 30
0.0
 11
122.031851
 21
244.480357
 31
0.0
  0
SOLID
  5
479
100
AcDbEntity
  8
0
  6
BYBLOCK
 62
     0
100
AcDbTrace
 10
87.031851
 20
244.897023
 30
0.0
 11
87.031851
 21
244.06369
 31
0.0
 12
84.531851
 22
244.480357
 32
0.0
 13
84.531851
 23
244.480357
 33
0.0
  0
SOLID
  5
47A
100
AcDbEntity
  8
0
  6
BYBLOCK
 62
     0
100
AcDbTrace
 10
122.031851
 20
244.897023
 30
0.0
 11
122.031851
 21
244.06369
 31
0.0
 12
124.531851
 22
244.480357
 32
0.0
 13
124.531851
 23
244.480357
 33
0.0
  0
MTEXT
  5
47B
100
AcDbEntity
  8
0
  6
BYBLOCK
 62
     0
100
AcDbMText
 10
104.531851
 20
246.605357
 30
0.0
 40
3.0
 41
0.0
 71
     5
 72
     1
  1
\A1;40
  0
POINT
  5
47C
100
AcDbEntity
  8
DEFPOINTS
  6
BYBLOCK
 62
     0
100
AcDbPoint
 10
84.531851
 20
229.769879
 30
0.0
  0
POINT
  5
47D
100
AcDbEntity
  8
DEFPOINTS
  6
BYBLOCK
 62
     0
100
AcDbPoint
 10
124.531851
 20
229.769879
 30
0.0
  0
POINT
  5
47E
100
AcDbEntity
  8
DEFPOINTS
  6
BYBLOCK
 62
     0
100
AcDbPoint
 10
124.531851
 20
244.480357
 30
0.0
  0
ENDBLK
  5
47F
100
AcDbEntity
  8
0
100
AcDbBlockEnd
  0
BLOCK
  5
484
100
AcDbEntity
  8
0
100
AcDbBlockBegin
  2
*D4
 70
    65
 10
0.0
 20
0.0
 30
0.0
  3
*D4
  1

  0
LINE
  5
485
100
AcDbEntity
  8
0
  6
BYBLOCK
 62
     0
100
AcDbLine
 10
126.291893
 20
225.769879
 30
0.0
 11
125.375031
 21
226.957045
 31
0.0
  0
LINE
  5
486
100
AcDbEntity
  8
0
  6
BYBLOCK
 62
     0
100
AcDbLine
 10
123.846928
 20
228.935656
 30
0.0
 11
118.932549
 21
235.298869
 31
0.0
  0
SOLID
  5
487
100
AcDbEntity
  8
0
  6
BYBLOCK
 62
     0
100
AcDbTrace
 10
125.7048
 20
227.211729
 30
0.0
 11
125.045263
 21
226.702361
 31
0.0
 12
123.846928
 22
228.935656
 32
0.0
 13
123.846928
 23
228.935656
 33
0.0
  0
MTEXT
  5
488
100
AcDbEntity
  8
0
  6
BYBLOCK
 62
     0
100
AcDbMText
 10
122.307506
 20
234.405455
 30
0.0
 40
3.0
 41
0.0
 71
     5
 72
     1
  1
\A1;R4
 11
0.611241
 21
-0.791444
 31
0.0
  0
POINT
  5
489
100
AcDbEntity
  8
DEFPOINTS
  6
BYBLOCK
 62
     0
100
AcDbPoint
 10
123.846928
 20
228.935656
 30
0.0
  0
POINT
  5
48A
100
AcDbEntity
  8
DEFPOINTS
  6
BYBLOCK
 62
     0
100
AcDbPoint
 10
126.291893
 20
225.769879
 30
0.0
  0
ENDBLK
  5
48B
100
AcDbEntity
  8
0
100
AcDbBlockEnd
  0
BLOCK
  5
48E
100
AcDbEntity
  8
0
100
AcDbBlockBegin
  2
*D5
 70
    65
 10
0.0
 20
0.0
 30
0.0
  3
*D5
  1

  0
LINE
  5
48F
100
AcDbEntity
  8
0
  6
BYBLOCK
 62
     0
100
AcDbLine
 10
123.765027
 20
228.933038
 30
0.0
 11
138.490361
 21
245.002919
 31
0.0
  0
LINE
  5
490
100
AcDbEntity
  8
0
  6
BYBLOCK
 62
     0
100
AcDbLine
 10
85.298674
 20
228.933038
 30
0.0
 11
70.573341
 21
245.002919
 31
0.0
  0
ARC
  5
491
100
AcDbEntity
  8
0
  6
BYBLOCK
 62
     0
100
AcDbCircle
 10
104.531851
 20
207.943709
 30
0.0
 40
49.014953
100
AcDbArc
 50
50.422679
 51
129.577321
  0
SOLID
  5
492
100
AcDbEntity
  8
0
  6
BYBLOCK
 62
     0
100
AcDbTrace
 10
136.033776
 20
246.03702
 30
0.0
 11
135.486636
 21
245.408465
 31
0.0
 12
137.645873
 22
244.081322
 32
0.0
 13
137.645873
 23
244.081322
 33
0.0
  0
SOLID
  5
493
100
AcDbEntity
  8
0
  6
BYBLOCK
 62
     0
100
AcDbTrace
 10
73.577066
 20
245.408465
 30
0.0
 11
73.029926
 21
246.03702
 31
0.0
 12
71.417829
 22
244.081322
 32
0.0
 13
71.417829
 23
244.081322
 33
0.0
  0
MTEXT
  5
494
100
AcDbEntity
  8
0
  6
BYBLOCK
 62
     0
100
AcDbMText
 10
104.531851
 20
259.083661
 30
0.0
 40
3.0
 41
0.0
 71
     5
 72
     1
  1
\A1;85°
  0
POINT
  5
495
100
AcDbEntity
  8
DEFPOINTS
  6
BYBLOCK
 62
     0
100
AcDbPoint
 10
116.527934
 20
255.468014
 30
0.0
  0
POINT
  5
496
100
AcDbEntity
  8
DEFPOINTS
  6
BYBLOCK
 62
     0
100
AcDbPoint
 10
85.720918
 20
228.472239
 30
0.0
  0
POINT
  5
497
100
AcDbEntity
  8
DEFPOINTS
  6
BYBLOCK
 62
     0
100
AcDbPoint
 10
123.342784
 20
228.472239
 30
0.0
  0
POINT
  5
498
100
AcDbEntity
  8
DEFPOINTS
  6
BYBLOCK
 62
     0
100
AcDbPoint
 10
119.522047
 20
224.302637
 30
0.0
  0
POINT
  5
499
100
AcDbEntity
  8
DEFPOINTS
  6
BYBLOCK
 62
     0
100
AcDbPoint
 10
89.541655
 20
224.302637
 30
0.0
  0
ENDBLK
  5
49A
100
AcDbEntity
  8
0
100
AcDbBlockEnd
  0
BLOCK
  5
4C9
100
AcDbEntity
  8
0
100
AcDbBlockBegin
  2
*X6
 70
    65
 10
0.0
 20
0.0
 30
0.0
  3
*X6
  1

  0
LINE
  5
4CB
100
AcDbEntity
  8
0
 62
     0
100
AcDbLine
 10
89.366963
 20
224.295312
 30
0.0
 11
89.461625
 21
224.389974
 31
0.0
  0
LINE
  5
4CC
100
AcDbEntity
  8
0
 62
     0
100
AcDbLine
 10
89.18515
 20
224.338004
 30
0.0
 11
89.354273
 21
224.507128
 31
0.0
  0
LINE
  5
4CD
100
AcDbEntity
  8
0
 62
     0
100
AcDbLine
 10
89.003336
 20
224.380697
 30
0.0
 11
89.246921
 21
224.624282
 31
0.0
  0
LINE
  5
4CE
100
AcDbEntity
  8
0
 62
     0
100
AcDbLine
 10
88.821522
 20
224.42339
 30
0.0
 11
89.139569
 21
224.741436
 31
0.0
  0
LINE
  5
4CF
100
AcDbEntity
  8
0
 62
     0
100
AcDbLine
 10
88.639709
 20
224.466083
 30
0.0
 11
89.032217
 21
224.858591
 31
0.0
  0
LINE
  5
4D0
100
AcDbEntity
  8
0
 62
     0
100
AcDbLine
 10
88.457895
 20
224.508775
 30
0.0
 11
88.924865
 21
224.975745
 31
0.0
  0
LINE
  5
4D1
100
AcDbEntity
  8
0
 62
     0
100
AcDbLine
 10
88.276081
 20
224.551468
 30
0.0
 11
88.817513
 21
225.092899
 31
0.0
  0
LINE
  5
4D2
100
AcDbEntity
  8
0
 62
     0
100
AcDbLine
 10
88.094268
 20
224.594161
 30
0.0
 11
88.710161
 21
225.210054
 31
0.0
  0
LINE
  5
4D3
100
AcDbEntity
  8
0
 62
     0
100
AcDbLine
 10
87.912454
 20
224.636854
 30
0.0
 11
88.602808
 21
225.327208
 31
0.0
  0
LINE
  5
4D4
100
AcDbEntity
  8
0
 62
     0
100
AcDbLine
 10
87.73064
 20
224.679546
 30
0.0
 11
88.495456
 21
225.444362
 31
0.0
  0
LINE
  5
4D5
100
AcDbEntity
  8
0
 62
     0
100
AcDbLine
 10
87.548827
 20
224.722239
 30
0.0
 11
88.388104
 21
225.561516
 31
0.0
  0
LINE
  5
4D6
100
AcDbEntity
  8
0
 62
     0
100
AcDbLine
 10
87.367013
 20
224.764932
 30
0.0
 11
88.280752
 21
225.678671
 31
0.0
  0
LINE
  5
4D7
100
AcDbEntity
  8
0
 62
     0
100
AcDbLine
 10
87.185199
 20
224.807625
 30
0.0
 11
88.1734
 21
225.795825
 31
0.0
  0
LINE
  5
4D8
100
AcDbEntity
  8
0
 62
     0
100
AcDbLine
 10
87.003386
 20
224.850317
 30
0.0
 11
88.066048
 21
225.912979
 31
0.0
  0
LINE
  5
4D9
100
AcDbEntity
  8
0
 62
     0
100
AcDbLine
 10
86.821572
 20
224.89301
 30
0.0
 11
87.958696
 21
226.030134
 31
0.0
  0
LINE
  5
4DA
100
AcDbEntity
  8
0
 62
     0
100
AcDbLine
 10
86.639758
 20
224.935703
 30
0.0
 11
87.851344
 21
226.147288
 31
0.0
  0
LINE
  5
4DB
100
AcDbEntity
  8
0
 62
     0
100
AcDbLine
 10
86.457945
 20
224.978395
 30
0.0
 11
87.743991
 21
226.264442
 31
0.0
  0
LINE
  5
4DC
100
AcDbEntity
  8
0
 62
     0
100
AcDbLine
 10
86.276131
 20
225.021088
 30
0.0
 11
87.636639
 21
226.381596
 31
0.0
  0
LINE
  5
4DD
100
AcDbEntity
  8
0
 62
     0
100
AcDbLine
 10
86.094318
 20
225.063781
 30
0.0
 11
87.529287
 21
226.498751
 31
0.0
  0
LINE
  5
4DE
100
AcDbEntity
  8
0
 62
     0
100
AcDbLine
 10
85.912504
 20
225.106474
 30
0.0
 11
87.421935
 21
226.615905
 31
0.0
  0
LINE
  5
4DF
100
AcDbEntity
  8
0
 62
     0
100
AcDbLine
 10
85.73069
 20
225.149166
 30
0.0
 11
87.314583
 21
226.733059
 31
0.0
  0
LINE
  5
4E0
100
AcDbEntity
  8
0
 62
     0
100
AcDbLine
 10
85.548877
 20
225.191859
 30
0.0
 11
87.207231
 21
226.850214
 31
0.0
  0
LINE
  5
4E1
100
AcDbEntity
  8
0
 62
     0
100
AcDbLine
 10
85.367063
 20
225.234552
 30
0.0
 11
87.099879
 21
226.967368
 31
0.0
  0
LINE
  5
4E2
100
AcDbEntity
  8
0
 62
     0
100
AcDbLine
 10
85.185249
 20
225.277245
 30
0.0
 11
86.992527
 21
227.084522
 31
0.0
  0
LINE
  5
4E3
100
AcDbEntity
  8
0
 62
     0
100
AcDbLine
 10
85.003436
 20
225.319937
 30
0.0
 11
86.885175
 21
227.201676
 31
0.0
  0
LINE
  5
4E4
100
AcDbEntity
  8
0
 62
     0
100
AcDbLine
 10
84.821622
 20
225.36263
 30
0.0
 11
86.777822
 21
227.318831
 31
0.0
  0
LINE
  5
4E5
100
AcDbEntity
  8
0
 62
     0
100
AcDbLine
 10
84.639808
 20
225.405323
 30
0.0
 11
86.67047
 21
227.435985
 31
0.0
  0
LINE
  5
4E6
100
AcDbEntity
  8
0
 62
     0
100
AcDbLine
 10
84.457995
 20
225.448016
 30
0.0
 11
86.563118
 21
227.553139
 31
0.0
  0
LINE
  5
4E7
100
AcDbEntity
  8
0
 62
     0
100
AcDbLine
 10
84.276181
 20
225.490708
 30
0.0
 11
86.455766
 21
227.670294
 31
0.0
  0
LINE
  5
4E8
100
AcDbEntity
  8
0
 62
     0
100
AcDbLine
 10
84.094367
 20
225.533401
 30
0.0
 11
86.348414
 21
227.787448
 31
0.0
  0
LINE
  5
4E9
100
AcDbEntity
  8
0
 62
     0
100
AcDbLine
 10
83.912554
 20
225.576094
 30
0.0
 11
86.241062
 21
227.904602
 31
0.0
  0
LINE
  5
4EA
100
AcDbEntity
  8
0
 62
     0
100
AcDbLine
 10
83.73074
 20
225.618787
 30
0.0
 11
86.13371
 21
228.021756
 31
0.0
  0
LINE
  5
4EB
100
AcDbEntity
  8
0
 62
     0
100
AcDbLine
 10
83.548926
 20
225.661479
 30
0.0
 11
86.026358
 21
228.138911
 31
0.0
  0
LINE
  5
4EC
100
AcDbEntity
  8
0
 62
     0
100
AcDbLine
 10
83.367113
 20
225.704172
 30
0.0
 11
85.919005
 21
228.256065
 31
0.0
  0
LINE
  5
4ED
100
AcDbEntity
  8
0
 62
     0
100
AcDbLine
 10
83.185299
 20
225.746865
 30
0.0
 11
85.811653
 21
228.373219
 31
0.0
  0
LINE
  5
4EE
100
AcDbEntity
  8
0
 62
     0
100
AcDbLine
 10
83.003485
 20
225.789558
 30
0.0
 11
85.704248
 21
228.49032
 31
0.0
  0
LINE
  5
4EF
100
AcDbEntity
  8
0
 62
     0
100
AcDbLine
 10
82.821672
 20
225.83225
 30
0.0
 11
85.593974
 21
228.604553
 31
0.0
  0
LINE
  5
4F0
100
AcDbEntity
  8
0
 62
     0
100
AcDbLine
 10
82.639858
 20
225.874943
 30
0.0
 11
85.479244
 21
228.71433
 31
0.0
  0
LINE
  5
4F1
100
AcDbEntity
  8
0
 62
     0
100
AcDbLine
 10
82.458044
 20
225.917636
 30
0.0
 11
85.360046
 21
228.819637
 31
0.0
  0
LINE
  5
4F2
100
AcDbEntity
  8
0
 62
     0
100
AcDbLine
 10
82.276231
 20
225.960329
 30
0.0
 11
85.236345
 21
228.920443
 31
0.0
  0
LINE
  5
4F3
100
AcDbEntity
  8
0
 62
     0
100
AcDbLine
 10
82.094417
 20
226.003021
 30
0.0
 11
85.108088
 21
229.016692
 31
0.0
  0
LINE
  5
4F4
100
AcDbEntity
  8
0
 62
     0
100
AcDbLine
 10
81.912603
 20
226.045714
 30
0.0
 11
84.975194
 21
229.108305
 31
0.0
  0
LINE
  5
4F5
100
AcDbEntity
  8
0
 62
     0
100
AcDbLine
 10
81.73079
 20
226.088407
 30
0.0
 11
84.83756
 21
229.195177
 31
0.0
  0
LINE
  5
4F6
100
AcDbEntity
  8
0
 62
     0
100
AcDbLine
 10
81.548976
 20
226.1311
 30
0.0
 11
84.695052
 21
229.277176
 31
0.0
  0
LINE
  5
4F7
100
AcDbEntity
  8
0
 62
     0
100
AcDbLine
 10
81.367162
 20
226.173792
 30
0.0
 11
84.547506
 21
229.354136
 31
0.0
  0
LINE
  5
4F8
100
AcDbEntity
  8
0
 62
     0
100
AcDbLine
 10
81.185349
 20
226.216485
 30
0.0
 11
84.394719
 21
229.425855
 31
0.0
  0
LINE
  5
4F9
100
AcDbEntity
  8
0
 62
     0
100
AcDbLine
 10
81.003535
 20
226.259178
 30
0.0
 11
84.236445
 21
229.492088
 31
0.0
  0
LINE
  5
4FA
100
AcDbEntity
  8
0
 62
     0
100
AcDbLine
 10
80.821721
 20
226.301871
 30
0.0
 11
84.072387
 21
229.552536
 31
0.0
  0
LINE
  5
4FB
100
AcDbEntity
  8
0
 62
     0
100
AcDbLine
 10
80.639908
 20
226.344563
 30
0.0
 11
83.902182
 21
229.606838
 31
0.0
  0
LINE
  5
4FC
100
AcDbEntity
  8
0
 62
     0
100
AcDbLine
 10
80.458094
 20
226.387256
 30
0.0
 11
83.72539
 21
229.654551
 31
0.0
  0
LINE
  5
4FD
100
AcDbEntity
  8
0
 62
     0
100
AcDbLine
 10
80.27628
 20
226.429949
 30
0.0
 11
83.541465
 21
229.695134
 31
0.0
  0
LINE
  5
4FE
100
AcDbEntity
  8
0
 62
     0
100
AcDbLine
 10
80.094467
 20
226.472642
 30
0.0
 11
83.349734
 21
229.727909
 31
0.0
  0
LINE
  5
4FF
100
AcDbEntity
  8
0
 62
     0
100
AcDbLine
 10
79.912653
 20
226.515334
 30
0.0
 11
83.149341
 21
229.752022
 31
0.0
  0
LINE
  5
500
100
AcDbEntity
  8
0
 62
     0
100
AcDbLine
 10
79.730839
 20
226.558027
 30
0.0
 11
82.939187
 21
229.766375
 31
0.0
  0
LINE
  5
501
100
AcDbEntity
  8
0
 62
     0
100
AcDbLine
 10
79.549026
 20
226.60072
 30
0.0
 11
82.718185
 21
229.769879
 31
0.0
  0
LINE
  5
502
100
AcDbEntity
  8
0
 62
     0
100
AcDbLine
 10
79.367212
 20
226.643412
 30
0.0
 11
82.493678
 21
229.769879
 31
0.0
  0
LINE
  5
503
100
AcDbEntity
  8
0
 62
     0
100
AcDbLine
 10
79.185398
 20
226.686105
 30
0.0
 11
82.269172
 21
229.769879
 31
0.0
  0
LINE
  5
504
100
AcDbEntity
  8
0
 62
     0
100
AcDbLine
 10
79.003585
 20
226.728798
 30
0.0
 11
82.044665
 21
229.769879
 31
0.0
  0
LINE
  5
505
100
AcDbEntity
  8
0
 62
     0
100
AcDbLine
 10
78.821771
 20
226.771491
 30
0.0
 11
81.820159
 21
229.769879
 31
0.0
  0
LINE
  5
506
100
AcDbEntity
  8
0
 62
     0
100
AcDbLine
 10
78.639957
 20
226.814183
 30
0.0
 11
81.595653
 21
229.769879
 31
0.0
  0
LINE
  5
507
100
AcDbEntity
  8
0
 62
     0
100
AcDbLine
 10
78.458144
 20
226.856876
 30
0.0
 11
81.371146
 21
229.769879
 31
0.0
  0
LINE
  5
508
100
AcDbEntity
  8
0
 62
     0
100
AcDbLine
 10
78.27633
 20
226.899569
 30
0.0
 11
81.14664
 21
229.769879
 31
0.0
  0
LINE
  5
509
100
AcDbEntity
  8
0
 62
     0
100
AcDbLine
 10
78.094516
 20
226.942262
 30
0.0
 11
80.922133
 21
229.769879
 31
0.0
  0
LINE
  5
50A
100
AcDbEntity
  8
0
 62
     0
100
AcDbLine
 10
77.912703
 20
226.984954
 30
0.0
 11
80.697627
 21
229.769879
 31
0.0
  0
LINE
  5
50B
100
AcDbEntity
  8
0
 62
     0
100
AcDbLine
 10
77.730889
 20
227.027647
 30
0.0
 11
80.473121
 21
229.769879
 31
0.0
  0
LINE
  5
50C
100
AcDbEntity
  8
0
 62
     0
100
AcDbLine
 10
77.549076
 20
227.07034
 30
0.0
 11
80.248614
 21
229.769879
 31
0.0
  0
LINE
  5
50D
100
AcDbEntity
  8
0
 62
     0
100
AcDbLine
 10
77.367262
 20
227.113033
 30
0.0
 11
80.024108
 21
229.769879
 31
0.0
  0
LINE
  5
50E
100
AcDbEntity
  8
0
 62
     0
100
AcDbLine
 10
77.185448
 20
227.155725
 30
0.0
 11
79.799601
 21
229.769879
 31
0.0
  0
LINE
  5
50F
100
AcDbEntity
  8
0
 62
     0
100
AcDbLine
 10
77.003635
 20
227.198418
 30
0.0
 11
79.575095
 21
229.769879
 31
0.0
  0
LINE
  5
510
100
AcDbEntity
  8
0
 62
     0
100
AcDbLine
 10
76.821821
 20
227.241111
 30
0.0
 11
79.350589
 21
229.769879
 31
0.0
  0
LINE
  5
511
100
AcDbEntity
  8
0
 62
     0
100
AcDbLine
 10
76.640007
 20
227.283804
 30
0.0
 11
79.126082
 21
229.769879
 31
0.0
  0
LINE
  5
512
100
AcDbEntity
  8
0
 62
     0
100
AcDbLine
 10
76.458194
 20
227.326496
 30
0.0
 11
78.901576
 21
229.769879
 31
0.0
  0
LINE
  5
513
100
AcDbEntity
  8
0
 62
     0
100
AcDbLine
 10
76.27638
 20
227.369189
 30
0.0
 11
78.677069
 21
229.769879
 31
0.0
  0
LINE
  5
514
100
AcDbEntity
  8
0
 62
     0
100
AcDbLine
 10
76.094566
 20
227.411882
 30
0.0
 11
78.452563
 21
229.769879
 31
0.0
  0
LINE
  5
515
100
AcDbEntity
  8
0
 62
     0
100
AcDbLine
 10
75.912753
 20
227.454575
 30
0.0
 11
78.228057
 21
229.769879
 31
0.0
  0
LINE
  5
516
100
AcDbEntity
  8
0
 62
     0
100
AcDbLine
 10
75.730939
 20
227.497267
 30
0.0
 11
78.00355
 21
229.769879
 31
0.0
  0
LINE
  5
517
100
AcDbEntity
  8
0
 62
     0
100
AcDbLine
 10
75.549125
 20
227.53996
 30
0.0
 11
77.779044
 21
229.769879
 31
0.0
  0
LINE
  5
518
100
AcDbEntity
  8
0
 62
     0
100
AcDbLine
 10
75.367312
 20
227.582653
 30
0.0
 11
77.554537
 21
229.769879
 31
0.0
  0
LINE
  5
519
100
AcDbEntity
  8
0
 62
     0
100
AcDbLine
 10
75.185498
 20
227.625346
 30
0.0
 11
77.330031
 21
229.769879
 31
0.0
  0
LINE
  5
51A
100
AcDbEntity
  8
0
 62
     0
100
AcDbLine
 10
75.003684
 20
227.668038
 30
0.0
 11
77.105525
 21
229.769879
 31
0.0
  0
LINE
  5
51B
100
AcDbEntity
  8
0
 62
     0
100
AcDbLine
 10
74.821871
 20
227.710731
 30
0.0
 11
76.881018
 21
229.769879
 31
0.0
  0
LINE
  5
51C
100
AcDbEntity
  8
0
 62
     0
100
AcDbLine
 10
74.640057
 20
227.753424
 30
0.0
 11
76.656512
 21
229.769879
 31
0.0
  0
LINE
  5
51D
100
AcDbEntity
  8
0
 62
     0
100
AcDbLine
 10
74.531851
 20
227.869724
 30
0.0
 11
76.432005
 21
229.769879
 31
0.0
  0
LINE
  5
51E
100
AcDbEntity
  8
0
 62
     0
100
AcDbLine
 10
74.531851
 20
228.09423
 30
0.0
 11
76.207499
 21
229.769879
 31
0.0
  0
LINE
  5
51F
100
AcDbEntity
  8
0
 62
     0
100
AcDbLine
 10
74.531851
 20
228.318737
 30
0.0
 11
75.982992
 21
229.769879
 31
0.0
  0
LINE
  5
520
100
AcDbEntity
  8
0
 62
     0
100
AcDbLine
 10
74.531851
 20
228.543243
 30
0.0
 11
75.758486
 21
229.769879
 31
0.0
  0
LINE
  5
521
100
AcDbEntity
  8
0
 62
     0
100
AcDbLine
 10
74.531851
 20
228.76775
 30
0.0
 11
75.53398
 21
229.769879
 31
0.0
  0
LINE
  5
522
100
AcDbEntity
  8
0
 62
     0
100
AcDbLine
 10
122.680642
 20
227.749638
 30
0.0
 11
123.926677
 21
228.995674
 31
0.0
  0
LINE
  5
523
100
AcDbEntity
  8
0
 62
     0
100
AcDbLine
 10
120.221874
 20
225.066364
 30
0.0
 11
124.503156
 21
229.347646
 31
0.0
  0
LINE
  5
524
100
AcDbEntity
  8
0
 62
     0
100
AcDbLine
 10
120.399927
 20
225.01991
 30
0.0
 11
124.899861
 21
229.519845
 31
0.0
  0
LINE
  5
525
100
AcDbEntity
  8
0
 62
     0
100
AcDbLine
 10
120.678895
 20
225.074372
 30
0.0
 11
125.231206
 21
229.626683
 31
0.0
  0
LINE
  5
526
100
AcDbEntity
  8
0
 62
     0
100
AcDbLine
 10
120.957863
 20
225.128834
 30
0.0
 11
125.524632
 21
229.695603
 31
0.0
  0
LINE
  5
527
100
AcDbEntity
  8
0
 62
     0
100
AcDbLine
 10
121.236832
 20
225.183296
 30
0.0
 11
125.792062
 21
229.738527
 31
0.0
  0
LINE
  5
528
100
AcDbEntity
  8
0
 62
     0
100
AcDbLine
 10
121.5158
 20
225.237758
 30
0.0
 11
126.03998
 21
229.761938
 31
0.0
  0
LINE
  5
529
100
AcDbEntity
  8
0
 62
     0
100
AcDbLine
 10
121.794768
 20
225.29222
 30
0.0
 11
126.272379
 21
229.769831
 31
0.0
  0
LINE
  5
52A
100
AcDbEntity
  8
0
 62
     0
100
AcDbLine
 10
122.073737
 20
225.346682
 30
0.0
 11
126.496933
 21
229.769879
 31
0.0
  0
LINE
  5
52B
100
AcDbEntity
  8
0
 62
     0
100
AcDbLine
 10
122.352705
 20
225.401144
 30
0.0
 11
126.72144
 21
229.769879
 31
0.0
  0
LINE
  5
52C
100
AcDbEntity
  8
0
 62
     0
100
AcDbLine
 10
122.631673
 20
225.455606
 30
0.0
 11
126.945946
 21
229.769879
 31
0.0
  0
LINE
  5
52D
100
AcDbEntity
  8
0
 62
     0
100
AcDbLine
 10
122.910642
 20
225.510068
 30
0.0
 11
127.170452
 21
229.769879
 31
0.0
  0
LINE
  5
52E
100
AcDbEntity
  8
0
 62
     0
100
AcDbLine
 10
123.18961
 20
225.56453
 30
0.0
 11
127.394959
 21
229.769879
 31
0.0
  0
LINE
  5
52F
100
AcDbEntity
  8
0
 62
     0
100
AcDbLine
 10
123.468578
 20
225.618992
 30
0.0
 11
127.619465
 21
229.769879
 31
0.0
  0
LINE
  5
530
100
AcDbEntity
  8
0
 62
     0
100
AcDbLine
 10
123.747547
 20
225.673454
 30
0.0
 11
127.843972
 21
229.769879
 31
0.0
  0
LINE
  5
531
100
AcDbEntity
  8
0
 62
     0
100
AcDbLine
 10
124.026515
 20
225.727916
 30
0.0
 11
128.068478
 21
229.769879
 31
0.0
  0
LINE
  5
532
100
AcDbEntity
  8
0
 62
     0
100
AcDbLine
 10
124.305483
 20
225.782377
 30
0.0
 11
128.292984
 21
229.769879
 31
0.0
  0
LINE
  5
533
100
AcDbEntity
  8
0
 62
     0
100
AcDbLine
 10
124.584452
 20
225.836839
 30
0.0
 11
128.517491
 21
229.769879
 31
0.0
  0
LINE
  5
534
100
AcDbEntity
  8
0
 62
     0
100
AcDbLine
 10
124.86342
 20
225.891301
 30
0.0
 11
128.741997
 21
229.769879
 31
0.0
  0
LINE
  5
535
100
AcDbEntity
  8
0
 62
     0
100
AcDbLine
 10
125.142388
 20
225.945763
 30
0.0
 11
128.966504
 21
229.769879
 31
0.0
  0
LINE
  5
536
100
AcDbEntity
  8
0
 62
     0
100
AcDbLine
 10
125.421357
 20
226.000225
 30
0.0
 11
129.19101
 21
229.769879
 31
0.0
  0
LINE
  5
537
100
AcDbEntity
  8
0
 62
     0
100
AcDbLine
 10
125.700325
 20
226.054687
 30
0.0
 11
129.415516
 21
229.769879
 31
0.0
  0
LINE
  5
538
100
AcDbEntity
  8
0
 62
     0
100
AcDbLine
 10
125.979293
 20
226.109149
 30
0.0
 11
129.640023
 21
229.769879
 31
0.0
  0
LINE
  5
539
100
AcDbEntity
  8
0
 62
     0
100
AcDbLine
 10
126.258262
 20
226.163611
 30
0.0
 11
129.864529
 21
229.769879
 31
0.0
  0
LINE
  5
53A
100
AcDbEntity
  8
0
 62
     0
100
AcDbLine
 10
126.53723
 20
226.218073
 30
0.0
 11
130.089036
 21
229.769879
 31
0.0
  0
LINE
  5
53B
100
AcDbEntity
  8
0
 62
     0
100
AcDbLine
 10
126.816198
 20
226.272535
 30
0.0
 11
130.313542
 21
229.769879
 31
0.0
  0
LINE
  5
53C
100
AcDbEntity
  8
0
 62
     0
100
AcDbLine
 10
127.095167
 20
226.326997
 30
0.0
 11
130.538048
 21
229.769879
 31
0.0
  0
LINE
  5
53D
100
AcDbEntity
  8
0
 62
     0
100
AcDbLine
 10
127.374135
 20
226.381459
 30
0.0
 11
130.762555
 21
229.769879
 31
0.0
  0
LINE
  5
53E
100
AcDbEntity
  8
0
 62
     0
100
AcDbLine
 10
127.653103
 20
226.435921
 30
0.0
 11
130.987061
 21
229.769879
 31
0.0
  0
LINE
  5
53F
100
AcDbEntity
  8
0
 62
     0
100
AcDbLine
 10
127.932072
 20
226.490383
 30
0.0
 11
131.211568
 21
229.769879
 31
0.0
  0
LINE
  5
540
100
AcDbEntity
  8
0
 62
     0
100
AcDbLine
 10
128.21104
 20
226.544844
 30
0.0
 11
131.436074
 21
229.769879
 31
0.0
  0
LINE
  5
541
100
AcDbEntity
  8
0
 62
     0
100
AcDbLine
 10
128.490008
 20
226.599306
 30
0.0
 11
131.66058
 21
229.769879
 31
0.0
  0
LINE
  5
542
100
AcDbEntity
  8
0
 62
     0
100
AcDbLine
 10
128.768977
 20
226.653768
 30
0.0
 11
131.885087
 21
229.769879
 31
0.0
  0
LINE
  5
543
100
AcDbEntity
  8
0
 62
     0
100
AcDbLine
 10
129.047945
 20
226.70823
 30
0.0
 11
132.109593
 21
229.769879
 31
0.0
  0
LINE
  5
544
100
AcDbEntity
  8
0
 62
     0
100
AcDbLine
 10
129.326913
 20
226.762692
 30
0.0
 11
132.3341
 21
229.769879
 31
0.0
  0
LINE
  5
545
100
AcDbEntity
  8
0
 62
     0
100
AcDbLine
 10
129.605882
 20
226.817154
 30
0.0
 11
132.558606
 21
229.769879
 31
0.0
  0
LINE
  5
546
100
AcDbEntity
  8
0
 62
     0
100
AcDbLine
 10
129.88485
 20
226.871616
 30
0.0
 11
132.783112
 21
229.769879
 31
0.0
  0
LINE
  5
547
100
AcDbEntity
  8
0
 62
     0
100
AcDbLine
 10
130.163818
 20
226.926078
 30
0.0
 11
133.007619
 21
229.769879
 31
0.0
  0
LINE
  5
548
100
AcDbEntity
  8
0
 62
     0
100
AcDbLine
 10
130.442787
 20
226.98054
 30
0.0
 11
133.232125
 21
229.769879
 31
0.0
  0
LINE
  5
549
100
AcDbEntity
  8
0
 62
     0
100
AcDbLine
 10
130.721755
 20
227.035002
 30
0.0
 11
133.456632
 21
229.769879
 31
0.0
  0
LINE
  5
54A
100
AcDbEntity
  8
0
 62
     0
100
AcDbLine
 10
131.000723
 20
227.089464
 30
0.0
 11
133.606494
 21
229.695235
 31
0.0
  0
LINE
  5
54B
100
AcDbEntity
  8
0
 62
     0
100
AcDbLine
 10
131.279692
 20
227.143926
 30
0.0
 11
133.718748
 21
229.582982
 31
0.0
  0
LINE
  5
54C
100
AcDbEntity
  8
0
 62
     0
100
AcDbLine
 10
131.55866
 20
227.198388
 30
0.0
 11
133.831001
 21
229.470729
 31
0.0
  0
LINE
  5
54D
100
AcDbEntity
  8
0
 62
     0
100
AcDbLine
 10
131.837628
 20
227.25285
 30
0.0
 11
133.943254
 21
229.358475
 31
0.0
  0
LINE
  5
54E
100
AcDbEntity
  8
0
 62
     0
100
AcDbLine
 10
132.116597
 20
227.307311
 30
0.0
 11
134.055507
 21
229.246222
 31
0.0
  0
LINE
  5
54F
100
AcDbEntity
  8
0
 62
     0
100
AcDbLine
 10
132.395565
 20
227.361773
 30
0.0
 11
134.16776
 21
229.133969
 31
0.0
  0
LINE
  5
550
100
AcDbEntity
  8
0
 62
     0
100
AcDbLine
 10
132.674533
 20
227.416235
 30
0.0
 11
134.280014
 21
229.021716
 31
0.0
  0
LINE
  5
551
100
AcDbEntity
  8
0
 62
     0
100
AcDbLine
 10
132.953502
 20
227.470697
 30
0.0
 11
134.392267
 21
228.909463
 31
0.0
  0
LINE
  5
552
100
AcDbEntity
  8
0
 62
     0
100
AcDbLine
 10
133.23247
 20
227.525159
 30
0.0
 11
134.50452
 21
228.797209
 31
0.0
  0
LINE
  5
553
100
AcDbEntity
  8
0
 62
     0
100
AcDbLine
 10
133.511438
 20
227.579621
 30
0.0
 11
134.531851
 21
228.600034
 31
0.0
  0
LINE
  5
554
100
AcDbEntity
  8
0
 62
     0
100
AcDbLine
 10
133.790407
 20
227.634083
 30
0.0
 11
134.531851
 21
228.375527
 31
0.0
  0
LINE
  5
555
100
AcDbEntity
  8
0
 62
     0
100
AcDbLine
 10
134.069375
 20
227.688545
 30
0.0
 11
134.531851
 21
228.151021
 31
0.0
  0
LINE
  5
556
100
AcDbEntity
  8
0
 62
     0
100
AcDbLine
 10
134.348343
 20
227.743007
 30
0.0
 11
134.531851
 21
227.926514
 31
0.0
  0
ENDBLK
  5
557
100
AcDbEntity
  8
0
100
AcDbBlockEnd
  0
BLOCK
  5
559
100
AcDbEntity
  8
0
100
AcDbBlockBegin
  2
*D7
 70
    65
 10
0.0
 20
0.0
 30
0.0
  3
*D7
  1

  0
LINE
  5
55A
100
AcDbEntity
  8
0
  6
BYBLOCK
 62
     0
100
AcDbLine
 10
89.963899
 20
223.841838
 30
0.0
 11
96.664582
 21
216.529326
 31
0.0
  0
LINE
  5
55B
100
AcDbEntity
  8
0
  6
BYBLOCK
 62
     0
100
AcDbLine
 10
89.226622
 20
223.166248
 30
0.0
 11
95.927305
 21
215.853736
 31
0.0
  0
LINE
  5
55C
100
AcDbEntity
  8
0
  6
BYBLOCK
 62
     0
100
AcDbLine
 10
97.663288
 20
219.139898
 30
0.0
 11
99.506481
 21
220.828874
 31
0.0
  0
LINE
  5
55D
100
AcDbEntity
  8
0
  6
BYBLOCK
 62
     0
100
AcDbLine
 10
93.239624
 20
215.086357
 30
0.0
 11
89.988231
 21
212.107004
 31
0.0
  0
SOLID
  5
55E
100
AcDbEntity
  8
0
  6
BYBLOCK
 62
     0
100
AcDbTrace
 10
97.381792
 20
219.447097
 30
0.0
 11
97.944784
 21
218.832699
 31
0.0
 12
95.820094
 22
217.450923
 32
0.0
 13
95.820094
 23
217.450923
 33
0.0
  0
SOLID
  5
55F
100
AcDbEntity
  8
0
  6
BYBLOCK
 62
     0
100
AcDbTrace
 10
92.958128
 20
215.393556
 30
0.0
 11
93.521119
 21
214.779158
 31
0.0
 12
95.082817
 22
216.775332
 32
0.0
 13
95.082817
 23
216.775332
 33
0.0
  0
MTEXT
  5
560
100
AcDbEntity
  8
0
  6
BYBLOCK
 62
     0
100
AcDbMText
 10
89.256701
 20
214.318907
 30
0.0
 40
3.0
 41
0.0
 71
     5
 72
     1
  1
\A1;1
 11
0.737277
 21
0.67559
 31
0.0
  0
POINT
  5
561
100
AcDbEntity
  8
DEFPOINTS
  6
BYBLOCK
 62
     0
100
AcDbPoint
 10
89.541655
 20
224.302637
 30
0.0
  0
POINT
  5
562
100
AcDbEntity
  8
DEFPOINTS
  6
BYBLOCK
 62
     0
100
AcDbPoint
 10
88.804378
 20
223.627046
 30
0.0
  0
POINT
  5
563
100
AcDbEntity
  8
DEFPOINTS
  6
BYBLOCK
 62
     0
100
AcDbPoint
 10
95.082817
 20
216.775332
 30
0.0
  0
ENDBLK
  5
564
100
AcDbEntity
  8
0
100
AcDbBlockEnd
  0
BLOCK
  5
5B2
100
AcDbEntity
  8
0
100
AcDbBlockBegin
  2
*D8
 70
    65
 10
0.0
 20
0.0
 30
0.0
  3
*D8
  1

  0
LINE
  5
5B3
100
AcDbEntity
  8
0
  6
BYBLOCK
 62
     0
100
AcDbLine
 10
155.215319
 20
104.466591
 30
0.0
 11
121.28093
 21
104.466591
 31
0.0
  0
LINE
  5
5B4
100
AcDbEntity
  8
0
  6
BYBLOCK
 62
     0
100
AcDbLine
 10
140.715319
 20
54.381439
 30
0.0
 11
121.28093
 21
54.381439
 31
0.0
  0
LINE
  5
5B5
100
AcDbEntity
  8
0
  6
BYBLOCK
 62
     0
100
AcDbLine
 10
122.53093
 20
101.966591
 30
0.0
 11
122.53093
 21
56.881439
 31
0.0
  0
SOLID
  5
5B6
100
AcDbEntity
  8
0
  6
BYBLOCK
 62
     0
100
AcDbTrace
 10
122.114264
 20
101.966591
 30
0.0
 11
122.947597
 21
101.966591
 31
0.0
 12
122.53093
 22
104.466591
 32
0.0
 13
122.53093
 23
104.466591
 33
0.0
  0
SOLID
  5
5B7
100
AcDbEntity
  8
0
  6
BYBLOCK
 62
     0
100
AcDbTrace
 10
122.114264
 20
56.881439
 30
0.0
 11
122.947597
 21
56.881439
 31
0.0
 12
122.53093
 22
54.381439
 32
0.0
 13
122.53093
 23
54.381439
 33
0.0
  0
MTEXT
  5
5B8
100
AcDbEntity
  8
0
  6
BYBLOCK
 62
     0
100
AcDbMText
 10
119.165222
 20
79.424015
 30
0.0
 40
3.0
 41
0.0
 71
     5
 72
     1
  1
\A2;100.17{\H2.400000;\S+0.02^  0;}
 11
0.0
 21
1.0
 31
0.0
  0
POINT
  5
5B9
100
AcDbEntity
  8
DEFPOINTS
  6
BYBLOCK
 62
     0
100
AcDbPoint
 10
155.840319
 20
104.466591
 30
0.0
  0
POINT
  5
5BA
100
AcDbEntity
  8
DEFPOINTS
  6
BYBLOCK
 62
     0
100
AcDbPoint
 10
141.340319
 20
54.381439
 30
0.0
  0
POINT
  5
5BB
100
AcDbEntity
  8
DEFPOINTS
  6
BYBLOCK
 62
     0
100
AcDbPoint
 10
122.53093
 20
54.381439
 30
0.0
  0
ENDBLK
  5
5BC
100
AcDbEntity
  8
0
100
AcDbBlockEnd
  0
BLOCK
  5
5CF
100
AcDbEntity
  8
0
100
AcDbBlockBegin
  2
*D9
 70
    65
 10
0.0
 20
0.0
 30
0.0
  3
*D9
  1

  0
LINE
  5
5D0
100
AcDbEntity
  8
0
  6
BYBLOCK
 62
     0
100
AcDbLine
 10
164.982462
 20
96.018902
 30
0.0
 11
146.698176
 21
87.91428
 31
0.0
  0
SOLID
  5
5D1
100
AcDbEntity
  8
0
  6
BYBLOCK
 62
     0
100
AcDbTrace
 10
164.813615
 20
96.399824
 30
0.0
 11
165.151308
 21
95.637979
 31
0.0
 12
167.267997
 22
97.03198
 32
0.0
 13
167.267997
 23
97.03198
 33
0.0
  0
SOLID
  5
5D2
100
AcDbEntity
  8
0
  6
BYBLOCK
 62
     0
100
AcDbTrace
 10
146.52933
 20
88.295202
 30
0.0
 11
146.867022
 21
87.533357
 31
0.0
 12
144.41264
 22
86.901202
 32
0.0
 13
144.41264
 23
86.901202
 33
0.0
  0
MTEXT
  5
5D3
100
AcDbEntity
  8
0
  6
BYBLOCK
 62
     0
100
AcDbMText
 10
154.979203
 20
93.909296
 30
0.0
 40
3.0
 41
0.0
 71
     5
 72
     1
  1
\A2;\U+220550{\H2.400000;±0.01}
 11
0.914214
 21
0.405231
 31
0.0
  0
POINT
  5
5D4
100
AcDbEntity
  8
DEFPOINTS
  6
BYBLOCK
 62
     0
100
AcDbPoint
 10
144.41264
 20
86.901202
 30
0.0
  0
POINT
  5
5D5
100
AcDbEntity
  8
DEFPOINTS
  6
BYBLOCK
 62
     0
100
AcDbPoint
 10
167.267997
 20
97.03198
 30
0.0
  0
ENDBLK
  5
5D6
100
AcDbEntity
  8
0
100
AcDbBlockEnd
  0
BLOCK
  5
5E3
100
AcDbEntity
  8
0
100
AcDbBlockBegin
  2
*D10
 70
    65
 10
0.0
 20
0.0
 30
0.0
  3
*D10
  1

  0
LINE
  5
5E4
100
AcDbEntity
  8
0
  6
BYBLOCK
 62
     0
100
AcDbLine
 10
104.531851
 20
212.38427
 30
0.0
 11
105.27307
 21
211.080202
 31
0.0
  0
LINE
  5
5E5
100
AcDbEntity
  8
0
  6
BYBLOCK
 62
     0
100
AcDbLine
 10
106.508434
 20
208.906754
 30
0.0
 11
110.481368
 21
201.916947
 31
0.0
  0
SOLID
  5
5E6
100
AcDbEntity
  8
0
  6
BYBLOCK
 62
     0
100
AcDbTrace
 10
105.635311
 20
211.286096
 30
0.0
 11
104.910828
 21
210.874308
 31
0.0
 12
106.508434
 22
208.906754
 32
0.0
 13
106.508434
 23
208.906754
 33
0.0
  0
MTEXT
  5
5E7
100
AcDbEntity
  8
0
  6
BYBLOCK
 62
     0
100
AcDbMText
 10
110.960014
 20
205.375187
 30
0.0
 40
3.0
 41
0.0
 71
     5
 72
     1
  1
\A1;R4
 11
0.494146
 21
-0.869379
 31
0.0
  0
POINT
  5
5E8
100
AcDbEntity
  8
DEFPOINTS
  6
BYBLOCK
 62
     0
100
AcDbPoint
 10
106.508434
 20
208.906754
 30
0.0
  0
POINT
  5
5E9
100
AcDbEntity
  8
DEFPOINTS
  6
BYBLOCK
 62
     0
100
AcDbPoint
 10
104.531851
 20
212.38427
 30
0.0
  0
ENDBLK
  5
5EA
100
AcDbEntity
  8
0
100
AcDbBlockEnd
  0
BLOCK
  5
5F5
100
AcDbEntity
  8
QUOTE
100
AcDbBlockBegin
  2
A$CC223
 70
     0
 10
0.0
 20
0.0
 30
0.0
  3
A$CC223
  1

  0
TEXT
  5
5F2
100
AcDbEntity
  8
DISEGNO
100
AcDbText
 10
-0.421349
 20
5.594786
 30
0.0
 40
3.0
  1
E SI RIFERISCONO AGLI SCOSTAMENTI RSPETTO
 41
1.1
100
AcDbText
  0
TEXT
  5
5F3
100
AcDbEntity
  8
DISEGNO
100
AcDbText
 10
-0.421349
 20
11.294786
 30
0.0
 40
3.0
  1
LE TOLLERANZE DEI PROFILI SONO INDICATIVE
 41
1.1
100
AcDbText
  0
TEXT
  5
5F4
100
AcDbEntity
  8
DISEGNO
100
AcDbText
 10
-0.421349
 20
-0.105214
 30
0.0
 40
3.0
  1
AL MASTER: P.116.35.R08
 41
1.1
100
AcDbText
  0
ENDBLK
  5
5F6
100
AcDbEntity
  8
QUOTE
100
AcDbBlockEnd
  0
ENDSEC
  0
SECTION
  2
ENTITIES
  0
LINE
  5
26A
100
AcDbEntity
  8
DISEGNO
100
AcDbLine
 10
75.531851
 20
169.769879
 30
0.0
 11
133.531851
 21
169.769879
 31
0.0
  0
LINE
  5
26B
100
AcDbEntity
  8
DISEGNO
100
AcDbLine
 10
134.531851
 20
170.769879
 30
0.0
 11
134.531851
 21
228.769879
 31
0.0
1001
ACAD
1000
ASC_BOUNDS
1002
{
1070
    19
1002
}
  0
LINE
  5
26C
100
AcDbEntity
  8
DISEGNO
100
AcDbLine
 10
133.531851
 20
229.769879
 30
0.0
 11
126.291893
 21
229.769879
 31
0.0
1001
ACAD
1000
ASC_BOUNDS
1002
{
1070
    19
1002
}
  0
LINE
  5
26D
100
AcDbEntity
  8
DISEGNO
100
AcDbLine
 10
74.531851
 20
228.769879
 30
0.0
 11
74.531851
 21
170.769879
 31
0.0
1001
ACAD
1000
ASC_BOUNDS
1002
{
1070
    19
1002
}
  0
LINE
  5
270
100
AcDbEntity
  8
DISEGNO
100
AcDbLine
 10
82.771809
 20
229.769879
 30
0.0
 11
75.531851
 21
229.769879
 31
0.0
1001
ACAD
1000
ASC_BOUNDS
1002
{
1070
    19
1002
}
  0
LINE
  5
2A9
100
AcDbEntity
  8
DISEGNO
100
AcDbLine
 10
133.531851
 20
229.769879
 30
0.0
 11
134.531851
 21
228.769879
 31
0.0
1001
ACAD
1000
ASC_BOUNDS
1002
{
1070
    19
1002
}
  0
LINE
  5
2AA
100
AcDbEntity
  8
DISEGNO
100
AcDbLine
 10
133.531851
 20
169.769879
 30
0.0
 11
134.531851
 21
170.769879
 31
0.0
  0
LINE
  5
2AB
100
AcDbEntity
  8
DISEGNO
100
AcDbLine
 10
74.531851
 20
170.769879
 30
0.0
 11
75.531851
 21
169.769879
 31
0.0
  0
LINE
  5
2AC
100
AcDbEntity
  8
DISEGNO
100
AcDbLine
 10
75.531851
 20
229.769879
 30
0.0
 11
74.531851
 21
228.769879
 31
0.0
1001
ACAD
1000
ASC_BOUNDS
1002
{
1070
    19
1002
}
  0
LINE
  5
46A
100
AcDbEntity
  8
DISEGNO
100
AcDbLine
 10
89.541655
 20
222.822449
 30
0.0
 11
89.541655
 21
224.302637
 31
0.0
1001
ACAD
1000
ASC_BOUNDS
1002
{
1070
    19
1002
}
  0
LINE
  5
46B
100
AcDbEntity
  8
DISEGNO
100
AcDbLine
 10
119.522047
 20
222.822449
 30
0.0
 11
119.522047
 21
224.302637
 31
0.0
1001
ACAD
1000
ASC_BOUNDS
1002
{
1070
    19
1002
}
  0
LINE
  5
46D
100
AcDbEntity
  8
DISEGNO
100
AcDbLine
 10
123.342784
 20
228.472239
 30
0.0
 11
119.522047
 21
224.302637
 31
0.0
1001
ACAD
1000
ASC_BOUNDS
1002
{
1070
    19
1002
}
  0
LINE
  5
46E
100
AcDbEntity
  8
DISEGNO
100
AcDbLine
 10
85.720918
 20
228.472239
 30
0.0
 11
89.541655
 21
224.302637
 31
0.0
1001
ACAD
1000
ASC_BOUNDS
1002
{
1070
    19
1002
}
  0
LINE
  5
46F
100
AcDbEntity
  8
DISEGNO
100
AcDbLine
 10
119.596725
 20
224.384134
 30
0.0
 11
119.522047
 21
224.302637
 31
0.0
  0
LINE
  5
471
100
AcDbEntity
  8
DISEGNO
100
AcDbLine
 10
119.522047
 20
222.822449
 30
0.0
 11
107.48096
 21
209.681909
 31
0.0
  0
LINE
  5
472
100
AcDbEntity
  8
DISEGNO
100
AcDbLine
 10
89.541655
 20
222.822449
 30
0.0
 11
101.582741
 21
209.681909
 31
0.0
  0
ARC
  5
473
100
AcDbEntity
  8
DISEGNO
100
AcDbCircle
 10
104.531851
 20
212.38427
 30
0.0
 40
4.0
100
AcDbArc
 50
222.5
 51
317.5
  0
ARC
  5
481
100
AcDbEntity
  8
DISEGNO
100
AcDbCircle
 10
82.771809
 20
225.769879
 30
0.0
 40
4.0
100
AcDbArc
 50
42.5
 51
90.0
1001
ACAD
1000
ASC_BOUNDS
1002
{
1070
    19
1002
}
  0
ARC
  5
482
100
AcDbEntity
  8
DISEGNO
100
AcDbCircle
 10
126.291893
 20
225.769879
 30
0.0
 40
4.0
100
AcDbArc
 50
90.0
 51
137.5
1001
ACAD
1000
ASC_BOUNDS
1002
{
1070
    19
1002
}
  0
ENDSEC
  0
SECTION
  2
OBJECTS
  0
DICTIONARY
  5
C
100
AcDbDictionary
  3
ACAD_GROUP
350
D
  3
ACAD_MLINESTYLE
350
E
  0
DICTIONARY
  5
D
102
{ACAD_REACTORS
330
C
102
}
100
AcDbDictionary
  0
DICTIONARY
  5
E
102
{ACAD_REACTORS
330
C
102
}
100
AcDbDictionary
  3
STANDARD
350
1C
  0
MLINESTYLE
  5
1C
102
{ACAD_REACTORS
330
E
102
}
100
AcDbMlineStyle
  2
STANDARD
 70
     0
  3

 62
     0
 51
90.0
 52
90.0
 71
     2
 49
0.5
 62
   256
  6
BYLAYER
 49
-0.5
 62
   256
  6
BYLAYER
  0
ENDSEC
  0
EOF
