  0
SECTION
  2
HEADER
  9
$ACADVER
  1
AC1018
  9
$ACADMAINTVER
 70
     0
  9
$DWGCODEPAGE
  3
ANSI_1252
  9
$INSBASE
 10
0.0
 20
0.0
 30
0.0
  9
$EXTMIN
 10
1.000000E+20
 20
1.000000E+20
 30
1.000000E+20
  9
$EXTMAX
 10
-1.000000E+20
 20
-1.000000E+20
 30
-1.000000E+20
  9
$LIMMIN
 10
0.0
 20
0.0
  9
$LIMMAX
 10
420.0
 20
297.0
  9
$ORTHOMODE
 70
     0
  9
$REGENMODE
 70
     1
  9
$FILLMODE
 70
     1
  9
$QTEXTMODE
 70
     0
  9
$MIRRTEXT
 70
     1
  9
$LTSCALE
 40
1.0
  9
$ATTMODE
 70
     1
  9
$TEXTSIZE
 40
2.5
  9
$TRACEWID
 40
1.0
  9
$TEXTSTYLE
  7
Standard
  9
$CLAYER
  8
0
  9
$CELTYPE
  6
ByLayer
  9
$CECOLOR
 62
   256
  9
$CELTSCALE
 40
1.0
  9
$DISPSILH
 70
     0
  9
$DIMSCALE
 40
1.0
  9
$DIMASZ
 40
2.5
  9
$DIMEXO
 40
0.625
  9
$DIMDLI
 40
3.75
  9
$DIMRND
 40
0.0
  9
$DIMDLE
 40
0.0
  9
$DIMEXE
 40
1.25
  9
$DIMTP
 40
0.0
  9
$DIMTM
 40
0.0
  9
$DIMTXT
 40
2.5
  9
$DIMCEN
 40
2.5
  9
$DIMTSZ
 40
0.0
  9
$DIMTOL
 70
     0
  9
$DIMLIM
 70
     0
  9
$DIMTIH
 70
     0
  9
$DIMTOH
 70
     0
  9
$DIMSE1
 70
     0
  9
$DIMSE2
 70
     0
  9
$DIMTAD
 70
     1
  9
$DIMZIN
 70
     8
  9
$DIMBLK
  1

  9
$DIMASO
 70
     1
  9
$DIMSHO
 70
     1
  9
$DIMPOST
  1

  9
$DIMAPOST
  1

  9
$DIMALT
 70
     0
  9
$DIMALTD
 70
     3
  9
$DIMALTF
 40
0.03937
  9
$DIMLFAC
 40
1.0
  9
$DIMTOFL
 70
     1
  9
$DIMTVP
 40
0.0
  9
$DIMTIX
 70
     0
  9
$DIMSOXD
 70
     0
  9
$DIMSAH
 70
     0
  9
$DIMBLK1
  1

  9
$DIMBLK2
  1

  9
$DIMSTYLE
  2
ISO-25
  9
$DIMCLRD
 70
     0
  9
$DIMCLRE
 70
     0
  9
$DIMCLRT
 70
     0
  9
$DIMTFAC
 40
1.0
  9
$DIMGAP
 40
0.625
  9
$DIMJUST
 70
     0
  9
$DIMSD1
 70
     0
  9
$DIMSD2
 70
     0
  9
$DIMTOLJ
 70
     0
  9
$DIMTZIN
 70
     8
  9
$DIMALTZ
 70
     0
  9
$DIMALTTZ
 70
     0
  9
$DIMUPT
 70
     0
  9
$DIMDEC
 70
     2
  9
$DIMTDEC
 70
     2
  9
$DIMALTU
 70
     2
  9
$DIMALTTD
 70
     3
  9
$DIMTXSTY
  7
Standard
  9
$DIMAUNIT
 70
     0
  9
$DIMADEC
 70
     0
  9
$DIMALTRND
 40
0.0
  9
$DIMAZIN
 70
     0
  9
$DIMDSEP
 70
    44
  9
$DIMATFIT
 70
     3
  9
$DIMFRAC
 70
     0
  9
$DIMLDRBLK
  1

  9
$DIMLUNIT
 70
     2
  9
$DIMLWD
 70
    -2
  9
$DIMLWE
 70
    -2
  9
$DIMTMOVE
 70
     0
  9
$LUNITS
 70
     2
  9
$LUPREC
 70
     4
  9
$SKETCHINC
 40
1.0
  9
$FILLETRAD
 40
10.0
  9
$AUNITS
 70
     0
  9
$AUPREC
 70
     0
  9
$MENU
  1
.
  9
$ELEVATION
 40
0.0
  9
$PELEVATION
 40
0.0
  9
$THICKNESS
 40
0.0
  9
$LIMCHECK
 70
     0
  9
$CHAMFERA
 40
10.0
  9
$CHAMFERB
 40
10.0
  9
$CHAMFERC
 40
20.0
  9
$CHAMFERD
 40
0.0
  9
$SKPOLY
 70
     0
  9
$TDCREATE
 40
2455029.398455127
  9
$TDUCREATE
 40
2455029.315121794
  9
$TDUPDATE
 40
2455029.398455139
  9
$TDUUPDATE
 40
2455029.315121806
  9
$TDINDWG
 40
0.0000000116
  9
$TDUSRTIMER
 40
0.0000000116
  9
$USRTIMER
 70
     1
  9
$ANGBASE
 50
0.0
  9
$ANGDIR
 70
     0
  9
$PDMODE
 70
     0
  9
$PDSIZE
 40
0.0
  9
$PLINEWID
 40
0.0
  9
$SPLFRAME
 70
     0
  9
$SPLINETYPE
 70
     6
  9
$SPLINESEGS
 70
     8
  9
$HANDSEED
  5
192
  9
$SURFTAB1
 70
     6
  9
$SURFTAB2
 70
     6
  9
$SURFTYPE
 70
     6
  9
$SURFU
 70
     6
  9
$SURFV
 70
     6
  9
$UCSBASE
  2

  9
$UCSNAME
  2

  9
$UCSORG
 10
0.0
 20
0.0
 30
0.0
  9
$UCSXDIR
 10
1.0
 20
0.0
 30
0.0
  9
$UCSYDIR
 10
0.0
 20
1.0
 30
0.0
  9
$UCSORTHOREF
  2

  9
$UCSORTHOVIEW
 70
     0
  9
$UCSORGTOP
 10
0.0
 20
0.0
 30
0.0
  9
$UCSORGBOTTOM
 10
0.0
 20
0.0
 30
0.0
  9
$UCSORGLEFT
 10
0.0
 20
0.0
 30
0.0
  9
$UCSORGRIGHT
 10
0.0
 20
0.0
 30
0.0
  9
$UCSORGFRONT
 10
0.0
 20
0.0
 30
0.0
  9
$UCSORGBACK
 10
0.0
 20
0.0
 30
0.0
  9
$PUCSBASE
  2

  9
$PUCSNAME
  2

  9
$PUCSORG
 10
0.0
 20
0.0
 30
0.0
  9
$PUCSXDIR
 10
1.0
 20
0.0
 30
0.0
  9
$PUCSYDIR
 10
0.0
 20
1.0
 30
0.0
  9
$PUCSORTHOREF
  2

  9
$PUCSORTHOVIEW
 70
     0
  9
$PUCSORGTOP
 10
0.0
 20
0.0
 30
0.0
  9
$PUCSORGBOTTOM
 10
0.0
 20
0.0
 30
0.0
  9
$PUCSORGLEFT
 10
0.0
 20
0.0
 30
0.0
  9
$PUCSORGRIGHT
 10
0.0
 20
0.0
 30
0.0
  9
$PUCSORGFRONT
 10
0.0
 20
0.0
 30
0.0
  9
$PUCSORGBACK
 10
0.0
 20
0.0
 30
0.0
  9
$USERI1
 70
     0
  9
$USERI2
 70
     0
  9
$USERI3
 70
     0
  9
$USERI4
 70
     0
  9
$USERI5
 70
     0
  9
$USERR1
 40
0.0
  9
$USERR2
 40
0.0
  9
$USERR3
 40
0.0
  9
$USERR4
 40
0.0
  9
$USERR5
 40
0.0
  9
$WORLDVIEW
 70
     1
  9
$SHADEDGE
 70
     3
  9
$SHADEDIF
 70
    70
  9
$TILEMODE
 70
     1
  9
$MAXACTVP
 70
    64
  9
$PINSBASE
 10
0.0
 20
0.0
 30
0.0
  9
$PLIMCHECK
 70
     0
  9
$PEXTMIN
 10
1.000000E+20
 20
1.000000E+20
 30
1.000000E+20
  9
$PEXTMAX
 10
-1.000000E+20
 20
-1.000000E+20
 30
-1.000000E+20
  9
$PLIMMIN
 10
0.0
 20
0.0
  9
$PLIMMAX
 10
420.0
 20
297.0
  9
$UNITMODE
 70
     0
  9
$VISRETAIN
 70
     1
  9
$PLINEGEN
 70
     0
  9
$PSLTSCALE
 70
     1
  9
$TREEDEPTH
 70
  3020
  9
$CMLSTYLE
  2
Standard
  9
$CMLJUST
 70
     0
  9
$CMLSCALE
 40
20.0
  9
$PROXYGRAPHICS
 70
     1
  9
$MEASUREMENT
 70
     1
  9
$CELWEIGHT
370
    -1
  9
$ENDCAPS
280
     0
  9
$JOINSTYLE
280
     0
  9
$LWDISPLAY
290
     0
  9
$INSUNITS
 70
     4
  9
$HYPERLINKBASE
  1

  9
$STYLESHEET
  1

  9
$XEDIT
290
     1
  9
$CEPSNTYPE
380
     0
  9
$PSTYLEMODE
290
     1
  9
$FINGERPRINTGUID
  2
{0E6F8C22-0605-4891-9D0E-967D0001FEB8}
  9
$VERSIONGUID
  2
{FAEB1C32-E019-11D5-929B-00C0DF256EC4}
  9
$EXTNAMES
290
     1
  9
$PSVPSCALE
 40
0.0
  9
$OLESTARTUP
290
     0
  9
$SORTENTS
280
   127
  9
$INDEXCTL
280
     0
  9
$HIDETEXT
280
     1
  9
$XCLIPFRAME
290
     0
  9
$HALOGAP
280
     0
  9
$OBSCOLOR
 70
   257
  9
$OBSLTYPE
280
     0
  9
$INTERSECTIONDISPLAY
280
     0
  9
$INTERSECTIONCOLOR
 70
   257
  9
$DIMASSOC
280
     2
  9
$PROJECTNAME
  1

  0
ENDSEC
  0
SECTION
  2
CLASSES
  0
CLASS
  1
ACDBDICTIONARYWDFLT
  2
AcDbDictionaryWithDefault
  3
ObjectDBX Classes
 90
        0
 91
        3
280
     0
281
     0
  0
CLASS
  1
VISUALSTYLE
  2
AcDbVisualStyle
  3
ObjectDBX Classes
 90
     4095
 91
        3
280
     0
281
     0
  0
ENDSEC
  0
SECTION
  2
TABLES
  0
TABLE
  2
VPORT
  5
8
330
0
100
AcDbSymbolTable
 70
     1
  0
VPORT
  5
29
330
8
100
AcDbSymbolTableRecord
100
AcDbViewportTableRecord
  2
*Active
 70
     0
 10
0.0
 20
0.0
 11
1.0
 21
1.0
 12
344.186916
 22
148.5
 13
0.0
 23
0.0
 14
10.0
 24
10.0
 15
10.0
 25
10.0
 16
0.0
 26
0.0
 36
1.0
 17
0.0
 27
0.0
 37
0.0
 40
297.0
 41
1.972973
 42
50.0
 43
0.0
 44
0.0
 50
0.0
 51
0.0
 71
     0
 72
   100
 73
     1
 74
     3
 75
     0
 76
     0
 77
     0
 78
     0
281
     0
 65
     1
110
0.0
120
0.0
130
0.0
111
1.0
121
0.0
131
0.0
112
0.0
122
1.0
132
0.0
 79
     0
146
0.0
  0
ENDTAB
  0
TABLE
  2
LTYPE
  5
5
330
0
100
AcDbSymbolTable
 70
     1
  0
LTYPE
  5
14
330
5
100
AcDbSymbolTableRecord
100
AcDbLinetypeTableRecord
  2
ByBlock
 70
     0
  3

 72
    65
 73
     0
 40
0.0
  0
LTYPE
  5
15
330
5
100
AcDbSymbolTableRecord
100
AcDbLinetypeTableRecord
  2
ByLayer
 70
     0
  3

 72
    65
 73
     0
 40
0.0
  0
LTYPE
  5
16
330
5
100
AcDbSymbolTableRecord
100
AcDbLinetypeTableRecord
  2
Continuous
 70
     0
  3
Solid line
 72
    65
 73
     0
 40
0.0
  0
ENDTAB
  0
TABLE
  2
LAYER
  5
2
330
0
100
AcDbSymbolTable
 70
    17
  0
LAYER
  5
10
330
2
100
AcDbSymbolTableRecord
100
AcDbLayerTableRecord
  2
0
 70
     0
 62
     7
  6
Continuous
370
    -3
390
F
  0
LAYER
  5
3B
330
2
100
AcDbSymbolTableRecord
100
AcDbLayerTableRecord
  2
DISEGNO
 70
     0
 62
     7
  6
Continuous
370
    -3
390
F
  0
LAYER
  5
3C
330
2
100
AcDbSymbolTableRecord
100
AcDbLayerTableRecord
  2
ASSI
 70
     0
 62
     7
  6
Continuous
370
    -3
390
F
  0
LAYER
  5
3D
330
2
100
AcDbSymbolTableRecord
100
AcDbLayerTableRecord
  2
SEZIONE
 70
     0
 62
     7
  6
Continuous
370
    -3
390
F
  0
LAYER
  5
3E
330
2
100
AcDbSymbolTableRecord
100
AcDbLayerTableRecord
  2
TEMPRA
 70
     0
 62
    -7
  6
Continuous
370
    -3
390
F
  0
LAYER
  5
3F
330
2
100
AcDbSymbolTableRecord
100
AcDbLayerTableRecord
  2
QUOTE
 70
     0
 62
     7
  6
Continuous
370
    -3
390
F
  0
LAYER
  5
40
330
2
100
AcDbSymbolTableRecord
100
AcDbLayerTableRecord
  2
FOGLIO
 70
     0
 62
     7
  6
Continuous
370
    -3
390
F
  0
LAYER
  5
41
330
2
100
AcDbSymbolTableRecord
100
AcDbLayerTableRecord
  2
TRATTO
 70
     0
 62
     7
  6
Continuous
370
    -3
390
F
  0
LAYER
  5
42
330
2
100
AcDbSymbolTableRecord
100
AcDbLayerTableRecord
  2
TESTOTAB
 70
     0
 62
    -7
  6
Continuous
370
    -3
390
F
  0
LAYER
  5
43
330
2
100
AcDbSymbolTableRecord
100
AcDbLayerTableRecord
  2
TABELLA
 70
     0
 62
    -7
  6
Continuous
370
    -3
390
F
  0
LAYER
  5
44
330
2
100
AcDbSymbolTableRecord
100
AcDbLayerTableRecord
  2
INTABELLA
 70
     0
 62
    -7
  6
Continuous
370
    -3
390
F
  0
LAYER
  5
45
330
2
100
AcDbSymbolTableRecord
100
AcDbLayerTableRecord
  2
MARCHIO
 70
     0
 62
    -7
  6
Continuous
370
    -3
390
F
  0
LAYER
  5
46
330
2
100
AcDbSymbolTableRecord
100
AcDbLayerTableRecord
  2
MARCHIOR
 70
     0
 62
    -7
  6
Continuous
370
    -3
390
F
  0
LAYER
  5
47
330
2
100
AcDbSymbolTableRecord
100
AcDbLayerTableRecord
  2
OGGETTO
 70
     0
 62
     7
  6
Continuous
370
    -3
390
F
  0
LAYER
  5
48
330
2
100
AcDbSymbolTableRecord
100
AcDbLayerTableRecord
  2
CENTRO
 70
     0
 62
     7
  6
Continuous
370
    -3
390
F
  0
LAYER
  5
49
330
2
100
AcDbSymbolTableRecord
100
AcDbLayerTableRecord
  2
DEFPOINTS
 70
     0
 62
     7
  6
Continuous
290
     0
370
    -3
390
F
  0
LAYER
  5
4A
330
2
100
AcDbSymbolTableRecord
100
AcDbLayerTableRecord
  2
TESTO
 70
     0
 62
     7
  6
Continuous
370
    -3
390
F
  0
ENDTAB
  0
TABLE
  2
STYLE
  5
3
330
0
100
AcDbSymbolTable
 70
     3
  0
STYLE
  5
11
330
3
100
AcDbSymbolTableRecord
100
AcDbTextStyleTableRecord
  2
Standard
 70
     0
 40
0.0
 41
1.0
 50
0.0
 71
     0
 42
2.5
  3
txt
  4

1001
ACAD
1000
txt
1071
        0
  0
STYLE
  5
4B
330
3
100
AcDbSymbolTableRecord
100
AcDbTextStyleTableRecord
  2
Default
 70
     0
 40
0.0
 41
1.0
 50
0.0
 71
     0
 42
0.2
  3

  4

1001
ACAD
1000
txt
1071
        0
  0
STYLE
  5
4C
330
3
100
AcDbSymbolTableRecord
100
AcDbTextStyleTableRecord
  2
STYLE3
 70
     0
 40
0.0
 41
1.0
 50
0.0
 71
     0
 42
0.2
  3

  4

1001
ACAD
1000
txt
1071
        0
  0
ENDTAB
  0
TABLE
  2
VIEW
  5
6
330
0
100
AcDbSymbolTable
 70
     0
  0
ENDTAB
  0
TABLE
  2
UCS
  5
7
330
0
100
AcDbSymbolTable
 70
     0
  0
ENDTAB
  0
TABLE
  2
APPID
  5
9
330
0
100
AcDbSymbolTable
 70
     1
  0
APPID
  5
12
330
9
100
AcDbSymbolTableRecord
100
AcDbRegAppTableRecord
  2
ACAD
 70
     0
  0
ENDTAB
  0
TABLE
  2
DIMSTYLE
  5
A
330
0
100
AcDbSymbolTable
 70
    15
100
AcDbDimStyleTable
  0
DIMSTYLE
105
27
330
A
100
AcDbSymbolTableRecord
100
AcDbDimStyleTableRecord
  2
ISO-25
 70
     0
  3
<>
 41
2.5
 42
0.729167
 43
3.75
 44
1.458333
 73
     0
 74
     0
 77
     1
 78
     8
140
3.5
141
2.5
143
0.03937
147
1.458333
171
     3
172
     1
178
     2
271
     2
272
     2
274
     3
283
     0
284
     8
340
11
  0
DIMSTYLE
105
4D
330
A
100
AcDbSymbolTableRecord
100
AcDbDimStyleTableRecord
  2
Default
 70
     0
  3
<>
 41
4.375
 42
1.05
 44
2.1
 73
     0
 74
     0
 77
     1
 78
     8
 79
    10
140
3.5
146
0.4
147
1.75
178
     2
179
     1
271
     2
272
     3
284
     8
340
4B
341
4E
342
4E
  0
DIMSTYLE
105
55
330
A
100
AcDbSymbolTableRecord
100
AcDbDimStyleTableRecord
  2
DefaultDimensionStyle
 70
     0
  3
<>
 41
2.5
 42
0.729167
 44
1.458333
 73
     0
 74
     0
 77
     1
 78
     8
140
3.5
147
1.458333
178
     2
271
     2
272
     2
284
     8
340
11
  0
DIMSTYLE
105
56
330
A
100
AcDbSymbolTableRecord
100
AcDbDimStyleTableRecord
  2
TOLL-06
 70
     0
  3
<>
 41
2.5
 42
0.729167
 44
1.458333
 47
-0.05
 71
     1
 73
     0
 74
     0
 77
     1
 78
     8
140
3.5
146
0.8
147
1.458333
178
     2
271
     2
272
     2
284
     8
340
11
  0
DIMSTYLE
105
57
330
A
100
AcDbSymbolTableRecord
100
AcDbDimStyleTableRecord
  2
TOLL-01
 70
     0
  3
<>
 41
2.5
 42
0.729167
 44
1.458333
 47
0.02
 71
     1
 73
     0
 74
     0
 77
     1
 78
     8
140
3.5
146
0.8
147
1.458333
178
     2
271
     2
272
     2
284
     8
340
11
  0
DIMSTYLE
105
58
330
A
100
AcDbSymbolTableRecord
100
AcDbDimStyleTableRecord
  2
TOLL-02
 70
     0
  3
<>
 41
2.5
 42
0.729167
 44
1.458333
 47
-0.02
 71
     1
 73
     0
 74
     0
 77
     1
 78
     8
140
3.5
146
0.8
147
1.458333
178
     2
271
     2
272
     2
284
     8
340
11
  0
DIMSTYLE
105
59
330
A
100
AcDbSymbolTableRecord
100
AcDbDimStyleTableRecord
  2
TOLL-03
 70
     0
  3
<>
 41
2.5
 42
0.729167
 44
1.458333
 47
0.01
 48
0.01
 71
     1
 73
     0
 74
     0
 77
     1
 78
     8
140
3.5
146
0.8
147
1.458333
178
     2
271
     2
272
     2
284
     8
340
11
  0
DIMSTYLE
105
5A
330
A
100
AcDbSymbolTableRecord
100
AcDbDimStyleTableRecord
  2
TOLL-04
 70
     0
  3
<>
 41
2.5
 42
0.729167
 44
1.458333
 47
0.05
 48
0.05
 71
     1
 73
     0
 74
     0
 77
     1
 78
     8
140
3.5
146
0.8
147
1.458333
178
     2
271
     2
272
     2
284
     8
340
11
  0
DIMSTYLE
105
5B
330
A
100
AcDbSymbolTableRecord
100
AcDbDimStyleTableRecord
  2
TOLL-05
 70
     0
  3
<>
 41
2.5
 42
0.729167
 44
1.458333
 47
0.05
 71
     1
 73
     0
 74
     0
 77
     1
 78
     8
140
3.5
146
0.8
147
1.458333
178
     2
271
     2
272
     2
284
     8
340
11
  0
DIMSTYLE
105
5C
330
A
100
AcDbSymbolTableRecord
100
AcDbDimStyleTableRecord
  2
TOLL-07
 70
     0
  3
<>
 41
2.5
 42
0.729167
 44
1.458333
 47
0.1
 48
0.1
 71
     1
 73
     0
 74
     0
 77
     1
 78
     8
140
3.5
147
1.458333
178
     2
271
     2
272
     2
284
     8
340
11
  0
DIMSTYLE
105
5D
330
A
100
AcDbSymbolTableRecord
100
AcDbDimStyleTableRecord
  2
TOLL-08
 70
     0
  3
<>
 41
2.5
 42
0.729167
 44
1.458333
 47
0.1
 71
     1
 73
     0
 74
     0
 77
     1
 78
     8
140
3.5
147
1.458333
178
     2
271
     2
272
     2
284
     8
340
11
  0
DIMSTYLE
105
5E
330
A
100
AcDbSymbolTableRecord
100
AcDbDimStyleTableRecord
  2
TOLL-09
 70
     0
  3
<>
 41
2.5
 42
0.729167
 44
1.458333
 47
-0.1
 71
     1
 73
     0
 74
     0
 77
     1
 78
     8
140
3.5
147
1.458333
178
     2
271
     2
272
     2
284
     8
340
11
  0
DIMSTYLE
105
5F
330
A
100
AcDbSymbolTableRecord
100
AcDbDimStyleTableRecord
  2
TOLL-10
 70
     0
  3
<>
 41
2.5
 42
0.729167
 44
1.458333
 47
0.2
 48
0.2
 71
     1
 73
     0
 74
     0
 77
     1
 78
     8
140
3.5
147
1.458333
178
     2
271
     2
272
     2
284
     8
340
11
  0
DIMSTYLE
105
60
330
A
100
AcDbSymbolTableRecord
100
AcDbDimStyleTableRecord
  2
TOLL-11
 70
     0
  3
<>
 41
2.5
 42
0.729167
 44
1.458333
 47
0.2
 71
     1
 73
     0
 74
     0
 77
     1
 78
     8
140
3.5
147
1.458333
178
     2
271
     2
272
     2
284
     8
340
11
  0
DIMSTYLE
105
61
330
A
100
AcDbSymbolTableRecord
100
AcDbDimStyleTableRecord
  2
TOLL-30
 70
     0
  3
<>
 41
2.5
 42
0.729167
 44
1.458333
 47
0.015
 48
0.015
 71
     1
 73
     0
 74
     0
 77
     1
 78
     8
140
3.5
147
1.458333
178
     2
271
     2
272
     3
284
     8
340
11
  0
ENDTAB
  0
TABLE
  2
BLOCK_RECORD
  5
1
330
0
100
AcDbSymbolTable
 70
     4
  0
BLOCK_RECORD
  5
1F
330
1
100
AcDbSymbolTableRecord
100
AcDbBlockTableRecord
  2
*Model_Space
340
22
  0
BLOCK_RECORD
  5
1B
330
1
100
AcDbSymbolTableRecord
100
AcDbBlockTableRecord
  2
*Paper_Space
340
1E
  0
BLOCK_RECORD
  5
23
330
1
100
AcDbSymbolTableRecord
100
AcDbBlockTableRecord
  2
*Paper_Space0
340
26
  0
BLOCK_RECORD
  5
4E
330
1
100
AcDbSymbolTableRecord
100
AcDbBlockTableRecord
  2
_CLOSED
340
0
  0
BLOCK_RECORD
  5
7D
330
1
100
AcDbSymbolTableRecord
100
AcDbBlockTableRecord
  2
.X_1
340
0
102
{BLKREFS
331
100
102
}
  0
BLOCK_RECORD
  5
101
330
1
100
AcDbSymbolTableRecord
100
AcDbBlockTableRecord
  2
.X_2
340
0
102
{BLKREFS
331
190
102
}
  0
ENDTAB
  0
ENDSEC
  0
SECTION
  2
BLOCKS
  0
BLOCK
  5
20
330
1F
100
AcDbEntity
  8
0
100
AcDbBlockBegin
  2
*Model_Space
 70
     0
 71
     0
 10
0.0
 20
0.0
 30
0.0
  3
*Model_Space
  1

  0
ENDBLK
  5
21
330
1F
100
AcDbEntity
  8
0
100
AcDbBlockEnd
  0
BLOCK
  5
1C
330
1B
100
AcDbEntity
 67
     1
  8
0
100
AcDbBlockBegin
  2
*Paper_Space
 70
     0
 71
     0
 10
0.0
 20
0.0
 30
0.0
  3
*Paper_Space
  1

  0
ENDBLK
  5
1D
330
1B
100
AcDbEntity
 67
     1
  8
0
100
AcDbBlockEnd
  0
BLOCK
  5
24
330
23
100
AcDbEntity
  8
0
100
AcDbBlockBegin
  2
*Paper_Space0
 70
     0
 71
     0
 10
0.0
 20
0.0
 30
0.0
  3
*Paper_Space0
  1

  0
ENDBLK
  5
25
330
23
100
AcDbEntity
  8
0
100
AcDbBlockEnd
  0
BLOCK
  5
4F
330
4E
100
AcDbEntity
  8
0
100
AcDbBlockBegin
  2
_CLOSED
 70
     0
 71
     0
 10
0.0
 20
0.0
 30
0.0
  3
_CLOSED
  1

  0
LINE
  5
51
330
4E
100
AcDbEntity
  8
0
  6
ByBlock
 62
     0
370
    -2
100
AcDbLine
 10
-1.0
 20
0.166667
 30
0.0
 11
0.0
 21
0.0
 31
0.0
  0
LINE
  5
52
330
4E
100
AcDbEntity
  8
0
  6
ByBlock
 62
     0
370
    -2
100
AcDbLine
 10
0.0
 20
0.0
 30
0.0
 11
-1.0
 21
-0.166667
 31
0.0
  0
LINE
  5
53
330
4E
100
AcDbEntity
  8
0
  6
ByBlock
 62
     0
370
    -2
100
AcDbLine
 10
-1.0
 20
0.166667
 30
0.0
 11
-1.0
 21
-0.166667
 31
0.0
  0
LINE
  5
54
330
4E
100
AcDbEntity
  8
0
  6
ByBlock
 62
     0
370
    -2
100
AcDbLine
 10
0.0
 20
0.0
 30
0.0
 11
-1.0
 21
0.0
 31
0.0
  0
ENDBLK
  5
50
330
4E
100
AcDbEntity
  8
0
100
AcDbBlockEnd
  0
BLOCK
  5
FE
330
7D
100
AcDbEntity
  8
0
100
AcDbBlockBegin
  2
.X_1
 70
     0
 71
     0
 10
0.0
 20
0.0
 30
0.0
  3
.X_1
  1

  0
LINE
  5
7E
330
7D
100
AcDbEntity
  8
0
  6
Continuous
 62
     0
100
AcDbLine
 10
98.219715
 20
227.984416
 30
0.0
 11
98.263572
 21
228.028273
 31
0.0
  0
LINE
  5
7F
330
7D
100
AcDbEntity
  8
0
  6
Continuous
 62
     0
100
AcDbLine
 10
98.092574
 20
228.081782
 30
0.0
 11
98.192175
 21
228.181383
 31
0.0
  0
LINE
  5
80
330
7D
100
AcDbEntity
  8
0
  6
Continuous
 62
     0
100
AcDbLine
 10
97.965434
 20
228.179148
 30
0.0
 11
98.120779
 21
228.334493
 31
0.0
  0
LINE
  5
81
330
7D
100
AcDbEntity
  8
0
  6
Continuous
 62
     0
100
AcDbLine
 10
97.838294
 20
228.276514
 30
0.0
 11
98.049383
 21
228.487603
 31
0.0
  0
LINE
  5
82
330
7D
100
AcDbEntity
  8
0
  6
Continuous
 62
     0
100
AcDbLine
 10
97.711153
 20
228.37388
 30
0.0
 11
97.977986
 21
228.640713
 31
0.0
  0
LINE
  5
83
330
7D
100
AcDbEntity
  8
0
  6
Continuous
 62
     0
100
AcDbLine
 10
97.584013
 20
228.471246
 30
0.0
 11
97.90659
 21
228.793823
 31
0.0
  0
LINE
  5
84
330
7D
100
AcDbEntity
  8
0
  6
Continuous
 62
     0
100
AcDbLine
 10
97.456873
 20
228.568612
 30
0.0
 11
97.835194
 21
228.946933
 31
0.0
  0
LINE
  5
85
330
7D
100
AcDbEntity
  8
0
  6
Continuous
 62
     0
100
AcDbLine
 10
97.329732
 20
228.665978
 30
0.0
 11
97.763797
 21
229.100043
 31
0.0
  0
LINE
  5
86
330
7D
100
AcDbEntity
  8
0
  6
Continuous
 62
     0
100
AcDbLine
 10
97.202592
 20
228.763344
 30
0.0
 11
97.692401
 21
229.253153
 31
0.0
  0
LINE
  5
87
330
7D
100
AcDbEntity
  8
0
  6
Continuous
 62
     0
100
AcDbLine
 10
97.075452
 20
228.86071
 30
0.0
 11
97.621004
 21
229.406263
 31
0.0
  0
LINE
  5
88
330
7D
100
AcDbEntity
  8
0
  6
Continuous
 62
     0
100
AcDbLine
 10
96.948311
 20
228.958076
 30
0.0
 11
97.549608
 21
229.559373
 31
0.0
  0
LINE
  5
89
330
7D
100
AcDbEntity
  8
0
  6
Continuous
 62
     0
100
AcDbLine
 10
96.821171
 20
229.055442
 30
0.0
 11
97.478212
 21
229.712483
 31
0.0
  0
LINE
  5
8A
330
7D
100
AcDbEntity
  8
0
  6
Continuous
 62
     0
100
AcDbLine
 10
96.694031
 20
229.152808
 30
0.0
 11
97.406815
 21
229.865593
 31
0.0
  0
LINE
  5
8B
330
7D
100
AcDbEntity
  8
0
  6
Continuous
 62
     0
100
AcDbLine
 10
96.56689
 20
229.250174
 30
0.0
 11
97.335419
 21
230.018703
 31
0.0
  0
LINE
  5
8C
330
7D
100
AcDbEntity
  8
0
  6
Continuous
 62
     0
100
AcDbLine
 10
96.43975
 20
229.347541
 30
0.0
 11
97.264023
 21
230.171813
 31
0.0
  0
LINE
  5
8D
330
7D
100
AcDbEntity
  8
0
  6
Continuous
 62
     0
100
AcDbLine
 10
96.31261
 20
229.444907
 30
0.0
 11
97.192626
 21
230.324923
 31
0.0
  0
LINE
  5
8E
330
7D
100
AcDbEntity
  8
0
  6
Continuous
 62
     0
100
AcDbLine
 10
96.185469
 20
229.542273
 30
0.0
 11
97.12123
 21
230.478033
 31
0.0
  0
LINE
  5
8F
330
7D
100
AcDbEntity
  8
0
  6
Continuous
 62
     0
100
AcDbLine
 10
96.058329
 20
229.639639
 30
0.0
 11
97.049833
 21
230.631143
 31
0.0
  0
LINE
  5
90
330
7D
100
AcDbEntity
  8
0
  6
Continuous
 62
     0
100
AcDbLine
 10
95.931189
 20
229.737005
 30
0.0
 11
96.978437
 21
230.784253
 31
0.0
  0
LINE
  5
91
330
7D
100
AcDbEntity
  8
0
  6
Continuous
 62
     0
100
AcDbLine
 10
95.804048
 20
229.834371
 30
0.0
 11
96.907041
 21
230.937363
 31
0.0
  0
LINE
  5
92
330
7D
100
AcDbEntity
  8
0
  6
Continuous
 62
     0
100
AcDbLine
 10
95.676908
 20
229.931737
 30
0.0
 11
96.835644
 21
231.090473
 31
0.0
  0
LINE
  5
93
330
7D
100
AcDbEntity
  8
0
  6
Continuous
 62
     0
100
AcDbLine
 10
95.549767
 20
230.029103
 30
0.0
 11
96.764248
 21
231.243583
 31
0.0
  0
LINE
  5
94
330
7D
100
AcDbEntity
  8
0
  6
Continuous
 62
     0
100
AcDbLine
 10
95.422627
 20
230.126469
 30
0.0
 11
96.692851
 21
231.396693
 31
0.0
  0
LINE
  5
95
330
7D
100
AcDbEntity
  8
0
  6
Continuous
 62
     0
100
AcDbLine
 10
95.295487
 20
230.223835
 30
0.0
 11
96.621455
 21
231.549803
 31
0.0
  0
LINE
  5
96
330
7D
100
AcDbEntity
  8
0
  6
Continuous
 62
     0
100
AcDbLine
 10
95.168346
 20
230.321201
 30
0.0
 11
96.550059
 21
231.702913
 31
0.0
  0
LINE
  5
97
330
7D
100
AcDbEntity
  8
0
  6
Continuous
 62
     0
100
AcDbLine
 10
95.041206
 20
230.418567
 30
0.0
 11
96.478662
 21
231.856023
 31
0.0
  0
LINE
  5
98
330
7D
100
AcDbEntity
  8
0
  6
Continuous
 62
     0
100
AcDbLine
 10
94.914066
 20
230.515933
 30
0.0
 11
96.407266
 21
232.009133
 31
0.0
  0
LINE
  5
99
330
7D
100
AcDbEntity
  8
0
  6
Continuous
 62
     0
100
AcDbLine
 10
94.786925
 20
230.613299
 30
0.0
 11
96.33587
 21
232.162243
 31
0.0
  0
LINE
  5
9A
330
7D
100
AcDbEntity
  8
0
  6
Continuous
 62
     0
100
AcDbLine
 10
94.659785
 20
230.710665
 30
0.0
 11
96.264473
 21
232.315353
 31
0.0
  0
LINE
  5
9B
330
7D
100
AcDbEntity
  8
0
  6
Continuous
 62
     0
100
AcDbLine
 10
94.532645
 20
230.808031
 30
0.0
 11
96.193077
 21
232.468463
 31
0.0
  0
LINE
  5
9C
330
7D
100
AcDbEntity
  8
0
  6
Continuous
 62
     0
100
AcDbLine
 10
94.405504
 20
230.905397
 30
0.0
 11
96.12168
 21
232.621574
 31
0.0
  0
LINE
  5
9D
330
7D
100
AcDbEntity
  8
0
  6
Continuous
 62
     0
100
AcDbLine
 10
94.278364
 20
231.002763
 30
0.0
 11
96.050284
 21
232.774684
 31
0.0
  0
LINE
  5
9E
330
7D
100
AcDbEntity
  8
0
  6
Continuous
 62
     0
100
AcDbLine
 10
94.151224
 20
231.10013
 30
0.0
 11
95.978888
 21
232.927794
 31
0.0
  0
LINE
  5
9F
330
7D
100
AcDbEntity
  8
0
  6
Continuous
 62
     0
100
AcDbLine
 10
94.024083
 20
231.197496
 30
0.0
 11
95.907491
 21
233.080904
 31
0.0
  0
LINE
  5
A0
330
7D
100
AcDbEntity
  8
0
  6
Continuous
 62
     0
100
AcDbLine
 10
93.896943
 20
231.294862
 30
0.0
 11
95.836095
 21
233.234014
 31
0.0
  0
LINE
  5
A1
330
7D
100
AcDbEntity
  8
0
  6
Continuous
 62
     0
100
AcDbLine
 10
93.769803
 20
231.392228
 30
0.0
 11
95.764699
 21
233.387124
 31
0.0
  0
LINE
  5
A2
330
7D
100
AcDbEntity
  8
0
  6
Continuous
 62
     0
100
AcDbLine
 10
93.642662
 20
231.489594
 30
0.0
 11
95.693302
 21
233.540234
 31
0.0
  0
LINE
  5
A3
330
7D
100
AcDbEntity
  8
0
  6
Continuous
 62
     0
100
AcDbLine
 10
93.515522
 20
231.58696
 30
0.0
 11
95.621906
 21
233.693344
 31
0.0
  0
LINE
  5
A4
330
7D
100
AcDbEntity
  8
0
  6
Continuous
 62
     0
100
AcDbLine
 10
93.388382
 20
231.684326
 30
0.0
 11
95.550509
 21
233.846454
 31
0.0
  0
LINE
  5
A5
330
7D
100
AcDbEntity
  8
0
  6
Continuous
 62
     0
100
AcDbLine
 10
93.261241
 20
231.781692
 30
0.0
 11
95.479113
 21
233.999564
 31
0.0
  0
LINE
  5
A6
330
7D
100
AcDbEntity
  8
0
  6
Continuous
 62
     0
100
AcDbLine
 10
93.134101
 20
231.879058
 30
0.0
 11
95.407717
 21
234.152674
 31
0.0
  0
LINE
  5
A7
330
7D
100
AcDbEntity
  8
0
  6
Continuous
 62
     0
100
AcDbLine
 10
93.006961
 20
231.976424
 30
0.0
 11
95.33632
 21
234.305784
 31
0.0
  0
LINE
  5
A8
330
7D
100
AcDbEntity
  8
0
  6
Continuous
 62
     0
100
AcDbLine
 10
92.87982
 20
232.07379
 30
0.0
 11
95.264924
 21
234.458894
 31
0.0
  0
LINE
  5
A9
330
7D
100
AcDbEntity
  8
0
  6
Continuous
 62
     0
100
AcDbLine
 10
92.75268
 20
232.171156
 30
0.0
 11
95.193528
 21
234.612004
 31
0.0
  0
LINE
  5
AA
330
7D
100
AcDbEntity
  8
0
  6
Continuous
 62
     0
100
AcDbLine
 10
92.625539
 20
232.268522
 30
0.0
 11
95.122131
 21
234.765114
 31
0.0
  0
LINE
  5
AB
330
7D
100
AcDbEntity
  8
0
  6
Continuous
 62
     0
100
AcDbLine
 10
92.498399
 20
232.365888
 30
0.0
 11
95.050735
 21
234.918224
 31
0.0
  0
LINE
  5
AC
330
7D
100
AcDbEntity
  8
0
  6
Continuous
 62
     0
100
AcDbLine
 10
92.371259
 20
232.463254
 30
0.0
 11
94.979338
 21
235.071334
 31
0.0
  0
LINE
  5
AD
330
7D
100
AcDbEntity
  8
0
  6
Continuous
 62
     0
100
AcDbLine
 10
92.244118
 20
232.56062
 30
0.0
 11
94.907942
 21
235.224444
 31
0.0
  0
LINE
  5
AE
330
7D
100
AcDbEntity
  8
0
  6
Continuous
 62
     0
100
AcDbLine
 10
92.116978
 20
232.657986
 30
0.0
 11
94.836546
 21
235.377554
 31
0.0
  0
LINE
  5
AF
330
7D
100
AcDbEntity
  8
0
  6
Continuous
 62
     0
100
AcDbLine
 10
91.989838
 20
232.755352
 30
0.0
 11
94.765149
 21
235.530664
 31
0.0
  0
LINE
  5
B0
330
7D
100
AcDbEntity
  8
0
  6
Continuous
 62
     0
100
AcDbLine
 10
91.862697
 20
232.852718
 30
0.0
 11
94.693753
 21
235.683774
 31
0.0
  0
LINE
  5
B1
330
7D
100
AcDbEntity
  8
0
  6
Continuous
 62
     0
100
AcDbLine
 10
91.735557
 20
232.950085
 30
0.0
 11
94.622357
 21
235.836884
 31
0.0
  0
LINE
  5
B2
330
7D
100
AcDbEntity
  8
0
  6
Continuous
 62
     0
100
AcDbLine
 10
91.608417
 20
233.047451
 30
0.0
 11
94.55096
 21
235.989994
 31
0.0
  0
LINE
  5
B3
330
7D
100
AcDbEntity
  8
0
  6
Continuous
 62
     0
100
AcDbLine
 10
91.481276
 20
233.144817
 30
0.0
 11
94.479564
 21
236.143104
 31
0.0
  0
LINE
  5
B4
330
7D
100
AcDbEntity
  8
0
  6
Continuous
 62
     0
100
AcDbLine
 10
91.354136
 20
233.242183
 30
0.0
 11
94.408167
 21
236.296214
 31
0.0
  0
LINE
  5
B5
330
7D
100
AcDbEntity
  8
0
  6
Continuous
 62
     0
100
AcDbLine
 10
91.226996
 20
233.339549
 30
0.0
 11
94.336771
 21
236.449324
 31
0.0
  0
LINE
  5
B6
330
7D
100
AcDbEntity
  8
0
  6
Continuous
 62
     0
100
AcDbLine
 10
91.099855
 20
233.436915
 30
0.0
 11
94.265375
 21
236.602434
 31
0.0
  0
LINE
  5
B7
330
7D
100
AcDbEntity
  8
0
  6
Continuous
 62
     0
100
AcDbLine
 10
90.972715
 20
233.534281
 30
0.0
 11
94.193978
 21
236.755544
 31
0.0
  0
LINE
  5
B8
330
7D
100
AcDbEntity
  8
0
  6
Continuous
 62
     0
100
AcDbLine
 10
90.845575
 20
233.631647
 30
0.0
 11
94.122582
 21
236.908654
 31
0.0
  0
LINE
  5
B9
330
7D
100
AcDbEntity
  8
0
  6
Continuous
 62
     0
100
AcDbLine
 10
90.718434
 20
233.729013
 30
0.0
 11
94.051186
 21
237.061764
 31
0.0
  0
LINE
  5
BA
330
7D
100
AcDbEntity
  8
0
  6
Continuous
 62
     0
100
AcDbLine
 10
90.591294
 20
233.826379
 30
0.0
 11
93.979789
 21
237.214874
 31
0.0
  0
LINE
  5
BB
330
7D
100
AcDbEntity
  8
0
  6
Continuous
 62
     0
100
AcDbLine
 10
90.464154
 20
233.923745
 30
0.0
 11
93.908393
 21
237.367984
 31
0.0
  0
LINE
  5
BC
330
7D
100
AcDbEntity
  8
0
  6
Continuous
 62
     0
100
AcDbLine
 10
90.337013
 20
234.021111
 30
0.0
 11
93.836996
 21
237.521094
 31
0.0
  0
LINE
  5
BD
330
7D
100
AcDbEntity
  8
0
  6
Continuous
 62
     0
100
AcDbLine
 10
90.209873
 20
234.118477
 30
0.0
 11
93.7656
 21
237.674204
 31
0.0
  0
LINE
  5
BE
330
7D
100
AcDbEntity
  8
0
  6
Continuous
 62
     0
100
AcDbLine
 10
90.082733
 20
234.215843
 30
0.0
 11
93.694204
 21
237.827314
 31
0.0
  0
LINE
  5
BF
330
7D
100
AcDbEntity
  8
0
  6
Continuous
 62
     0
100
AcDbLine
 10
89.955592
 20
234.313209
 30
0.0
 11
93.622807
 21
237.980424
 31
0.0
  0
LINE
  5
C0
330
7D
100
AcDbEntity
  8
0
  6
Continuous
 62
     0
100
AcDbLine
 10
89.828452
 20
234.410575
 30
0.0
 11
93.551411
 21
238.133534
 31
0.0
  0
LINE
  5
C1
330
7D
100
AcDbEntity
  8
0
  6
Continuous
 62
     0
100
AcDbLine
 10
89.701311
 20
234.507941
 30
0.0
 11
93.480015
 21
238.286644
 31
0.0
  0
LINE
  5
C2
330
7D
100
AcDbEntity
  8
0
  6
Continuous
 62
     0
100
AcDbLine
 10
89.574171
 20
234.605307
 30
0.0
 11
93.408618
 21
238.439754
 31
0.0
  0
LINE
  5
C3
330
7D
100
AcDbEntity
  8
0
  6
Continuous
 62
     0
100
AcDbLine
 10
89.447031
 20
234.702674
 30
0.0
 11
93.332362
 21
238.588004
 31
0.0
  0
LINE
  5
C4
330
7D
100
AcDbEntity
  8
0
  6
Continuous
 62
     0
100
AcDbLine
 10
89.31989
 20
234.80004
 30
0.0
 11
93.246146
 21
238.726295
 31
0.0
  0
LINE
  5
C5
330
7D
100
AcDbEntity
  8
0
  6
Continuous
 62
     0
100
AcDbLine
 10
89.19275
 20
234.897406
 30
0.0
 11
93.150519
 21
238.855174
 31
0.0
  0
LINE
  5
C6
330
7D
100
AcDbEntity
  8
0
  6
Continuous
 62
     0
100
AcDbLine
 10
89.06561
 20
234.994772
 30
0.0
 11
93.045812
 21
238.974974
 31
0.0
  0
LINE
  5
C7
330
7D
100
AcDbEntity
  8
0
  6
Continuous
 62
     0
100
AcDbLine
 10
88.938469
 20
235.092138
 30
0.0
 11
92.93217
 21
239.085839
 31
0.0
  0
LINE
  5
C8
330
7D
100
AcDbEntity
  8
0
  6
Continuous
 62
     0
100
AcDbLine
 10
88.867614
 20
235.245789
 30
0.0
 11
92.809568
 21
239.187743
 31
0.0
  0
LINE
  5
C9
330
7D
100
AcDbEntity
  8
0
  6
Continuous
 62
     0
100
AcDbLine
 10
88.867614
 20
235.470295
 30
0.0
 11
92.677804
 21
239.280485
 31
0.0
  0
LINE
  5
CA
330
7D
100
AcDbEntity
  8
0
  6
Continuous
 62
     0
100
AcDbLine
 10
88.867614
 20
235.694802
 30
0.0
 11
92.536482
 21
239.363669
 31
0.0
  0
LINE
  5
CB
330
7D
100
AcDbEntity
  8
0
  6
Continuous
 62
     0
100
AcDbLine
 10
88.867614
 20
235.919308
 30
0.0
 11
92.384967
 21
239.436661
 31
0.0
  0
LINE
  5
CC
330
7D
100
AcDbEntity
  8
0
  6
Continuous
 62
     0
100
AcDbLine
 10
88.867614
 20
236.143815
 30
0.0
 11
92.22231
 21
239.49851
 31
0.0
  0
LINE
  5
CD
330
7D
100
AcDbEntity
  8
0
  6
Continuous
 62
     0
100
AcDbLine
 10
88.867614
 20
236.368321
 30
0.0
 11
92.047109
 21
239.547816
 31
0.0
  0
LINE
  5
CE
330
7D
100
AcDbEntity
  8
0
  6
Continuous
 62
     0
100
AcDbLine
 10
88.867614
 20
236.592827
 30
0.0
 11
91.857257
 21
239.58247
 31
0.0
  0
LINE
  5
CF
330
7D
100
AcDbEntity
  8
0
  6
Continuous
 62
     0
100
AcDbLine
 10
88.867614
 20
236.817334
 30
0.0
 11
91.649439
 21
239.599158
 31
0.0
  0
LINE
  5
D0
330
7D
100
AcDbEntity
  8
0
  6
Continuous
 62
     0
100
AcDbLine
 10
88.867614
 20
237.04184
 30
0.0
 11
91.425715
 21
239.599941
 31
0.0
  0
LINE
  5
D1
330
7D
100
AcDbEntity
  8
0
  6
Continuous
 62
     0
100
AcDbLine
 10
88.867614
 20
237.266347
 30
0.0
 11
91.201209
 21
239.599941
 31
0.0
  0
LINE
  5
D2
330
7D
100
AcDbEntity
  8
0
  6
Continuous
 62
     0
100
AcDbLine
 10
88.867614
 20
237.490853
 30
0.0
 11
90.976703
 21
239.599941
 31
0.0
  0
LINE
  5
D3
330
7D
100
AcDbEntity
  8
0
  6
Continuous
 62
     0
100
AcDbLine
 10
88.867614
 20
237.715359
 30
0.0
 11
90.752196
 21
239.599941
 31
0.0
  0
LINE
  5
D4
330
7D
100
AcDbEntity
  8
0
  6
Continuous
 62
     0
100
AcDbLine
 10
88.867614
 20
237.939866
 30
0.0
 11
90.52769
 21
239.599941
 31
0.0
  0
LINE
  5
D5
330
7D
100
AcDbEntity
  8
0
  6
Continuous
 62
     0
100
AcDbLine
 10
88.867614
 20
238.164372
 30
0.0
 11
90.303183
 21
239.599941
 31
0.0
  0
LINE
  5
D6
330
7D
100
AcDbEntity
  8
0
  6
Continuous
 62
     0
100
AcDbLine
 10
88.867614
 20
238.388879
 30
0.0
 11
90.078677
 21
239.599941
 31
0.0
  0
LINE
  5
D7
330
7D
100
AcDbEntity
  8
0
  6
Continuous
 62
     0
100
AcDbLine
 10
88.867614
 20
238.613385
 30
0.0
 11
89.854171
 21
239.599941
 31
0.0
  0
LINE
  5
D8
330
7D
100
AcDbEntity
  8
0
  6
Continuous
 62
     0
100
AcDbLine
 10
88.867614
 20
238.837891
 30
0.0
 11
89.629664
 21
239.599941
 31
0.0
  0
LINE
  5
D9
330
7D
100
AcDbEntity
  8
0
  6
Continuous
 62
     0
100
AcDbLine
 10
88.867614
 20
239.062398
 30
0.0
 11
89.405158
 21
239.599941
 31
0.0
  0
LINE
  5
DA
330
7D
100
AcDbEntity
  8
0
  6
Continuous
 62
     0
100
AcDbLine
 10
114.363797
 20
238.515838
 30
0.0
 11
115.225858
 21
239.377899
 31
0.0
  0
LINE
  5
DB
330
7D
100
AcDbEntity
  8
0
  6
Continuous
 62
     0
100
AcDbLine
 10
114.164436
 20
238.09197
 30
0.0
 11
115.596704
 21
239.524239
 31
0.0
  0
LINE
  5
DC
330
7D
100
AcDbEntity
  8
0
  6
Continuous
 62
     0
100
AcDbLine
 10
113.968276
 20
237.671304
 30
0.0
 11
115.879666
 21
239.582694
 31
0.0
  0
LINE
  5
DD
330
7D
100
AcDbEntity
  8
0
  6
Continuous
 62
     0
100
AcDbLine
 10
113.772116
 20
237.250637
 30
0.0
 11
116.121315
 21
239.599837
 31
0.0
  0
LINE
  5
DE
330
7D
100
AcDbEntity
  8
0
  6
Continuous
 62
     0
100
AcDbLine
 10
113.575956
 20
236.829971
 30
0.0
 11
116.345926
 21
239.599941
 31
0.0
  0
LINE
  5
DF
330
7D
100
AcDbEntity
  8
0
  6
Continuous
 62
     0
100
AcDbLine
 10
113.379796
 20
236.409305
 30
0.0
 11
116.570433
 21
239.599941
 31
0.0
  0
LINE
  5
E0
330
7D
100
AcDbEntity
  8
0
  6
Continuous
 62
     0
100
AcDbLine
 10
113.183636
 20
235.988638
 30
0.0
 11
116.794939
 21
239.599941
 31
0.0
  0
LINE
  5
E1
330
7D
100
AcDbEntity
  8
0
  6
Continuous
 62
     0
100
AcDbLine
 10
112.987476
 20
235.567972
 30
0.0
 11
117.019445
 21
239.599941
 31
0.0
  0
LINE
  5
E2
330
7D
100
AcDbEntity
  8
0
  6
Continuous
 62
     0
100
AcDbLine
 10
112.791316
 20
235.147306
 30
0.0
 11
117.243952
 21
239.599941
 31
0.0
  0
LINE
  5
E3
330
7D
100
AcDbEntity
  8
0
  6
Continuous
 62
     0
100
AcDbLine
 10
112.595156
 20
234.726639
 30
0.0
 11
117.468458
 21
239.599941
 31
0.0
  0
LINE
  5
E4
330
7D
100
AcDbEntity
  8
0
  6
Continuous
 62
     0
100
AcDbLine
 10
112.398996
 20
234.305973
 30
0.0
 11
117.692965
 21
239.599941
 31
0.0
  0
LINE
  5
E5
330
7D
100
AcDbEntity
  8
0
  6
Continuous
 62
     0
100
AcDbLine
 10
112.202836
 20
233.885307
 30
0.0
 11
117.917471
 21
239.599941
 31
0.0
  0
LINE
  5
E6
330
7D
100
AcDbEntity
  8
0
  6
Continuous
 62
     0
100
AcDbLine
 10
112.006676
 20
233.46464
 30
0.0
 11
118.141977
 21
239.599941
 31
0.0
  0
LINE
  5
E7
330
7D
100
AcDbEntity
  8
0
  6
Continuous
 62
     0
100
AcDbLine
 10
111.810516
 20
233.043974
 30
0.0
 11
118.366484
 21
239.599941
 31
0.0
  0
LINE
  5
E8
330
7D
100
AcDbEntity
  8
0
  6
Continuous
 62
     0
100
AcDbLine
 10
111.614356
 20
232.623308
 30
0.0
 11
118.479302
 21
239.488253
 31
0.0
  0
LINE
  5
E9
330
7D
100
AcDbEntity
  8
0
  6
Continuous
 62
     0
100
AcDbLine
 10
111.418196
 20
232.202641
 30
0.0
 11
118.591555
 21
239.376
 31
0.0
  0
LINE
  5
EA
330
7D
100
AcDbEntity
  8
0
  6
Continuous
 62
     0
100
AcDbLine
 10
111.222036
 20
231.781975
 30
0.0
 11
118.703809
 21
239.263747
 31
0.0
  0
LINE
  5
EB
330
7D
100
AcDbEntity
  8
0
  6
Continuous
 62
     0
100
AcDbLine
 10
111.025877
 20
231.361309
 30
0.0
 11
118.816062
 21
239.151494
 31
0.0
  0
LINE
  5
EC
330
7D
100
AcDbEntity
  8
0
  6
Continuous
 62
     0
100
AcDbLine
 10
110.829717
 20
230.940642
 30
0.0
 11
118.867614
 21
238.97854
 31
0.0
  0
LINE
  5
ED
330
7D
100
AcDbEntity
  8
0
  6
Continuous
 62
     0
100
AcDbLine
 10
110.633557
 20
230.519976
 30
0.0
 11
118.867614
 21
238.754033
 31
0.0
  0
LINE
  5
EE
330
7D
100
AcDbEntity
  8
0
  6
Continuous
 62
     0
100
AcDbLine
 10
110.437397
 20
230.09931
 30
0.0
 11
118.867614
 21
238.529527
 31
0.0
  0
LINE
  5
EF
330
7D
100
AcDbEntity
  8
0
  6
Continuous
 62
     0
100
AcDbLine
 10
110.241237
 20
229.678643
 30
0.0
 11
118.867614
 21
238.305021
 31
0.0
  0
LINE
  5
F0
330
7D
100
AcDbEntity
  8
0
  6
Continuous
 62
     0
100
AcDbLine
 10
110.045077
 20
229.257977
 30
0.0
 11
118.867614
 21
238.080514
 31
0.0
  0
LINE
  5
F1
330
7D
100
AcDbEntity
  8
0
  6
Continuous
 62
     0
100
AcDbLine
 10
109.848917
 20
228.837311
 30
0.0
 11
118.867614
 21
237.856008
 31
0.0
  0
LINE
  5
F2
330
7D
100
AcDbEntity
  8
0
  6
Continuous
 62
     0
100
AcDbLine
 10
109.652757
 20
228.416644
 30
0.0
 11
118.867614
 21
237.631501
 31
0.0
  0
LINE
  5
F3
330
7D
100
AcDbEntity
  8
0
  6
Continuous
 62
     0
100
AcDbLine
 10
109.456597
 20
227.995978
 30
0.0
 11
118.867614
 21
237.406995
 31
0.0
  0
LINE
  5
F4
330
7D
100
AcDbEntity
  8
0
  6
Continuous
 62
     0
100
AcDbLine
 10
109.260437
 20
227.575312
 30
0.0
 11
118.867614
 21
237.182489
 31
0.0
  0
LINE
  5
F5
330
7D
100
AcDbEntity
  8
0
  6
Continuous
 62
     0
100
AcDbLine
 10
109.064277
 20
227.154645
 30
0.0
 11
118.867614
 21
236.957982
 31
0.0
  0
LINE
  5
F6
330
7D
100
AcDbEntity
  8
0
  6
Continuous
 62
     0
100
AcDbLine
 10
108.868117
 20
226.733979
 30
0.0
 11
118.867614
 21
236.733476
 31
0.0
  0
LINE
  5
F7
330
7D
100
AcDbEntity
  8
0
  6
Continuous
 62
     0
100
AcDbLine
 10
109.63026
 20
227.271615
 30
0.0
 11
118.867614
 21
236.508969
 31
0.0
  0
LINE
  5
F8
330
7D
100
AcDbEntity
  8
0
  6
Continuous
 62
     0
100
AcDbLine
 10
111.152271
 20
228.56912
 30
0.0
 11
118.867614
 21
236.284463
 31
0.0
  0
LINE
  5
F9
330
7D
100
AcDbEntity
  8
0
  6
Continuous
 62
     0
100
AcDbLine
 10
112.674281
 20
229.866624
 30
0.0
 11
118.867614
 21
236.059956
 31
0.0
  0
LINE
  5
FA
330
7D
100
AcDbEntity
  8
0
  6
Continuous
 62
     0
100
AcDbLine
 10
114.196292
 20
231.164128
 30
0.0
 11
118.867614
 21
235.83545
 31
0.0
  0
LINE
  5
FB
330
7D
100
AcDbEntity
  8
0
  6
Continuous
 62
     0
100
AcDbLine
 10
115.718302
 20
232.461632
 30
0.0
 11
118.867614
 21
235.610944
 31
0.0
  0
LINE
  5
FC
330
7D
100
AcDbEntity
  8
0
  6
Continuous
 62
     0
100
AcDbLine
 10
117.240313
 20
233.759136
 30
0.0
 11
118.867614
 21
235.386437
 31
0.0
  0
LINE
  5
FD
330
7D
100
AcDbEntity
  8
0
  6
Continuous
 62
     0
100
AcDbLine
 10
118.762323
 20
235.05664
 30
0.0
 11
118.867614
 21
235.161931
 31
0.0
  0
ENDBLK
  5
FF
330
7D
100
AcDbEntity
  8
0
100
AcDbBlockEnd
  0
BLOCK
  5
18E
330
101
100
AcDbEntity
  8
0
100
AcDbBlockBegin
  2
.X_2
 70
     0
 71
     0
 10
0.0
 20
0.0
 30
0.0
  3
.X_2
  1

  0
LINE
  5
102
330
101
100
AcDbEntity
  8
0
  6
Continuous
 62
     0
100
AcDbLine
 10
106.699112
 20
131.394816
 30
0.0
 11
107.409648
 21
132.105352
 31
0.0
  0
LINE
  5
103
330
101
100
AcDbEntity
  8
0
  6
Continuous
 62
     0
100
AcDbLine
 10
106.627716
 20
131.547926
 30
0.0
 11
107.249664
 21
132.169874
 31
0.0
  0
LINE
  5
104
330
101
100
AcDbEntity
  8
0
  6
Continuous
 62
     0
100
AcDbLine
 10
106.556319
 20
131.701036
 30
0.0
 11
107.089679
 21
132.234396
 31
0.0
  0
LINE
  5
105
330
101
100
AcDbEntity
  8
0
  6
Continuous
 62
     0
100
AcDbLine
 10
106.484923
 20
131.854146
 30
0.0
 11
106.929695
 21
132.298918
 31
0.0
  0
LINE
  5
106
330
101
100
AcDbEntity
  8
0
  6
Continuous
 62
     0
100
AcDbLine
 10
106.413526
 20
132.007256
 30
0.0
 11
106.76971
 21
132.36344
 31
0.0
  0
LINE
  5
107
330
101
100
AcDbEntity
  8
0
  6
Continuous
 62
     0
100
AcDbLine
 10
106.34213
 20
132.160366
 30
0.0
 11
106.609726
 21
132.427962
 31
0.0
  0
LINE
  5
108
330
101
100
AcDbEntity
  8
0
  6
Continuous
 62
     0
100
AcDbLine
 10
106.270734
 20
132.313476
 30
0.0
 11
106.449741
 21
132.492484
 31
0.0
  0
LINE
  5
109
330
101
100
AcDbEntity
  8
0
  6
Continuous
 62
     0
100
AcDbLine
 10
106.199337
 20
132.466586
 30
0.0
 11
106.289757
 21
132.557006
 31
0.0
  0
LINE
  5
10A
330
101
100
AcDbEntity
  8
0
  6
Continuous
 62
     0
100
AcDbLine
 10
106.127941
 20
132.619696
 30
0.0
 11
106.129772
 21
132.621528
 31
0.0
  0
LINE
  5
10B
330
101
100
AcDbEntity
  8
0
  6
Continuous
 62
     0
100
AcDbLine
 10
97.364939
 20
124.75472
 30
0.0
 11
98.442057
 21
125.831838
 31
0.0
  0
LINE
  5
10C
330
101
100
AcDbEntity
  8
0
  6
Continuous
 62
     0
100
AcDbLine
 10
97.034999
 20
124.649286
 30
0.0
 11
98.638217
 21
126.252505
 31
0.0
  0
LINE
  5
10D
330
101
100
AcDbEntity
  8
0
  6
Continuous
 62
     0
100
AcDbLine
 10
96.768852
 20
124.607646
 30
0.0
 11
98.834377
 21
126.673171
 31
0.0
  0
LINE
  5
10E
330
101
100
AcDbEntity
  8
0
  6
Continuous
 62
     0
100
AcDbLine
 10
96.536641
 20
124.599941
 30
0.0
 11
99.030537
 21
127.093837
 31
0.0
  0
LINE
  5
10F
330
101
100
AcDbEntity
  8
0
  6
Continuous
 62
     0
100
AcDbLine
 10
96.312135
 20
124.599941
 30
0.0
 11
99.226697
 21
127.514504
 31
0.0
  0
LINE
  5
110
330
101
100
AcDbEntity
  8
0
  6
Continuous
 62
     0
100
AcDbLine
 10
96.087628
 20
124.599941
 30
0.0
 11
99.422857
 21
127.93517
 31
0.0
  0
LINE
  5
111
330
101
100
AcDbEntity
  8
0
  6
Continuous
 62
     0
100
AcDbLine
 10
95.863122
 20
124.599941
 30
0.0
 11
99.619017
 21
128.355836
 31
0.0
  0
LINE
  5
112
330
101
100
AcDbEntity
  8
0
  6
Continuous
 62
     0
100
AcDbLine
 10
95.638615
 20
124.599941
 30
0.0
 11
99.815177
 21
128.776503
 31
0.0
  0
LINE
  5
113
330
101
100
AcDbEntity
  8
0
  6
Continuous
 62
     0
100
AcDbLine
 10
95.414109
 20
124.599941
 30
0.0
 11
100.011337
 21
129.197169
 31
0.0
  0
LINE
  5
114
330
101
100
AcDbEntity
  8
0
  6
Continuous
 62
     0
100
AcDbLine
 10
95.189603
 20
124.599941
 30
0.0
 11
100.207496
 21
129.617835
 31
0.0
  0
LINE
  5
115
330
101
100
AcDbEntity
  8
0
  6
Continuous
 62
     0
100
AcDbLine
 10
94.965096
 20
124.599941
 30
0.0
 11
100.403656
 21
130.038502
 31
0.0
  0
LINE
  5
116
330
101
100
AcDbEntity
  8
0
  6
Continuous
 62
     0
100
AcDbLine
 10
94.74059
 20
124.599941
 30
0.0
 11
100.599816
 21
130.459168
 31
0.0
  0
LINE
  5
117
330
101
100
AcDbEntity
  8
0
  6
Continuous
 62
     0
100
AcDbLine
 10
94.516083
 20
124.599941
 30
0.0
 11
100.795976
 21
130.879834
 31
0.0
  0
LINE
  5
118
330
101
100
AcDbEntity
  8
0
  6
Continuous
 62
     0
100
AcDbLine
 10
94.291577
 20
124.599941
 30
0.0
 11
100.992136
 21
131.300501
 31
0.0
  0
LINE
  5
119
330
101
100
AcDbEntity
  8
0
  6
Continuous
 62
     0
100
AcDbLine
 10
94.067071
 20
124.599941
 30
0.0
 11
101.188296
 21
131.721167
 31
0.0
  0
LINE
  5
11A
330
101
100
AcDbEntity
  8
0
  6
Continuous
 62
     0
100
AcDbLine
 10
93.842564
 20
124.599941
 30
0.0
 11
101.384456
 21
132.141833
 31
0.0
  0
LINE
  5
11B
330
101
100
AcDbEntity
  8
0
  6
Continuous
 62
     0
100
AcDbLine
 10
93.618058
 20
124.599941
 30
0.0
 11
101.170103
 21
132.151987
 31
0.0
  0
LINE
  5
11C
330
101
100
AcDbEntity
  8
0
  6
Continuous
 62
     0
100
AcDbLine
 10
93.393551
 20
124.599941
 30
0.0
 11
100.793404
 21
131.999794
 31
0.0
  0
LINE
  5
11D
330
101
100
AcDbEntity
  8
0
  6
Continuous
 62
     0
100
AcDbLine
 10
93.169045
 20
124.599941
 30
0.0
 11
100.416706
 21
131.847602
 31
0.0
  0
LINE
  5
11E
330
101
100
AcDbEntity
  8
0
  6
Continuous
 62
     0
100
AcDbLine
 10
92.944539
 20
124.599941
 30
0.0
 11
100.040007
 21
131.69541
 31
0.0
  0
LINE
  5
11F
330
101
100
AcDbEntity
  8
0
  6
Continuous
 62
     0
100
AcDbLine
 10
92.720032
 20
124.599941
 30
0.0
 11
99.663308
 21
131.543218
 31
0.0
  0
LINE
  5
120
330
101
100
AcDbEntity
  8
0
  6
Continuous
 62
     0
100
AcDbLine
 10
92.495526
 20
124.599941
 30
0.0
 11
99.28661
 21
131.391025
 31
0.0
  0
LINE
  5
121
330
101
100
AcDbEntity
  8
0
  6
Continuous
 62
     0
100
AcDbLine
 10
92.271019
 20
124.599941
 30
0.0
 11
98.909911
 21
131.238833
 31
0.0
  0
LINE
  5
122
330
101
100
AcDbEntity
  8
0
  6
Continuous
 62
     0
100
AcDbLine
 10
92.046513
 20
124.599941
 30
0.0
 11
98.533212
 21
131.086641
 31
0.0
  0
LINE
  5
123
330
101
100
AcDbEntity
  8
0
  6
Continuous
 62
     0
100
AcDbLine
 10
91.822007
 20
124.599941
 30
0.0
 11
98.156514
 21
130.934448
 31
0.0
  0
LINE
  5
124
330
101
100
AcDbEntity
  8
0
  6
Continuous
 62
     0
100
AcDbLine
 10
91.5975
 20
124.599941
 30
0.0
 11
97.779815
 21
130.782256
 31
0.0
  0
LINE
  5
125
330
101
100
AcDbEntity
  8
0
  6
Continuous
 62
     0
100
AcDbLine
 10
91.372994
 20
124.599941
 30
0.0
 11
97.403116
 21
130.630064
 31
0.0
  0
LINE
  5
126
330
101
100
AcDbEntity
  8
0
  6
Continuous
 62
     0
100
AcDbLine
 10
91.148487
 20
124.599941
 30
0.0
 11
97.026418
 21
130.477872
 31
0.0
  0
LINE
  5
127
330
101
100
AcDbEntity
  8
0
  6
Continuous
 62
     0
100
AcDbLine
 10
90.923981
 20
124.599941
 30
0.0
 11
96.649719
 21
130.325679
 31
0.0
  0
LINE
  5
128
330
101
100
AcDbEntity
  8
0
  6
Continuous
 62
     0
100
AcDbLine
 10
90.699475
 20
124.599941
 30
0.0
 11
96.27302
 21
130.173487
 31
0.0
  0
LINE
  5
129
330
101
100
AcDbEntity
  8
0
  6
Continuous
 62
     0
100
AcDbLine
 10
90.474968
 20
124.599941
 30
0.0
 11
95.896322
 21
130.021295
 31
0.0
  0
LINE
  5
12A
330
101
100
AcDbEntity
  8
0
  6
Continuous
 62
     0
100
AcDbLine
 10
90.250462
 20
124.599941
 30
0.0
 11
95.519623
 21
129.869102
 31
0.0
  0
LINE
  5
12B
330
101
100
AcDbEntity
  8
0
  6
Continuous
 62
     0
100
AcDbLine
 10
90.025955
 20
124.599941
 30
0.0
 11
95.142924
 21
129.71691
 31
0.0
  0
LINE
  5
12C
330
101
100
AcDbEntity
  8
0
  6
Continuous
 62
     0
100
AcDbLine
 10
89.801449
 20
124.599941
 30
0.0
 11
94.766225
 21
129.564718
 31
0.0
  0
LINE
  5
12D
330
101
100
AcDbEntity
  8
0
  6
Continuous
 62
     0
100
AcDbLine
 10
89.576943
 20
124.599941
 30
0.0
 11
94.389527
 21
129.412526
 31
0.0
  0
LINE
  5
12E
330
101
100
AcDbEntity
  8
0
  6
Continuous
 62
     0
100
AcDbLine
 10
89.360025
 20
124.60753
 30
0.0
 11
94.012828
 21
129.260333
 31
0.0
  0
LINE
  5
12F
330
101
100
AcDbEntity
  8
0
  6
Continuous
 62
     0
100
AcDbLine
 10
89.247772
 20
124.719784
 30
0.0
 11
93.636129
 21
129.108141
 31
0.0
  0
LINE
  5
130
330
101
100
AcDbEntity
  8
0
  6
Continuous
 62
     0
100
AcDbLine
 10
89.135519
 20
124.832037
 30
0.0
 11
93.259431
 21
128.955949
 31
0.0
  0
LINE
  5
131
330
101
100
AcDbEntity
  8
0
  6
Continuous
 62
     0
100
AcDbLine
 10
89.023266
 20
124.94429
 30
0.0
 11
92.882732
 21
128.803757
 31
0.0
  0
LINE
  5
132
330
101
100
AcDbEntity
  8
0
  6
Continuous
 62
     0
100
AcDbLine
 10
88.911012
 20
125.056543
 30
0.0
 11
92.506033
 21
128.651564
 31
0.0
  0
LINE
  5
133
330
101
100
AcDbEntity
  8
0
  6
Continuous
 62
     0
100
AcDbLine
 10
88.867614
 20
125.237651
 30
0.0
 11
92.129335
 21
128.499372
 31
0.0
  0
LINE
  5
134
330
101
100
AcDbEntity
  8
0
  6
Continuous
 62
     0
100
AcDbLine
 10
88.867614
 20
125.462158
 30
0.0
 11
91.752636
 21
128.34718
 31
0.0
  0
LINE
  5
135
330
101
100
AcDbEntity
  8
0
  6
Continuous
 62
     0
100
AcDbLine
 10
88.867614
 20
125.686664
 30
0.0
 11
91.375937
 21
128.194987
 31
0.0
  0
LINE
  5
136
330
101
100
AcDbEntity
  8
0
  6
Continuous
 62
     0
100
AcDbLine
 10
88.867614
 20
125.911171
 30
0.0
 11
90.999239
 21
128.042795
 31
0.0
  0
LINE
  5
137
330
101
100
AcDbEntity
  8
0
  6
Continuous
 62
     0
100
AcDbLine
 10
88.867614
 20
126.135677
 30
0.0
 11
90.62254
 21
127.890603
 31
0.0
  0
LINE
  5
138
330
101
100
AcDbEntity
  8
0
  6
Continuous
 62
     0
100
AcDbLine
 10
88.867614
 20
126.360183
 30
0.0
 11
90.245841
 21
127.738411
 31
0.0
  0
LINE
  5
139
330
101
100
AcDbEntity
  8
0
  6
Continuous
 62
     0
100
AcDbLine
 10
88.867614
 20
126.58469
 30
0.0
 11
89.869143
 21
127.586218
 31
0.0
  0
LINE
  5
13A
330
101
100
AcDbEntity
  8
0
  6
Continuous
 62
     0
100
AcDbLine
 10
88.867614
 20
126.809196
 30
0.0
 11
89.492444
 21
127.434026
 31
0.0
  0
LINE
  5
13B
330
101
100
AcDbEntity
  8
0
  6
Continuous
 62
     0
100
AcDbLine
 10
88.867614
 20
127.033703
 30
0.0
 11
89.115745
 21
127.281834
 31
0.0
  0
LINE
  5
13C
330
101
100
AcDbEntity
  8
0
  6
Continuous
 62
     0
100
AcDbLine
 10
106.770508
 20
131.241706
 30
0.0
 11
107.569633
 21
132.04083
 31
0.0
  0
LINE
  5
13D
330
101
100
AcDbEntity
  8
0
  6
Continuous
 62
     0
100
AcDbLine
 10
106.841905
 20
131.088596
 30
0.0
 11
107.729617
 21
131.976309
 31
0.0
  0
LINE
  5
13E
330
101
100
AcDbEntity
  8
0
  6
Continuous
 62
     0
100
AcDbLine
 10
106.913301
 20
130.935486
 30
0.0
 11
107.889601
 21
131.911787
 31
0.0
  0
LINE
  5
13F
330
101
100
AcDbEntity
  8
0
  6
Continuous
 62
     0
100
AcDbLine
 10
106.984697
 20
130.782376
 30
0.0
 11
108.049586
 21
131.847265
 31
0.0
  0
LINE
  5
140
330
101
100
AcDbEntity
  8
0
  6
Continuous
 62
     0
100
AcDbLine
 10
107.056094
 20
130.629266
 30
0.0
 11
108.20957
 21
131.782743
 31
0.0
  0
LINE
  5
141
330
101
100
AcDbEntity
  8
0
  6
Continuous
 62
     0
100
AcDbLine
 10
107.12749
 20
130.476156
 30
0.0
 11
108.369555
 21
131.718221
 31
0.0
  0
LINE
  5
142
330
101
100
AcDbEntity
  8
0
  6
Continuous
 62
     0
100
AcDbLine
 10
107.198887
 20
130.323046
 30
0.0
 11
108.529539
 21
131.653699
 31
0.0
  0
LINE
  5
143
330
101
100
AcDbEntity
  8
0
  6
Continuous
 62
     0
100
AcDbLine
 10
107.270283
 20
130.169936
 30
0.0
 11
108.689524
 21
131.589177
 31
0.0
  0
LINE
  5
144
330
101
100
AcDbEntity
  8
0
  6
Continuous
 62
     0
100
AcDbLine
 10
107.341679
 20
130.016826
 30
0.0
 11
108.849508
 21
131.524655
 31
0.0
  0
LINE
  5
145
330
101
100
AcDbEntity
  8
0
  6
Continuous
 62
     0
100
AcDbLine
 10
107.413076
 20
129.863716
 30
0.0
 11
109.009493
 21
131.460133
 31
0.0
  0
LINE
  5
146
330
101
100
AcDbEntity
  8
0
  6
Continuous
 62
     0
100
AcDbLine
 10
107.484472
 20
129.710606
 30
0.0
 11
109.169477
 21
131.395611
 31
0.0
  0
LINE
  5
147
330
101
100
AcDbEntity
  8
0
  6
Continuous
 62
     0
100
AcDbLine
 10
107.555868
 20
129.557496
 30
0.0
 11
109.329462
 21
131.331089
 31
0.0
  0
LINE
  5
148
330
101
100
AcDbEntity
  8
0
  6
Continuous
 62
     0
100
AcDbLine
 10
107.627265
 20
129.404386
 30
0.0
 11
109.489446
 21
131.266567
 31
0.0
  0
LINE
  5
149
330
101
100
AcDbEntity
  8
0
  6
Continuous
 62
     0
100
AcDbLine
 10
107.698661
 20
129.251276
 30
0.0
 11
109.649431
 21
131.202045
 31
0.0
  0
LINE
  5
14A
330
101
100
AcDbEntity
  8
0
  6
Continuous
 62
     0
100
AcDbLine
 10
107.770058
 20
129.098166
 30
0.0
 11
109.809415
 21
131.137524
 31
0.0
  0
LINE
  5
14B
330
101
100
AcDbEntity
  8
0
  6
Continuous
 62
     0
100
AcDbLine
 10
107.841454
 20
128.945056
 30
0.0
 11
109.9694
 21
131.073002
 31
0.0
  0
LINE
  5
14C
330
101
100
AcDbEntity
  8
0
  6
Continuous
 62
     0
100
AcDbLine
 10
107.91285
 20
128.791946
 30
0.0
 11
110.129384
 21
131.00848
 31
0.0
  0
LINE
  5
14D
330
101
100
AcDbEntity
  8
0
  6
Continuous
 62
     0
100
AcDbLine
 10
107.984247
 20
128.638836
 30
0.0
 11
110.289369
 21
130.943958
 31
0.0
  0
LINE
  5
14E
330
101
100
AcDbEntity
  8
0
  6
Continuous
 62
     0
100
AcDbLine
 10
108.055643
 20
128.485726
 30
0.0
 11
110.449353
 21
130.879436
 31
0.0
  0
LINE
  5
14F
330
101
100
AcDbEntity
  8
0
  6
Continuous
 62
     0
100
AcDbLine
 10
108.127039
 20
128.332616
 30
0.0
 11
110.609338
 21
130.814914
 31
0.0
  0
LINE
  5
150
330
101
100
AcDbEntity
  8
0
  6
Continuous
 62
     0
100
AcDbLine
 10
108.198436
 20
128.179506
 30
0.0
 11
110.769322
 21
130.750392
 31
0.0
  0
LINE
  5
151
330
101
100
AcDbEntity
  8
0
  6
Continuous
 62
     0
100
AcDbLine
 10
108.269832
 20
128.026396
 30
0.0
 11
110.929307
 21
130.68587
 31
0.0
  0
LINE
  5
152
330
101
100
AcDbEntity
  8
0
  6
Continuous
 62
     0
100
AcDbLine
 10
108.341229
 20
127.873286
 30
0.0
 11
111.089291
 21
130.621348
 31
0.0
  0
LINE
  5
153
330
101
100
AcDbEntity
  8
0
  6
Continuous
 62
     0
100
AcDbLine
 10
108.412625
 20
127.720176
 30
0.0
 11
111.249276
 21
130.556826
 31
0.0
  0
LINE
  5
154
330
101
100
AcDbEntity
  8
0
  6
Continuous
 62
     0
100
AcDbLine
 10
108.484021
 20
127.567066
 30
0.0
 11
111.40926
 21
130.492304
 31
0.0
  0
LINE
  5
155
330
101
100
AcDbEntity
  8
0
  6
Continuous
 62
     0
100
AcDbLine
 10
108.555418
 20
127.413956
 30
0.0
 11
111.569245
 21
130.427782
 31
0.0
  0
LINE
  5
156
330
101
100
AcDbEntity
  8
0
  6
Continuous
 62
     0
100
AcDbLine
 10
108.626814
 20
127.260846
 30
0.0
 11
111.729229
 21
130.363261
 31
0.0
  0
LINE
  5
157
330
101
100
AcDbEntity
  8
0
  6
Continuous
 62
     0
100
AcDbLine
 10
108.69821
 20
127.107736
 30
0.0
 11
111.889214
 21
130.298739
 31
0.0
  0
LINE
  5
158
330
101
100
AcDbEntity
  8
0
  6
Continuous
 62
     0
100
AcDbLine
 10
108.769607
 20
126.954626
 30
0.0
 11
112.049198
 21
130.234217
 31
0.0
  0
LINE
  5
159
330
101
100
AcDbEntity
  8
0
  6
Continuous
 62
     0
100
AcDbLine
 10
108.841003
 20
126.801515
 30
0.0
 11
112.209183
 21
130.169695
 31
0.0
  0
LINE
  5
15A
330
101
100
AcDbEntity
  8
0
  6
Continuous
 62
     0
100
AcDbLine
 10
108.9124
 20
126.648405
 30
0.0
 11
112.369167
 21
130.105173
 31
0.0
  0
LINE
  5
15B
330
101
100
AcDbEntity
  8
0
  6
Continuous
 62
     0
100
AcDbLine
 10
108.983796
 20
126.495295
 30
0.0
 11
112.529151
 21
130.040651
 31
0.0
  0
LINE
  5
15C
330
101
100
AcDbEntity
  8
0
  6
Continuous
 62
     0
100
AcDbLine
 10
109.055192
 20
126.342185
 30
0.0
 11
112.689136
 21
129.976129
 31
0.0
  0
LINE
  5
15D
330
101
100
AcDbEntity
  8
0
  6
Continuous
 62
     0
100
AcDbLine
 10
109.126589
 20
126.189075
 30
0.0
 11
112.84912
 21
129.911607
 31
0.0
  0
LINE
  5
15E
330
101
100
AcDbEntity
  8
0
  6
Continuous
 62
     0
100
AcDbLine
 10
109.197985
 20
126.035965
 30
0.0
 11
113.009105
 21
129.847085
 31
0.0
  0
LINE
  5
15F
330
101
100
AcDbEntity
  8
0
  6
Continuous
 62
     0
100
AcDbLine
 10
109.269382
 20
125.882855
 30
0.0
 11
113.169089
 21
129.782563
 31
0.0
  0
LINE
  5
160
330
101
100
AcDbEntity
  8
0
  6
Continuous
 62
     0
100
AcDbLine
 10
109.34092
 20
125.729887
 30
0.0
 11
113.329074
 21
129.718041
 31
0.0
  0
LINE
  5
161
330
101
100
AcDbEntity
  8
0
  6
Continuous
 62
     0
100
AcDbLine
 10
109.419204
 20
125.583665
 30
0.0
 11
113.489058
 21
129.653519
 31
0.0
  0
LINE
  5
162
330
101
100
AcDbEntity
  8
0
  6
Continuous
 62
     0
100
AcDbLine
 10
109.507323
 20
125.447278
 30
0.0
 11
113.649043
 21
129.588997
 31
0.0
  0
LINE
  5
163
330
101
100
AcDbEntity
  8
0
  6
Continuous
 62
     0
100
AcDbLine
 10
109.604772
 20
125.320221
 30
0.0
 11
113.809027
 21
129.524476
 31
0.0
  0
LINE
  5
164
330
101
100
AcDbEntity
  8
0
  6
Continuous
 62
     0
100
AcDbLine
 10
109.711258
 20
125.2022
 30
0.0
 11
113.969012
 21
129.459954
 31
0.0
  0
LINE
  5
165
330
101
100
AcDbEntity
  8
0
  6
Continuous
 62
     0
100
AcDbLine
 10
109.82667
 20
125.093106
 30
0.0
 11
114.128996
 21
129.395432
 31
0.0
  0
LINE
  5
166
330
101
100
AcDbEntity
  8
0
  6
Continuous
 62
     0
100
AcDbLine
 10
109.951069
 20
124.992998
 30
0.0
 11
114.288981
 21
129.33091
 31
0.0
  0
LINE
  5
167
330
101
100
AcDbEntity
  8
0
  6
Continuous
 62
     0
100
AcDbLine
 10
110.084691
 20
124.902114
 30
0.0
 11
114.448965
 21
129.266388
 31
0.0
  0
LINE
  5
168
330
101
100
AcDbEntity
  8
0
  6
Continuous
 62
     0
100
AcDbLine
 10
110.227977
 20
124.820894
 30
0.0
 11
114.60895
 21
129.201866
 31
0.0
  0
LINE
  5
169
330
101
100
AcDbEntity
  8
0
  6
Continuous
 62
     0
100
AcDbLine
 10
110.381616
 20
124.750025
 30
0.0
 11
114.768934
 21
129.137344
 31
0.0
  0
LINE
  5
16A
330
101
100
AcDbEntity
  8
0
  6
Continuous
 62
     0
100
AcDbLine
 10
110.546632
 20
124.690536
 30
0.0
 11
114.928919
 21
129.072822
 31
0.0
  0
LINE
  5
16B
330
101
100
AcDbEntity
  8
0
  6
Continuous
 62
     0
100
AcDbLine
 10
110.724544
 20
124.643941
 30
0.0
 11
115.088903
 21
129.0083
 31
0.0
  0
LINE
  5
16C
330
101
100
AcDbEntity
  8
0
  6
Continuous
 62
     0
100
AcDbLine
 10
110.917647
 20
124.612537
 30
0.0
 11
115.248888
 21
128.943778
 31
0.0
  0
LINE
  5
16D
330
101
100
AcDbEntity
  8
0
  6
Continuous
 62
     0
100
AcDbLine
 10
111.129594
 20
124.599978
 30
0.0
 11
115.408872
 21
128.879256
 31
0.0
  0
LINE
  5
16E
330
101
100
AcDbEntity
  8
0
  6
Continuous
 62
     0
100
AcDbLine
 10
111.354064
 20
124.599941
 30
0.0
 11
115.568857
 21
128.814734
 31
0.0
  0
LINE
  5
16F
330
101
100
AcDbEntity
  8
0
  6
Continuous
 62
     0
100
AcDbLine
 10
111.57857
 20
124.599941
 30
0.0
 11
115.728841
 21
128.750212
 31
0.0
  0
LINE
  5
170
330
101
100
AcDbEntity
  8
0
  6
Continuous
 62
     0
100
AcDbLine
 10
111.803076
 20
124.599941
 30
0.0
 11
115.888826
 21
128.685691
 31
0.0
  0
LINE
  5
171
330
101
100
AcDbEntity
  8
0
  6
Continuous
 62
     0
100
AcDbLine
 10
112.027583
 20
124.599941
 30
0.0
 11
116.04881
 21
128.621169
 31
0.0
  0
LINE
  5
172
330
101
100
AcDbEntity
  8
0
  6
Continuous
 62
     0
100
AcDbLine
 10
112.252089
 20
124.599941
 30
0.0
 11
116.208795
 21
128.556647
 31
0.0
  0
LINE
  5
173
330
101
100
AcDbEntity
  8
0
  6
Continuous
 62
     0
100
AcDbLine
 10
112.476596
 20
124.599941
 30
0.0
 11
116.368779
 21
128.492125
 31
0.0
  0
LINE
  5
174
330
101
100
AcDbEntity
  8
0
  6
Continuous
 62
     0
100
AcDbLine
 10
112.701102
 20
124.599941
 30
0.0
 11
116.528764
 21
128.427603
 31
0.0
  0
LINE
  5
175
330
101
100
AcDbEntity
  8
0
  6
Continuous
 62
     0
100
AcDbLine
 10
112.925608
 20
124.599941
 30
0.0
 11
116.688748
 21
128.363081
 31
0.0
  0
LINE
  5
176
330
101
100
AcDbEntity
  8
0
  6
Continuous
 62
     0
100
AcDbLine
 10
113.150115
 20
124.599941
 30
0.0
 11
116.848732
 21
128.298559
 31
0.0
  0
LINE
  5
177
330
101
100
AcDbEntity
  8
0
  6
Continuous
 62
     0
100
AcDbLine
 10
113.374621
 20
124.599941
 30
0.0
 11
117.008717
 21
128.234037
 31
0.0
  0
LINE
  5
178
330
101
100
AcDbEntity
  8
0
  6
Continuous
 62
     0
100
AcDbLine
 10
113.599128
 20
124.599941
 30
0.0
 11
117.168701
 21
128.169515
 31
0.0
  0
LINE
  5
179
330
101
100
AcDbEntity
  8
0
  6
Continuous
 62
     0
100
AcDbLine
 10
113.823634
 20
124.599941
 30
0.0
 11
117.328686
 21
128.104993
 31
0.0
  0
LINE
  5
17A
330
101
100
AcDbEntity
  8
0
  6
Continuous
 62
     0
100
AcDbLine
 10
114.04814
 20
124.599941
 30
0.0
 11
117.48867
 21
128.040471
 31
0.0
  0
LINE
  5
17B
330
101
100
AcDbEntity
  8
0
  6
Continuous
 62
     0
100
AcDbLine
 10
114.272647
 20
124.599941
 30
0.0
 11
117.648655
 21
127.975949
 31
0.0
  0
LINE
  5
17C
330
101
100
AcDbEntity
  8
0
  6
Continuous
 62
     0
100
AcDbLine
 10
114.497153
 20
124.599941
 30
0.0
 11
117.808639
 21
127.911428
 31
0.0
  0
LINE
  5
17D
330
101
100
AcDbEntity
  8
0
  6
Continuous
 62
     0
100
AcDbLine
 10
114.72166
 20
124.599941
 30
0.0
 11
117.968624
 21
127.846906
 31
0.0
  0
LINE
  5
17E
330
101
100
AcDbEntity
  8
0
  6
Continuous
 62
     0
100
AcDbLine
 10
114.946166
 20
124.599941
 30
0.0
 11
118.128608
 21
127.782384
 31
0.0
  0
LINE
  5
17F
330
101
100
AcDbEntity
  8
0
  6
Continuous
 62
     0
100
AcDbLine
 10
115.170672
 20
124.599941
 30
0.0
 11
118.288593
 21
127.717862
 31
0.0
  0
LINE
  5
180
330
101
100
AcDbEntity
  8
0
  6
Continuous
 62
     0
100
AcDbLine
 10
115.395179
 20
124.599941
 30
0.0
 11
118.448577
 21
127.65334
 31
0.0
  0
LINE
  5
181
330
101
100
AcDbEntity
  8
0
  6
Continuous
 62
     0
100
AcDbLine
 10
115.619685
 20
124.599941
 30
0.0
 11
118.608562
 21
127.588818
 31
0.0
  0
LINE
  5
182
330
101
100
AcDbEntity
  8
0
  6
Continuous
 62
     0
100
AcDbLine
 10
115.844192
 20
124.599941
 30
0.0
 11
118.768546
 21
127.524296
 31
0.0
  0
LINE
  5
183
330
101
100
AcDbEntity
  8
0
  6
Continuous
 62
     0
100
AcDbLine
 10
116.068698
 20
124.599941
 30
0.0
 11
118.867614
 21
127.398857
 31
0.0
  0
LINE
  5
184
330
101
100
AcDbEntity
  8
0
  6
Continuous
 62
     0
100
AcDbLine
 10
116.293204
 20
124.599941
 30
0.0
 11
118.867614
 21
127.174351
 31
0.0
  0
LINE
  5
185
330
101
100
AcDbEntity
  8
0
  6
Continuous
 62
     0
100
AcDbLine
 10
116.517711
 20
124.599941
 30
0.0
 11
118.867614
 21
126.949845
 31
0.0
  0
LINE
  5
186
330
101
100
AcDbEntity
  8
0
  6
Continuous
 62
     0
100
AcDbLine
 10
116.742217
 20
124.599941
 30
0.0
 11
118.867614
 21
126.725338
 31
0.0
  0
LINE
  5
187
330
101
100
AcDbEntity
  8
0
  6
Continuous
 62
     0
100
AcDbLine
 10
116.966724
 20
124.599941
 30
0.0
 11
118.867614
 21
126.500832
 31
0.0
  0
LINE
  5
188
330
101
100
AcDbEntity
  8
0
  6
Continuous
 62
     0
100
AcDbLine
 10
117.19123
 20
124.599941
 30
0.0
 11
118.867614
 21
126.276325
 31
0.0
  0
LINE
  5
189
330
101
100
AcDbEntity
  8
0
  6
Continuous
 62
     0
100
AcDbLine
 10
117.415736
 20
124.599941
 30
0.0
 11
118.867614
 21
126.051819
 31
0.0
  0
LINE
  5
18A
330
101
100
AcDbEntity
  8
0
  6
Continuous
 62
     0
100
AcDbLine
 10
117.640243
 20
124.599941
 30
0.0
 11
118.867614
 21
125.827313
 31
0.0
  0
LINE
  5
18B
330
101
100
AcDbEntity
  8
0
  6
Continuous
 62
     0
100
AcDbLine
 10
117.864749
 20
124.599941
 30
0.0
 11
118.867614
 21
125.602806
 31
0.0
  0
LINE
  5
18C
330
101
100
AcDbEntity
  8
0
  6
Continuous
 62
     0
100
AcDbLine
 10
118.089256
 20
124.599941
 30
0.0
 11
118.867614
 21
125.3783
 31
0.0
  0
LINE
  5
18D
330
101
100
AcDbEntity
  8
0
  6
Continuous
 62
     0
100
AcDbLine
 10
118.313762
 20
124.599941
 30
0.0
 11
118.867614
 21
125.153793
 31
0.0
  0
ENDBLK
  5
18F
330
101
100
AcDbEntity
  8
0
100
AcDbBlockEnd
  0
ENDSEC
  0
SECTION
  2
ENTITIES
  0
LINE
  5
62
330
1F
100
AcDbEntity
  8
DISEGNO
  6
Continuous
 62
     7
100
AcDbLine
 10
88.867614
 20
125.099941
 30
0.0
 11
88.867614
 21
157.599941
 31
0.0
  0
LINE
  5
63
330
1F
100
AcDbEntity
  8
DISEGNO
  6
Continuous
 62
     7
100
AcDbLine
 10
118.867614
 20
239.099941
 30
0.0
 11
118.867614
 21
125.099941
 31
0.0
  0
LINE
  5
64
330
1F
100
AcDbEntity
  8
DISEGNO
  6
Continuous
 62
     7
100
AcDbLine
 10
96.593474
 20
124.599941
 30
0.0
 11
89.367614
 21
124.599941
 31
0.0
  0
LINE
  5
65
330
1F
100
AcDbEntity
  8
DISEGNO
  6
Continuous
 62
     7
100
AcDbLine
 10
89.367614
 20
124.599941
 30
0.0
 11
88.867614
 21
125.099941
 31
0.0
  0
LINE
  5
66
330
1F
100
AcDbEntity
  8
DISEGNO
  6
Continuous
 62
     7
100
AcDbLine
 10
118.367614
 20
124.599941
 30
0.0
 11
111.141755
 21
124.599941
 31
0.0
  0
LINE
  5
67
330
1F
100
AcDbEntity
  8
DISEGNO
  6
Continuous
 62
     7
100
AcDbLine
 10
118.867614
 20
125.099941
 30
0.0
 11
118.367614
 21
124.599941
 31
0.0
  0
LINE
  5
68
330
1F
100
AcDbEntity
  8
DISEGNO
  6
Continuous
 62
     7
100
AcDbLine
 10
88.867614
 20
161.599941
 30
0.0
 11
88.867614
 21
239.099941
 31
0.0
  0
LINE
  5
69
330
1F
100
AcDbEntity
  8
DISEGNO
  6
Continuous
 62
     7
100
AcDbLine
 10
90.867614
 20
159.599941
 30
0.0
 11
88.867614
 21
157.599941
 31
0.0
  0
LINE
  5
6A
330
1F
100
AcDbEntity
  8
DISEGNO
  6
Continuous
 62
     7
100
AcDbLine
 10
90.867614
 20
159.599941
 30
0.0
 11
88.867614
 21
161.599941
 31
0.0
  0
LINE
  5
6B
330
1F
100
AcDbEntity
  8
DISEGNO
  6
Continuous
 62
     7
100
AcDbLine
 10
89.367614
 20
239.599941
 30
0.0
 11
91.593474
 21
239.599941
 31
0.0
  0
LINE
  5
6C
330
1F
100
AcDbEntity
  8
DISEGNO
  6
Continuous
 62
     7
100
AcDbLine
 10
88.867614
 20
239.099941
 30
0.0
 11
89.367614
 21
239.599941
 31
0.0
  0
LINE
  5
6D
330
1F
100
AcDbEntity
  8
DISEGNO
  6
Continuous
 62
     7
100
AcDbLine
 10
116.141755
 20
239.599941
 30
0.0
 11
118.367614
 21
239.599941
 31
0.0
  0
LINE
  5
6E
330
1F
100
AcDbEntity
  8
DISEGNO
  6
Continuous
 62
     7
100
AcDbLine
 10
118.867614
 20
239.099941
 30
0.0
 11
118.367614
 21
239.599941
 31
0.0
  0
LINE
  5
6F
330
1F
100
AcDbEntity
  8
DISEGNO
  6
Continuous
 62
     7
100
AcDbLine
 10
114.329139
 20
238.445178
 30
0.0
 11
105.68023
 21
219.897532
 31
0.0
  0
LINE
  5
70
330
1F
100
AcDbEntity
  8
DISEGNO
  6
Continuous
 62
     7
100
AcDbLine
 10
93.406089
 20
238.445178
 30
0.0
 11
102.054999
 21
219.897532
 31
0.0
  0
LINE
  5
71
330
1F
100
AcDbEntity
  8
DISEGNO
  6
Continuous
 62
     7
100
AcDbLine
 10
109.329139
 20
125.754705
 30
0.0
 11
105.227076
 21
134.551608
 31
0.0
  0
LINE
  5
72
330
1F
100
AcDbEntity
  8
DISEGNO
  6
Continuous
 62
     7
100
AcDbLine
 10
98.406089
 20
125.754705
 30
0.0
 11
102.508152
 21
134.551608
 31
0.0
  0
ARC
  5
73
330
1F
100
AcDbEntity
  8
DISEGNO
  6
Continuous
 62
     7
100
AcDbCircle
 10
103.867614
 20
133.917681
 30
0.0
 40
1.5
100
AcDbArc
 50
25.0
 51
155.0
  0
ARC
  5
74
330
1F
100
AcDbEntity
  8
DISEGNO
  6
Continuous
 62
     7
100
AcDbCircle
 10
103.867614
 20
220.742768
 30
0.0
 40
2.0
100
AcDbArc
 50
205.0
 51
335.0
  0
ARC
  5
75
330
1F
100
AcDbEntity
  8
DISEGNO
  6
Continuous
 62
     7
100
AcDbCircle
 10
96.593474
 20
126.599941
 30
0.0
 40
2.0
100
AcDbArc
 50
270.0
 51
335.0
  0
ARC
  5
76
330
1F
100
AcDbEntity
  8
DISEGNO
  6
Continuous
 62
     7
100
AcDbCircle
 10
111.141755
 20
126.599941
 30
0.0
 40
2.0
100
AcDbArc
 50
205.0
 51
270.0
  0
ARC
  5
77
330
1F
100
AcDbEntity
  8
DISEGNO
  6
Continuous
 62
     7
100
AcDbCircle
 10
116.141755
 20
237.599941
 30
0.0
 40
2.0
100
AcDbArc
 50
90.0
 51
155.0
  0
ARC
  5
78
330
1F
100
AcDbEntity
  8
DISEGNO
  6
Continuous
 62
     7
100
AcDbCircle
 10
91.593474
 20
237.599941
 30
0.0
 40
2.0
100
AcDbArc
 50
25.0
 51
90.0
  0
LINE
  5
79
330
1F
100
AcDbEntity
  8
TEMPRA
  6
Continuous
 62
     2
100
AcDbLine
 10
88.867614
 20
235.1464
 30
0.0
 11
98.319743
 21
227.907812
 31
0.0
  0
LINE
  5
7A
330
1F
100
AcDbEntity
  8
TEMPRA
  6
Continuous
 62
     2
100
AcDbLine
 10
118.867614
 20
235.1464
 30
0.0
 11
108.781365
 21
226.547938
 31
0.0
  0
LINE
  5
7B
330
1F
100
AcDbEntity
  8
TEMPRA
  6
Continuous
 62
     2
100
AcDbLine
 10
88.867614
 20
127.181585
 30
0.0
 11
101.440047
 21
132.261048
 31
0.0
  0
LINE
  5
7C
330
1F
100
AcDbEntity
  8
TEMPRA
  6
Continuous
 62
     2
100
AcDbLine
 10
118.867614
 20
127.484342
 30
0.0
 11
106.126465
 21
132.622862
 31
0.0
  0
INSERT
  5
100
330
1F
100
AcDbEntity
  8
TEMPRA
  6
Continuous
 62
     2
100
AcDbBlockReference
  2
.X_1
 10
0.0
 20
0.0
 30
0.0
  0
INSERT
  5
190
330
1F
100
AcDbEntity
  8
TEMPRA
  6
Continuous
 62
     2
100
AcDbBlockReference
  2
.X_2
 10
0.0
 20
0.0
 30
0.0
  0
ENDSEC
  0
SECTION
  2
OBJECTS
  0
DICTIONARY
  5
C
330
0
100
AcDbDictionary
281
     1
  3
ACAD_GROUP
350
D
  3
ACAD_LAYOUT
350
1A
  3
ACAD_MLINESTYLE
350
17
  3
ACAD_PLOTSETTINGS
350
19
  3
ACAD_PLOTSTYLENAME
350
E
  3
ACAD_TABLESTYLE
350
191
  3
ACAD_VISUALSTYLE
350
2A
  0
DICTIONARY
  5
D
102
{ACAD_REACTORS
330
C
102
}
330
C
100
AcDbDictionary
281
     1
  0
DICTIONARY
  5
1A
102
{ACAD_REACTORS
330
C
102
}
330
C
100
AcDbDictionary
281
     1
  3
Layout1
350
1E
  3
Layout2
350
26
  3
Model
350
22
  0
DICTIONARY
  5
17
102
{ACAD_REACTORS
330
C
102
}
330
C
100
AcDbDictionary
281
     1
  3
Standard
350
18
  0
DICTIONARY
  5
19
102
{ACAD_REACTORS
330
C
102
}
330
C
100
AcDbDictionary
281
     1
  0
ACDBDICTIONARYWDFLT
  5
E
102
{ACAD_REACTORS
330
C
102
}
330
C
100
AcDbDictionary
281
     1
  3
Normal
350
F
100
AcDbDictionaryWithDefault
340
F
  0
DICTIONARY
  5
191
102
{ACAD_REACTORS
330
C
102
}
330
C
100
AcDbDictionary
281
     1
  0
DICTIONARY
  5
2A
102
{ACAD_REACTORS
330
C
102
}
330
C
100
AcDbDictionary
281
     1
  3
2dWireframe
350
2F
  3
3D Hidden
350
31
  3
3dWireframe
350
30
  3
Basic
350
32
  3
Brighten
350
36
  3
ColorChange
350
3A
  3
Conceptual
350
34
  3
Dim
350
35
  3
Facepattern
350
39
  3
Flat
350
2B
  3
FlatWithEdges
350
2C
  3
Gouraud
350
2D
  3
GouraudWithEdges
350
2E
  3
Linepattern
350
38
  3
Realistic
350
33
  3
Thicken
350
37
  0
LAYOUT
  5
1E
102
{ACAD_REACTORS
330
1A
102
}
330
1A
100
AcDbPlotSettings
  1

  2
none_device
  4

  6

 40
0.0
 41
0.0
 42
0.0
 43
0.0
 44
0.0
 45
0.0
 46
0.0
 47
0.0
 48
0.0
 49
0.0
140
0.0
141
0.0
142
1.0
143
1.0
 70
   688
 72
     0
 73
     0
 74
     5
  7

 75
    16
 76
     0
 77
     2
 78
   300
147
1.0
148
0.0
149
0.0
100
AcDbLayout
  1
Layout1
 70
     1
 71
     1
 10
0.0
 20
0.0
 11
420.0
 21
297.0
 12
0.0
 22
0.0
 32
0.0
 14
1.000000E+20
 24
1.000000E+20
 34
1.000000E+20
 15
-1.000000E+20
 25
-1.000000E+20
 35
-1.000000E+20
146
0.0
 13
0.0
 23
0.0
 33
0.0
 16
1.0
 26
0.0
 36
0.0
 17
0.0
 27
1.0
 37
0.0
 76
     0
330
1B
  0
LAYOUT
  5
26
102
{ACAD_REACTORS
330
1A
102
}
330
1A
100
AcDbPlotSettings
  1

  2
none_device
  4

  6

 40
0.0
 41
0.0
 42
0.0
 43
0.0
 44
0.0
 45
0.0
 46
0.0
 47
0.0
 48
0.0
 49
0.0
140
0.0
141
0.0
142
1.0
143
1.0
 70
   688
 72
     0
 73
     0
 74
     5
  7

 75
    16
 76
     0
 77
     2
 78
   300
147
1.0
148
0.0
149
0.0
100
AcDbLayout
  1
Layout2
 70
     1
 71
     2
 10
0.0
 20
0.0
 11
0.0
 21
0.0
 12
0.0
 22
0.0
 32
0.0
 14
0.0
 24
0.0
 34
0.0
 15
0.0
 25
0.0
 35
0.0
146
0.0
 13
0.0
 23
0.0
 33
0.0
 16
1.0
 26
0.0
 36
0.0
 17
0.0
 27
1.0
 37
0.0
 76
     0
330
23
  0
LAYOUT
  5
22
102
{ACAD_REACTORS
330
1A
102
}
330
1A
100
AcDbPlotSettings
  1

  2
none_device
  4

  6

 40
0.0
 41
0.0
 42
0.0
 43
0.0
 44
0.0
 45
0.0
 46
0.0
 47
0.0
 48
0.0
 49
0.0
140
0.0
141
0.0
142
1.0
143
1.0
 70
  1712
 72
     0
 73
     0
 74
     0
  7

 75
     0
 76
     0
 77
     2
 78
   300
147
1.0
148
0.0
149
0.0
100
AcDbLayout
  1
Model
 70
     1
 71
     0
 10
0.0
 20
0.0
 11
420.0
 21
297.0
 12
0.0
 22
0.0
 32
0.0
 14
1.000000E+20
 24
1.000000E+20
 34
1.000000E+20
 15
-1.000000E+20
 25
-1.000000E+20
 35
-1.000000E+20
146
0.0
 13
0.0
 23
0.0
 33
0.0
 16
1.0
 26
0.0
 36
0.0
 17
0.0
 27
1.0
 37
0.0
 76
     0
330
1F
331
29
  0
MLINESTYLE
  5
18
102
{ACAD_REACTORS
330
17
102
}
330
17
100
AcDbMlineStyle
  2
Standard
 70
     0
  3

 62
   256
 51
90.0
 52
90.0
 71
     2
 49
0.5
 62
   256
  6
BYLAYER
 49
-0.5
 62
   256
  6
BYLAYER
  0
ACDBPLACEHOLDER
  5
F
102
{ACAD_REACTORS
330
E
102
}
330
E
  0
VISUALSTYLE
  5
2F
102
{ACAD_REACTORS
330
2A
102
}
330
2A
100
AcDbVisualStyle
  2
2dWireframe
 70
     4
 71
     0
 72
     2
 73
     0
 90
        0
 40
-0.6
 41
-30.0
 62
     5
 63
     7
421
 16777215
 74
     1
 91
        4
 64
     7
 65
   257
 75
     1
175
     1
 42
1.0
 92
        0
 66
   257
 43
1.0
 76
     1
 77
     6
 78
     2
 67
     7
 79
     5
170
     0
171
     0
290
     0
174
     0
 93
        1
 44
0.0
173
     0
291
     0
 45
0.0
1001
ACAD
1000
AcDbSavedByObjectVersion
1070
     0
  0
VISUALSTYLE
  5
31
102
{ACAD_REACTORS
330
2A
102
}
330
2A
100
AcDbVisualStyle
  2
3D Hidden
 70
     6
 71
     1
 72
     2
 73
     2
 90
        0
 40
-0.6
 41
-30.0
 62
     5
 63
     7
421
 16777215
 74
     2
 91
        2
 64
     7
 65
   257
 75
     2
175
     1
 42
40.0
 92
        0
 66
   257
 43
1.0
 76
     1
 77
     6
 78
     2
 67
     7
 79
     3
170
     0
171
     0
290
     0
174
     0
 93
        1
 44
0.0
173
     0
291
     0
 45
0.0
1001
ACAD
1000
AcDbSavedByObjectVersion
1070
     0
  0
VISUALSTYLE
  5
30
102
{ACAD_REACTORS
330
2A
102
}
330
2A
100
AcDbVisualStyle
  2
3dWireframe
 70
     5
 71
     0
 72
     2
 73
     0
 90
        0
 40
-0.6
 41
-30.0
 62
     5
 63
     7
421
 16777215
 74
     1
 91
        4
 64
     7
 65
   257
 75
     1
175
     1
 42
1.0
 92
        0
 66
   257
 43
1.0
 76
     1
 77
     6
 78
     2
 67
     7
 79
     5
170
     0
171
     0
290
     0
174
     0
 93
        1
 44
0.0
173
     0
291
     0
 45
0.0
1001
ACAD
1000
AcDbSavedByObjectVersion
1070
     0
  0
VISUALSTYLE
  5
32
102
{ACAD_REACTORS
330
2A
102
}
330
2A
100
AcDbVisualStyle
  2
Basic
 70
     7
 71
     1
 72
     0
 73
     1
 90
        0
 40
-0.6
 41
-30.0
 62
     5
 63
     7
421
 16777215
 74
     0
 91
        4
 64
     7
 65
   257
 75
     1
175
     1
 42
1.0
 92
        8
 66
     7
 43
1.0
 76
     1
 77
     6
 78
     2
 67
     7
 79
     5
170
     0
171
     0
290
     0
174
     0
 93
        1
 44
0.0
173
     0
291
     1
 45
0.0
1001
ACAD
1000
AcDbSavedByObjectVersion
1070
     0
  0
VISUALSTYLE
  5
36
102
{ACAD_REACTORS
330
2A
102
}
330
2A
100
AcDbVisualStyle
  2
Brighten
 70
    12
 71
     2
 72
     2
 73
     0
 90
        0
 40
-0.6
 41
-30.0
 62
     5
 63
     7
421
 16777215
 74
     1
 91
        4
 64
     7
 65
   257
 75
     1
175
     1
 42
1.0
 92
        8
 66
     7
 43
1.0
 76
     1
 77
     6
 78
     2
 67
     7
 79
     5
170
     0
171
     0
290
     0
174
     0
 93
        1
 44
50.0
173
     0
291
     1
 45
0.0
1001
ACAD
1000
AcDbSavedByObjectVersion
1070
     0
  0
VISUALSTYLE
  5
3A
102
{ACAD_REACTORS
330
2A
102
}
330
2A
100
AcDbVisualStyle
  2
ColorChange
 70
    16
 71
     2
 72
     2
 73
     3
 90
        0
 40
-0.6
 41
-30.0
 62
     5
 63
     8
421
  8421504
 74
     1
 91
        4
 64
     7
 65
   257
 75
     1
175
     1
 42
1.0
 92
        8
 66
     8
424
  8421504
 43
1.0
 76
     1
 77
     6
 78
     2
 67
     7
 79
     5
170
     0
171
     0
290
     0
174
     0
 93
        1
 44
0.0
173
     0
291
     1
 45
0.0
1001
ACAD
1000
AcDbSavedByObjectVersion
1070
     0
  0
VISUALSTYLE
  5
34
102
{ACAD_REACTORS
330
2A
102
}
330
2A
100
AcDbVisualStyle
  2
Conceptual
 70
     9
 71
     3
 72
     2
 73
     0
 90
        0
 40
-0.6
 41
-30.0
 62
     5
 63
     7
421
 16777215
 74
     2
 91
        2
 64
     7
 65
   257
 75
     1
175
     1
 42
40.0
 92
        8
 66
     7
 43
1.0
 76
     1
 77
     6
 78
     2
 67
     7
 79
     3
170
     0
171
     0
290
     0
174
     0
 93
        1
 44
0.0
173
     0
291
     0
 45
0.0
1001
ACAD
1000
AcDbSavedByObjectVersion
1070
     0
  0
VISUALSTYLE
  5
35
102
{ACAD_REACTORS
330
2A
102
}
330
2A
100
AcDbVisualStyle
  2
Dim
 70
    11
 71
     2
 72
     2
 73
     0
 90
        0
 40
-0.6
 41
-30.0
 62
     5
 63
     7
421
 16777215
 74
     1
 91
        4
 64
     7
 65
   257
 75
     1
175
     1
 42
1.0
 92
        8
 66
     7
 43
1.0
 76
     1
 77
     6
 78
     2
 67
     7
 79
     5
170
     0
171
     0
290
     0
174
     0
 93
        1
 44
-50.0
173
     0
291
     1
 45
0.0
1001
ACAD
1000
AcDbSavedByObjectVersion
1070
     0
  0
VISUALSTYLE
  5
39
102
{ACAD_REACTORS
330
2A
102
}
330
2A
100
AcDbVisualStyle
  2
Facepattern
 70
    15
 71
     2
 72
     2
 73
     0
 90
        0
 40
-0.6
 41
-30.0
 62
     5
 63
     7
421
 16777215
 74
     1
 91
        4
 64
     7
 65
   257
 75
     1
175
     1
 42
1.0
 92
        8
 66
     7
 43
1.0
 76
     1
 77
     6
 78
     2
 67
     7
 79
     5
170
     0
171
     0
290
     0
174
     0
 93
        1
 44
0.0
173
     0
291
     1
 45
0.0
1001
ACAD
1000
AcDbSavedByObjectVersion
1070
     0
  0
VISUALSTYLE
  5
2B
102
{ACAD_REACTORS
330
2A
102
}
330
2A
100
AcDbVisualStyle
  2
Flat
 70
     0
 71
     2
 72
     1
 73
     1
 90
        2
 40
-0.6
 41
30.0
 62
     5
 63
     7
421
 16777215
 74
     0
 91
        4
 64
     7
 65
   257
 75
     1
175
     1
 42
1.0
 92
        8
 66
     7
 43
1.0
 76
     1
 77
     6
 78
     2
 67
     7
 79
     5
170
     0
171
     0
290
     0
174
     0
 93
       13
 44
0.0
173
     0
291
     1
 45
0.0
1001
ACAD
1000
AcDbSavedByObjectVersion
1070
     0
  0
VISUALSTYLE
  5
2C
102
{ACAD_REACTORS
330
2A
102
}
330
2A
100
AcDbVisualStyle
  2
FlatWithEdges
 70
     1
 71
     2
 72
     1
 73
     1
 90
        2
 40
-0.6
 41
30.0
 62
     5
 63
     7
421
 16777215
 74
     1
 91
        4
 64
     7
 65
   257
 75
     1
175
     1
 42
1.0
 92
        0
 66
   257
 43
1.0
 76
     1
 77
     6
 78
     2
 67
     7
 79
     5
170
     0
171
     0
290
     0
174
     0
 93
       13
 44
0.0
173
     0
291
     1
 45
0.0
1001
ACAD
1000
AcDbSavedByObjectVersion
1070
     0
  0
VISUALSTYLE
  5
2D
102
{ACAD_REACTORS
330
2A
102
}
330
2A
100
AcDbVisualStyle
  2
Gouraud
 70
     2
 71
     2
 72
     2
 73
     1
 90
        2
 40
-0.6
 41
30.0
 62
     5
 63
     7
421
 16777215
 74
     0
 91
        4
 64
     7
 65
   257
 75
     1
175
     1
 42
1.0
 92
        0
 66
     7
 43
1.0
 76
     1
 77
     6
 78
     2
 67
     7
 79
     5
170
     0
171
     0
290
     0
174
     0
 93
       13
 44
0.0
173
     0
291
     1
 45
0.0
1001
ACAD
1000
AcDbSavedByObjectVersion
1070
     0
  0
VISUALSTYLE
  5
2E
102
{ACAD_REACTORS
330
2A
102
}
330
2A
100
AcDbVisualStyle
  2
GouraudWithEdges
 70
     3
 71
     2
 72
     2
 73
     1
 90
        2
 40
-0.6
 41
30.0
 62
     5
 63
     7
421
 16777215
 74
     1
 91
        4
 64
     7
 65
   257
 75
     1
175
     1
 42
1.0
 92
        0
 66
   257
 43
1.0
 76
     1
 77
     6
 78
     2
 67
     7
 79
     5
170
     0
171
     0
290
     0
174
     0
 93
       13
 44
0.0
173
     0
291
     1
 45
0.0
1001
ACAD
1000
AcDbSavedByObjectVersion
1070
     0
  0
VISUALSTYLE
  5
38
102
{ACAD_REACTORS
330
2A
102
}
330
2A
100
AcDbVisualStyle
  2
Linepattern
 70
    14
 71
     2
 72
     2
 73
     0
 90
        0
 40
-0.6
 41
-30.0
 62
     5
 63
     7
421
 16777215
 74
     1
 91
        4
 64
     7
 65
   257
 75
     7
175
     7
 42
1.0
 92
        8
 66
     7
 43
1.0
 76
     1
 77
     6
 78
     2
 67
     7
 79
     5
170
     0
171
     0
290
     0
174
     0
 93
        1
 44
0.0
173
     0
291
     1
 45
0.0
1001
ACAD
1000
AcDbSavedByObjectVersion
1070
     0
  0
VISUALSTYLE
  5
33
102
{ACAD_REACTORS
330
2A
102
}
330
2A
100
AcDbVisualStyle
  2
Realistic
 70
     8
 71
     2
 72
     2
 73
     0
 90
        0
 40
-0.6
 41
-30.0
 62
     5
 63
     7
421
 16777215
 74
     1
 91
        0
 64
     7
 65
   257
 75
     1
175
     1
 42
1.0
 92
        8
 66
     8
424
  7895160
 43
1.0
 76
     1
 77
     6
 78
     2
 67
     7
 79
     5
170
     0
171
     0
290
     0
174
     0
 93
       13
 44
0.0
173
     0
291
     0
 45
0.0
1001
ACAD
1000
AcDbSavedByObjectVersion
1070
     0
  0
VISUALSTYLE
  5
37
102
{ACAD_REACTORS
330
2A
102
}
330
2A
100
AcDbVisualStyle
  2
Thicken
 70
    13
 71
     2
 72
     2
 73
     0
 90
        0
 40
-0.6
 41
-30.0
 62
     5
 63
     7
421
 16777215
 74
     1
 91
        4
 64
     7
 65
   257
 75
     1
175
     1
 42
1.0
 92
       12
 66
     7
 43
1.0
 76
     1
 77
     6
 78
     2
 67
     7
 79
     5
170
     0
171
     0
290
     0
174
     0
 93
        1
 44
0.0
173
     0
291
     1
 45
0.0
1001
ACAD
1000
AcDbSavedByObjectVersion
1070
     0
  0
ENDSEC
  0
EOF
