  0
SECTION
  2
HEADER
  9
$ACADVER
  1
AC1012
  9
$DWGCODEPAGE
  3
iso8859-1
  9
$INSBASE
 10
0.0
 20
0.0
 30
0.0
  9
$EXTMIN
 10
6.84992
 20
5.0
 30
0.0
  9
$EXTMAX
 10
202.0
 20
288.0
 30
0.0
  9
$LIMMIN
 10
0.0
 20
0.0
  9
$LIMMAX
 10
210.0
 20
297.0
  9
$ORTHOMODE
 70
     0
  9
$REGENMODE
 70
     1
  9
$FILLMODE
 70
     1
  9
$QTEXTMODE
 70
     0
  9
$MIRRTEXT
 70
     1
  9
$DRAGMODE
 70
     2
  9
$LTSCALE
 40
1.0
  9
$OSMODE
 70
     0
  9
$ATTMODE
 70
     1
  9
$TEXTSIZE
 40
3.0
  9
$TRACEWID
 40
0.05
  9
$TEXTSTYLE
  7
STANDARD
  9
$CLAYER
  8
QUOTE
  9
$CELTYPE
  6
BYLAYER
  9
$CECOLOR
 62
   256
  9
$CELTSCALE
 40
1.0
  9
$DELOBJ
 70
     1
  9
$DISPSILH
 70
     0
  9
$DIMSCALE
 40
1.0
  9
$DIMASZ
 40
2.5
  9
$DIMEXO
 40
0.625
  9
$DIMDLI
 40
3.75
  9
$DIMRND
 40
0.0
  9
$DIMDLE
 40
0.0
  9
$DIMEXE
 40
1.25
  9
$DIMTP
 40
0.0
  9
$DIMTM
 40
0.0
  9
$DIMTXT
 40
3.0
  9
$DIMCEN
 40
2.5
  9
$DIMTSZ
 40
0.0
  9
$DIMTOL
 70
     0
  9
$DIMLIM
 70
     0
  9
$DIMTIH
 70
     0
  9
$DIMTOH
 70
     0
  9
$DIMSE1
 70
     0
  9
$DIMSE2
 70
     0
  9
$DIMTAD
 70
     1
  9
$DIMZIN
 70
     8
  9
$DIMBLK
  1

  9
$DIMASO
 70
     1
  9
$DIMSHO
 70
     1
  9
$DIMPOST
  1

  9
$DIMAPOST
  1

  9
$DIMALT
 70
     0
  9
$DIMALTD
 70
     2
  9
$DIMALTF
 40
0.03937
  9
$DIMLFAC
 40
1.0
  9
$DIMTOFL
 70
     0
  9
$DIMTVP
 40
0.0
  9
$DIMTIX
 70
     0
  9
$DIMSOXD
 70
     0
  9
$DIMSAH
 70
     0
  9
$DIMBLK1
  1

  9
$DIMBLK2
  1

  9
$DIMSTYLE
  2
STANDARD
  9
$DIMCLRD
 70
     0
  9
$DIMCLRE
 70
     0
  9
$DIMCLRT
 70
     0
  9
$DIMTFAC
 40
1.0
  9
$DIMGAP
 40
0.625
  9
$DIMJUST
 70
     0
  9
$DIMSD1
 70
     0
  9
$DIMSD2
 70
     0
  9
$DIMTOLJ
 70
     1
  9
$DIMTZIN
 70
     8
  9
$DIMALTZ
 70
     0
  9
$DIMALTTZ
 70
     0
  9
$DIMFIT
 70
     3
  9
$DIMUPT
 70
     0
  9
$DIMUNIT
 70
     2
  9
$DIMDEC
 70
     2
  9
$DIMTDEC
 70
     2
  9
$DIMALTU
 70
     2
  9
$DIMALTTD
 70
     2
  9
$DIMTXSTY
  7
STANDARD
  9
$DIMAUNIT
 70
     0
  9
$LUNITS
 70
     2
  9
$LUPREC
 70
     4
  9
$SKETCHINC
 40
0.1
  9
$FILLETRAD
 40
4.0
  9
$AUNITS
 70
     0
  9
$AUPREC
 70
     0
  9
$MENU
  1
acad
  9
$ELEVATION
 40
0.0
  9
$PELEVATION
 40
0.0
  9
$THICKNESS
 40
0.0
  9
$LIMCHECK
 70
     0
  9
$BLIPMODE
 70
     1
  9
$CHAMFERA
 40
1.0
  9
$CHAMFERB
 40
1.0
  9
$CHAMFERC
 40
20.0
  9
$CHAMFERD
 40
0.0
  9
$SKPOLY
 70
     0
  9
$TDCREATE
 40
2451703.357433333
  9
$TDUPDATE
 40
2452296.576486226
  9
$TDINDWG
 40
0.0410472222
  9
$TDUSRTIMER
 40
0.0410472222
  9
$USRTIMER
 70
     1
  9
$ANGBASE
 50
0.0
  9
$ANGDIR
 70
     0
  9
$PDMODE
 70
     0
  9
$PDSIZE
 40
0.0
  9
$PLINEWID
 40
0.0
  9
$COORDS
 70
     1
  9
$SPLFRAME
 70
     0
  9
$SPLINETYPE
 70
     6
  9
$SPLINESEGS
 70
     8
  9
$ATTDIA
 70
     0
  9
$ATTREQ
 70
     1
  9
$HANDLING
 70
     1
  9
$HANDSEED
  5
58D
  9
$SURFTAB1
 70
     6
  9
$SURFTAB2
 70
     6
  9
$SURFTYPE
 70
     6
  9
$SURFU
 70
     6
  9
$SURFV
 70
     6
  9
$UCSNAME
  2

  9
$UCSORG
 10
0.0
 20
0.0
 30
0.0
  9
$UCSXDIR
 10
1.0
 20
0.0
 30
0.0
  9
$UCSYDIR
 10
0.0
 20
1.0
 30
0.0
  9
$PUCSNAME
  2

  9
$PUCSORG
 10
0.0
 20
0.0
 30
0.0
  9
$PUCSXDIR
 10
1.0
 20
0.0
 30
0.0
  9
$PUCSYDIR
 10
0.0
 20
1.0
 30
0.0
  9
$USERI1
 70
     0
  9
$USERI2
 70
     0
  9
$USERI3
 70
     0
  9
$USERI4
 70
     0
  9
$USERI5
 70
     0
  9
$USERR1
 40
0.0
  9
$USERR2
 40
0.0
  9
$USERR3
 40
0.0
  9
$USERR4
 40
0.0
  9
$USERR5
 40
0.0
  9
$WORLDVIEW
 70
     1
  9
$SHADEDGE
 70
     3
  9
$SHADEDIF
 70
    70
  9
$TILEMODE
 70
     1
  9
$MAXACTVP
 70
    16
  9
$PINSBASE
 10
0.0
 20
0.0
 30
0.0
  9
$PLIMCHECK
 70
     0
  9
$PEXTMIN
 10
1.000000E+20
 20
1.000000E+20
 30
1.000000E+20
  9
$PEXTMAX
 10
-1.000000E+20
 20
-1.000000E+20
 30
-1.000000E+20
  9
$PLIMMIN
 10
0.0
 20
0.0
  9
$PLIMMAX
 10
12.0
 20
9.0
  9
$UNITMODE
 70
     0
  9
$VISRETAIN
 70
     0
  9
$PLINEGEN
 70
     0
  9
$PSLTSCALE
 70
     1
  9
$TREEDEPTH
 70
  3020
  9
$PICKSTYLE
 70
     1
  9
$CMLSTYLE
  2
STANDARD
  9
$CMLJUST
 70
     0
  9
$CMLSCALE
 40
20.0
  9
$SAVEIMAGES
 70
     0
  0
ENDSEC
  0
SECTION
  2
CLASSES
  0
ENDSEC
  0
SECTION
  2
TABLES
  0
TABLE
  2
VPORT
  5
8
100
AcDbSymbolTable
 70
     2
  0
VPORT
  5
58C
100
AcDbSymbolTableRecord
100
AcDbViewportTableRecord
  2
*ACTIVE
 70
     0
 10
0.0
 20
0.0
 11
1.0
 21
1.0
 12
137.532119
 22
177.313395
 13
0.0
 23
0.0
 14
10.0
 24
10.0
 15
10.0
 25
10.0
 16
0.0
 26
0.0
 36
1.0
 17
0.0
 27
0.0
 37
0.0
 40
507.546403
 41
1.650113
 42
50.0
 43
0.0
 44
0.0
 50
0.0
 51
0.0
 71
     0
 72
   100
 73
     1
 74
     0
 75
     0
 76
     0
 77
     0
 78
     0
  0
ENDTAB
  0
TABLE
  2
LTYPE
  5
5
100
AcDbSymbolTable
 70
     4
  0
LTYPE
  5
13
100
AcDbSymbolTableRecord
100
AcDbLinetypeTableRecord
  2
BYBLOCK
 70
     0
  3

 72
    65
 73
     0
 40
0.0
  0
LTYPE
  5
14
100
AcDbSymbolTableRecord
100
AcDbLinetypeTableRecord
  2
BYLAYER
 70
     0
  3

 72
    65
 73
     0
 40
0.0
  0
LTYPE
  5
15
100
AcDbSymbolTableRecord
100
AcDbLinetypeTableRecord
  2
CONTINUOUS
 70
    64
  3
Solid line
 72
    65
 73
     0
 40
0.0
  0
LTYPE
  5
94
100
AcDbSymbolTableRecord
100
AcDbLinetypeTableRecord
  2
ACAD_ISO04W100
 70
    64
  3
____ . ____ . ____ . ____ . ____ . ____ . ____ 
 72
    65
 73
     4
 40
30.5
 49
24.0
 74
     0
 49
-3.0
 74
     0
 49
0.5
 74
     0
 49
-3.0
 74
     0
  0
LTYPE
  5
225
100
AcDbSymbolTableRecord
100
AcDbLinetypeTableRecord
  2
TRATTEGGIATAX2
 70
    64
  3
____  ____  ____  ____  ____  ____  ____  ____ 
 72
    65
 73
     2
 40
1.5
 49
1.0
 74
     0
 49
-0.5
 74
     0
  0
LTYPE
  5
226
100
AcDbSymbolTableRecord
100
AcDbLinetypeTableRecord
  2
NASCOSTA
 70
    64
  3
__ __ __ __ __ __ __ __ __ __ __ __ __ __ __ __
 72
    65
 73
     2
 40
0.375
 49
0.25
 74
     0
 49
-0.125
 74
     0
  0
ENDTAB
  0
TABLE
  2
LAYER
  5
2
100
AcDbSymbolTable
 70
     9
  0
LAYER
  5
F
100
AcDbSymbolTableRecord
100
AcDbLayerTableRecord
  2
0
 70
     0
 62
     7
  6
CONTINUOUS
  0
LAYER
  5
95
100
AcDbSymbolTableRecord
100
AcDbLayerTableRecord
  2
DISEGNO
 70
    64
 62
     7
  6
CONTINUOUS
  0
LAYER
  5
96
100
AcDbSymbolTableRecord
100
AcDbLayerTableRecord
  2
ASSI
 70
    64
 62
     1
  6
ACAD_ISO04W100
  0
LAYER
  5
97
100
AcDbSymbolTableRecord
100
AcDbLayerTableRecord
  2
SEZIONE
 70
    64
 62
     3
  6
CONTINUOUS
  0
LAYER
  5
98
100
AcDbSymbolTableRecord
100
AcDbLayerTableRecord
  2
TEMPRA
 70
    64
 62
     2
  6
CONTINUOUS
  0
LAYER
  5
99
100
AcDbSymbolTableRecord
100
AcDbLayerTableRecord
  2
QUOTE
 70
    64
 62
     5
  6
CONTINUOUS
  0
LAYER
  5
9A
100
AcDbSymbolTableRecord
100
AcDbLayerTableRecord
  2
FOGLIO
 70
    64
 62
     8
  6
CONTINUOUS
  0
LAYER
  5
1A3
100
AcDbSymbolTableRecord
100
AcDbLayerTableRecord
  2
TRATTO
 70
    64
 62
     6
  6
NASCOSTA
  0
LAYER
  5
271
100
AcDbSymbolTableRecord
100
AcDbLayerTableRecord
  2
DEFPOINTS
 70
    64
 62
     7
  6
CONTINUOUS
  0
ENDTAB
  0
TABLE
  2
STYLE
  5
3
100
AcDbSymbolTable
 70
     2
  0
STYLE
  5
10
100
AcDbSymbolTableRecord
100
AcDbTextStyleTableRecord
  2
STANDARD
 70
    64
 40
0.0
 41
1.1
 50
0.0
 71
     0
 42
3.0
  3
D:\Programmi\AutoCAD LT\isocp.shx
  4

  0
STYLE
  5
B0
100
AcDbSymbolTableRecord
100
AcDbTextStyleTableRecord
  2
STYLE3
 70
    64
 40
0.0
 41
1.5
 50
0.0
 71
     0
 42
4.0
  3
C:\Programmi\AutoCAD LT\isocp3.shx
  4

  0
ENDTAB
  0
TABLE
  2
VIEW
  5
6
100
AcDbSymbolTable
 70
     0
  0
ENDTAB
  0
TABLE
  2
UCS
  5
7
100
AcDbSymbolTable
 70
     0
  0
ENDTAB
  0
TABLE
  2
APPID
  5
9
100
AcDbSymbolTable
 70
     1
  0
APPID
  5
11
100
AcDbSymbolTableRecord
100
AcDbRegAppTableRecord
  2
ACAD
 70
     0
  0
ENDTAB
  0
TABLE
  2
DIMSTYLE
  5
A
100
AcDbSymbolTable
 70
    13
  0
DIMSTYLE
105
1D
100
AcDbSymbolTableRecord
100
AcDbDimStyleTableRecord
  2
STANDARD
 70
     0
  3

  4

  5

  6

  7

 40
1.0
 41
2.5
 42
0.625
 43
3.75
 44
1.25
 45
0.0
 46
0.0
 47
0.0
 48
0.0
140
3.0
141
2.5
142
0.0
143
0.03937
144
1.0
145
0.0
146
1.0
147
0.625
 71
     0
 72
     0
 73
     0
 74
     0
 75
     0
 76
     0
 77
     1
 78
     8
170
     0
171
     2
172
     0
173
     0
174
     0
175
     0
176
     0
177
     0
178
     0
270
     2
271
     2
272
     2
273
     2
274
     2
340
10
275
     0
280
     0
281
     0
282
     0
283
     1
284
     8
285
     0
286
     0
287
     3
288
     0
  0
DIMSTYLE
105
198
100
AcDbSymbolTableRecord
100
AcDbDimStyleTableRecord
  2
TOLL-06
 70
     0
  3

  4

  5

  6

  7

 40
1.0
 41
2.5
 42
0.625
 43
3.75
 44
1.25
 45
0.0
 46
0.0
 47
-0.05
 48
0.0
140
3.0
141
2.5
142
0.0
143
0.03937
144
1.0
145
0.0
146
0.8
147
0.625
 71
     1
 72
     0
 73
     0
 74
     0
 75
     0
 76
     0
 77
     1
 78
     8
170
     0
171
     2
172
     0
173
     0
174
     0
175
     0
176
     0
177
     0
178
     0
270
     2
271
     2
272
     2
273
     2
274
     2
340
10
275
     0
280
     0
281
     0
282
     0
283
     2
284
     8
285
     0
286
     0
287
     3
288
     0
  0
DIMSTYLE
105
20B
100
AcDbSymbolTableRecord
100
AcDbDimStyleTableRecord
  2
TOLL-01
 70
     0
  3

  4

  5

  6

  7

 40
1.0
 41
2.5
 42
0.625
 43
3.75
 44
1.25
 45
0.0
 46
0.0
 47
0.02
 48
0.0
140
3.0
141
2.5
142
0.0
143
0.03937
144
1.0
145
0.0
146
0.8
147
0.625
 71
     1
 72
     0
 73
     0
 74
     0
 75
     0
 76
     0
 77
     1
 78
     8
170
     0
171
     2
172
     0
173
     0
174
     0
175
     0
176
     0
177
     0
178
     0
270
     2
271
     2
272
     2
273
     2
274
     2
340
10
275
     0
280
     0
281
     0
282
     0
283
     2
284
     8
285
     0
286
     0
287
     3
288
     0
  0
DIMSTYLE
105
232
100
AcDbSymbolTableRecord
100
AcDbDimStyleTableRecord
  2
TOLL-02
 70
     0
  3

  4

  5

  6

  7

 40
1.0
 41
2.5
 42
0.625
 43
3.75
 44
1.25
 45
0.0
 46
0.0
 47
-0.02
 48
0.0
140
3.0
141
2.5
142
0.0
143
0.03937
144
1.0
145
0.0
146
0.8
147
0.625
 71
     1
 72
     0
 73
     0
 74
     0
 75
     0
 76
     0
 77
     1
 78
     8
170
     0
171
     2
172
     0
173
     0
174
     0
175
     0
176
     0
177
     0
178
     0
270
     2
271
     2
272
     2
273
     2
274
     2
340
10
275
     0
280
     0
281
     0
282
     0
283
     2
284
     8
285
     0
286
     0
287
     3
288
     0
  0
DIMSTYLE
105
233
100
AcDbSymbolTableRecord
100
AcDbDimStyleTableRecord
  2
TOLL-03
 70
     0
  3

  4

  5

  6

  7

 40
1.0
 41
2.5
 42
0.625
 43
3.75
 44
1.25
 45
0.0
 46
0.0
 47
0.01
 48
0.01
140
3.0
141
2.5
142
0.0
143
0.03937
144
1.0
145
0.0
146
0.8
147
0.625
 71
     1
 72
     0
 73
     0
 74
     0
 75
     0
 76
     0
 77
     1
 78
     8
170
     0
171
     2
172
     0
173
     0
174
     0
175
     0
176
     0
177
     0
178
     0
270
     2
271
     2
272
     2
273
     2
274
     2
340
10
275
     0
280
     0
281
     0
282
     0
283
     2
284
     8
285
     0
286
     0
287
     3
288
     0
  0
DIMSTYLE
105
234
100
AcDbSymbolTableRecord
100
AcDbDimStyleTableRecord
  2
TOLL-04
 70
     0
  3

  4

  5

  6

  7

 40
1.0
 41
2.5
 42
0.625
 43
3.75
 44
1.25
 45
0.0
 46
0.0
 47
0.05
 48
0.05
140
3.0
141
2.5
142
0.0
143
0.03937
144
1.0
145
0.0
146
0.8
147
0.625
 71
     1
 72
     0
 73
     0
 74
     0
 75
     0
 76
     0
 77
     1
 78
     8
170
     0
171
     2
172
     0
173
     0
174
     0
175
     0
176
     0
177
     0
178
     0
270
     2
271
     2
272
     2
273
     2
274
     2
340
10
275
     0
280
     0
281
     0
282
     0
283
     2
284
     8
285
     0
286
     0
287
     3
288
     0
  0
DIMSTYLE
105
235
100
AcDbSymbolTableRecord
100
AcDbDimStyleTableRecord
  2
TOLL-05
 70
     0
  3

  4

  5

  6

  7

 40
1.0
 41
2.5
 42
0.625
 43
3.75
 44
1.25
 45
0.0
 46
0.0
 47
0.05
 48
0.0
140
3.0
141
2.5
142
0.0
143
0.03937
144
1.0
145
0.0
146
0.8
147
0.625
 71
     1
 72
     0
 73
     0
 74
     0
 75
     0
 76
     0
 77
     1
 78
     8
170
     0
171
     2
172
     0
173
     0
174
     0
175
     0
176
     0
177
     0
178
     0
270
     2
271
     2
272
     2
273
     2
274
     2
340
10
275
     0
280
     0
281
     0
282
     0
283
     2
284
     8
285
     0
286
     0
287
     3
288
     0
  0
DIMSTYLE
105
247
100
AcDbSymbolTableRecord
100
AcDbDimStyleTableRecord
  2
TOLL-07
 70
     0
  3

  4

  5

  6

  7

 40
1.0
 41
2.5
 42
0.625
 43
3.75
 44
1.25
 45
0.0
 46
0.0
 47
0.1
 48
0.1
140
3.0
141
2.5
142
0.0
143
0.03937
144
1.0
145
0.0
146
1.0
147
0.625
 71
     1
 72
     0
 73
     0
 74
     0
 75
     0
 76
     0
 77
     1
 78
     8
170
     0
171
     2
172
     0
173
     0
174
     0
175
     0
176
     0
177
     0
178
     0
270
     2
271
     2
272
     2
273
     2
274
     2
340
10
275
     0
280
     0
281
     0
282
     0
283
     1
284
     8
285
     0
286
     0
287
     3
288
     0
  0
DIMSTYLE
105
251
100
AcDbSymbolTableRecord
100
AcDbDimStyleTableRecord
  2
TOLL-08
 70
     0
  3

  4

  5

  6

  7

 40
1.0
 41
2.5
 42
0.625
 43
3.75
 44
1.25
 45
0.0
 46
0.0
 47
0.1
 48
0.0
140
3.0
141
2.5
142
0.0
143
0.03937
144
1.0
145
0.0
146
1.0
147
0.625
 71
     1
 72
     0
 73
     0
 74
     0
 75
     0
 76
     0
 77
     1
 78
     8
170
     0
171
     2
172
     0
173
     0
174
     0
175
     0
176
     0
177
     0
178
     0
270
     2
271
     2
272
     2
273
     2
274
     2
340
10
275
     0
280
     0
281
     0
282
     0
283
     1
284
     8
285
     0
286
     0
287
     3
288
     0
  0
DIMSTYLE
105
257
100
AcDbSymbolTableRecord
100
AcDbDimStyleTableRecord
  2
TOLL-09
 70
     0
  3

  4

  5

  6

  7

 40
1.0
 41
2.5
 42
0.625
 43
3.75
 44
1.25
 45
0.0
 46
0.0
 47
-0.1
 48
0.0
140
3.0
141
2.5
142
0.0
143
0.03937
144
1.0
145
0.0
146
1.0
147
0.625
 71
     1
 72
     0
 73
     0
 74
     0
 75
     0
 76
     0
 77
     1
 78
     8
170
     0
171
     2
172
     0
173
     0
174
     0
175
     0
176
     0
177
     0
178
     0
270
     2
271
     2
272
     2
273
     2
274
     2
340
10
275
     0
280
     0
281
     0
282
     0
283
     1
284
     8
285
     0
286
     0
287
     3
288
     0
  0
DIMSTYLE
105
258
100
AcDbSymbolTableRecord
100
AcDbDimStyleTableRecord
  2
TOLL-10
 70
     0
  3

  4

  5

  6

  7

 40
1.0
 41
2.5
 42
0.625
 43
3.75
 44
1.25
 45
0.0
 46
0.0
 47
0.2
 48
0.2
140
3.0
141
2.5
142
0.0
143
0.03937
144
1.0
145
0.0
146
1.0
147
0.625
 71
     1
 72
     0
 73
     0
 74
     0
 75
     0
 76
     0
 77
     1
 78
     8
170
     0
171
     2
172
     0
173
     0
174
     0
175
     0
176
     0
177
     0
178
     0
270
     2
271
     2
272
     2
273
     2
274
     2
340
10
275
     0
280
     0
281
     0
282
     0
283
     1
284
     8
285
     0
286
     0
287
     3
288
     0
  0
DIMSTYLE
105
259
100
AcDbSymbolTableRecord
100
AcDbDimStyleTableRecord
  2
TOLL-11
 70
     0
  3

  4

  5

  6

  7

 40
1.0
 41
2.5
 42
0.625
 43
3.75
 44
1.25
 45
0.0
 46
0.0
 47
0.2
 48
0.0
140
3.0
141
2.5
142
0.0
143
0.03937
144
1.0
145
0.0
146
1.0
147
0.625
 71
     1
 72
     0
 73
     0
 74
     0
 75
     0
 76
     0
 77
     1
 78
     8
170
     0
171
     2
172
     0
173
     0
174
     0
175
     0
176
     0
177
     0
178
     0
270
     2
271
     2
272
     2
273
     2
274
     2
340
10
275
     0
280
     0
281
     0
282
     0
283
     1
284
     8
285
     0
286
     0
287
     3
288
     0
  0
DIMSTYLE
105
3C7
100
AcDbSymbolTableRecord
100
AcDbDimStyleTableRecord
  2
ISO-25
 70
     0
  3

  4

  5

  6

  7

 40
1.0
 41
2.5
 42
0.625
 43
3.75
 44
1.25
 45
0.0
 46
0.0
 47
0.0
 48
0.0
140
2.5
141
2.5
142
0.0
143
0.0394
144
1.0
145
1.0
146
1.0
147
0.625
 71
     0
 72
     0
 73
     1
 74
     0
 75
     0
 76
     0
 77
     1
 78
     8
170
     0
171
     2
172
     1
173
     0
174
     0
175
     0
176
     0
177
     0
178
     0
270
     2
271
     4
272
     4
273
     2
274
     2
340
10
275
     0
280
     0
281
     0
282
     0
283
     1
284
     0
285
     0
286
     0
287
     3
288
     0
  0
ENDTAB
  0
TABLE
  2
BLOCK_RECORD
  5
1
100
AcDbSymbolTable
 70
    16
  0
BLOCK_RECORD
  5
19
100
AcDbSymbolTableRecord
100
AcDbBlockTableRecord
  2
*MODEL_SPACE
  0
BLOCK_RECORD
  5
16
100
AcDbSymbolTableRecord
100
AcDbBlockTableRecord
  2
*PAPER_SPACE
  0
BLOCK_RECORD
  5
27D
100
AcDbSymbolTableRecord
100
AcDbBlockTableRecord
  2
*D0
  0
BLOCK_RECORD
  5
28C
100
AcDbSymbolTableRecord
100
AcDbBlockTableRecord
  2
*D1
  0
BLOCK_RECORD
  5
29F
100
AcDbSymbolTableRecord
100
AcDbBlockTableRecord
  2
*D2
  0
BLOCK_RECORD
  5
2A8
100
AcDbSymbolTableRecord
100
AcDbBlockTableRecord
  2
*D3
  0
BLOCK_RECORD
  5
2C2
100
AcDbSymbolTableRecord
100
AcDbBlockTableRecord
  2
*D4
  0
BLOCK_RECORD
  5
2D1
100
AcDbSymbolTableRecord
100
AcDbBlockTableRecord
  2
*D5
  0
BLOCK_RECORD
  5
2DB
100
AcDbSymbolTableRecord
100
AcDbBlockTableRecord
  2
*D6
  0
BLOCK_RECORD
  5
2E8
100
AcDbSymbolTableRecord
100
AcDbBlockTableRecord
  2
*D7
  0
BLOCK_RECORD
  5
2F5
100
AcDbSymbolTableRecord
100
AcDbBlockTableRecord
  2
*D8
  0
BLOCK_RECORD
  5
302
100
AcDbSymbolTableRecord
100
AcDbBlockTableRecord
  2
*D9
  0
BLOCK_RECORD
  5
30F
100
AcDbSymbolTableRecord
100
AcDbBlockTableRecord
  2
*D10
  0
BLOCK_RECORD
  5
31D
100
AcDbSymbolTableRecord
100
AcDbBlockTableRecord
  2
*D11
  0
BLOCK_RECORD
  5
33F
100
AcDbSymbolTableRecord
100
AcDbBlockTableRecord
  2
*D12
  0
BLOCK_RECORD
  5
3A8
100
AcDbSymbolTableRecord
100
AcDbBlockTableRecord
  2
RUGOSITA
  0
BLOCK_RECORD
  5
3C8
100
AcDbSymbolTableRecord
100
AcDbBlockTableRecord
  2
A$C6153
  0
BLOCK_RECORD
  5
3F6
100
AcDbSymbolTableRecord
100
AcDbBlockTableRecord
  2
*X15
  0
ENDTAB
  0
ENDSEC
  0
SECTION
  2
BLOCKS
  0
BLOCK
  5
1A
100
AcDbEntity
  8
0
100
AcDbBlockBegin
  2
*MODEL_SPACE
 70
     0
 10
0.0
 20
0.0
 30
0.0
  3
*MODEL_SPACE
  1

  0
ENDBLK
  5
1B
100
AcDbEntity
  8
0
100
AcDbBlockEnd
  0
BLOCK
  5
17
100
AcDbEntity
 67
     1
  8
0
100
AcDbBlockBegin
  2
*PAPER_SPACE
 70
     0
 10
0.0
 20
0.0
 30
0.0
  3
*PAPER_SPACE
  1

  0
ENDBLK
  5
18
100
AcDbEntity
 67
     1
  8
0
100
AcDbBlockEnd
  0
BLOCK
  5
34A
100
AcDbEntity
  8
0
100
AcDbBlockBegin
  2
*D0
 70
    65
 10
0.0
 20
0.0
 30
0.0
  3
*D0
  1

  0
LINE
  5
34B
100
AcDbEntity
  8
0
  6
BYBLOCK
 62
     0
100
AcDbLine
 10
72.535477
 20
169.75783
 30
0.0
 11
72.535477
 21
210.387837
 31
0.0
  0
LINE
  5
34C
100
AcDbEntity
  8
0
  6
BYBLOCK
 62
     0
100
AcDbLine
 10
122.535477
 20
169.75783
 30
0.0
 11
122.535477
 21
210.387837
 31
0.0
  0
LINE
  5
34D
100
AcDbEntity
  8
0
  6
BYBLOCK
 62
     0
100
AcDbLine
 10
75.035477
 20
209.137837
 30
0.0
 11
120.035477
 21
209.137837
 31
0.0
  0
SOLID
  5
34E
100
AcDbEntity
  8
0
  6
BYBLOCK
 62
     0
100
AcDbTrace
 10
75.035477
 20
209.554503
 30
0.0
 11
75.035477
 21
208.72117
 31
0.0
 12
72.535477
 22
209.137837
 32
0.0
 13
72.535477
 23
209.137837
 33
0.0
  0
SOLID
  5
34F
100
AcDbEntity
  8
0
  6
BYBLOCK
 62
     0
100
AcDbTrace
 10
120.035477
 20
209.554503
 30
0.0
 11
120.035477
 21
208.72117
 31
0.0
 12
122.535477
 22
209.137837
 32
0.0
 13
122.535477
 23
209.137837
 33
0.0
  0
MTEXT
  5
350
100
AcDbEntity
  8
0
  6
BYBLOCK
 62
     0
100
AcDbMText
 10
97.535477
 20
211.262837
 30
0.0
 40
3.0
 41
0.0
 71
     5
 72
     1
  1
\A1;50
  0
POINT
  5
351
100
AcDbEntity
  8
DEFPOINTS
  6
BYBLOCK
 62
     0
100
AcDbPoint
 10
72.535477
 20
169.13283
 30
0.0
  0
POINT
  5
352
100
AcDbEntity
  8
DEFPOINTS
  6
BYBLOCK
 62
     0
100
AcDbPoint
 10
122.535477
 20
169.13283
 30
0.0
  0
POINT
  5
353
100
AcDbEntity
  8
DEFPOINTS
  6
BYBLOCK
 62
     0
100
AcDbPoint
 10
122.535477
 20
209.137837
 30
0.0
  0
ENDBLK
  5
354
100
AcDbEntity
  8
0
100
AcDbBlockEnd
  0
BLOCK
  5
28D
100
AcDbEntity
  8
0
100
AcDbBlockBegin
  2
*D1
 70
    65
 10
0.0
 20
0.0
 30
0.0
  3
*D1
  1

  0
LINE
  5
28E
100
AcDbEntity
  8
0
  6
BYBLOCK
 62
     0
100
AcDbLine
 10
121.958052
 20
169.372007
 30
0.0
 11
113.257519
 21
172.975886
 31
0.0
  0
LINE
  5
28F
100
AcDbEntity
  8
0
  6
BYBLOCK
 62
     0
100
AcDbLine
 10
115.835117
 20
154.589935
 30
0.0
 11
107.134584
 21
158.193814
 31
0.0
  0
LINE
  5
290
100
AcDbEntity
  8
0
  6
BYBLOCK
 62
     0
100
AcDbLine
 10
113.45566
 20
170.187833
 30
0.0
 11
109.246142
 21
160.025158
 31
0.0
  0
SOLID
  5
291
100
AcDbEntity
  8
0
  6
BYBLOCK
 62
     0
100
AcDbTrace
 10
113.07071
 20
170.347284
 30
0.0
 11
113.84061
 21
170.028382
 31
0.0
 12
114.412369
 22
172.497532
 32
0.0
 13
114.412369
 23
172.497532
 33
0.0
  0
SOLID
  5
292
100
AcDbEntity
  8
0
  6
BYBLOCK
 62
     0
100
AcDbTrace
 10
108.861192
 20
160.18461
 30
0.0
 11
109.631092
 21
159.865707
 31
0.0
 12
108.289434
 22
157.715459
 32
0.0
 13
108.289434
 23
157.715459
 33
0.0
  0
MTEXT
  5
293
100
AcDbEntity
  8
0
  6
BYBLOCK
 62
     0
100
AcDbMText
 10
109.387657
 20
165.919698
 30
0.0
 40
3.0
 41
0.0
 71
     5
 72
     1
  1
\A1;16
 11
0.382683
 21
0.92388
 31
0.0
  0
POINT
  5
294
100
AcDbEntity
  8
DEFPOINTS
  6
BYBLOCK
 62
     0
100
AcDbPoint
 10
122.535477
 20
169.13283
 30
0.0
  0
POINT
  5
295
100
AcDbEntity
  8
DEFPOINTS
  6
BYBLOCK
 62
     0
100
AcDbPoint
 10
116.412542
 20
154.350758
 30
0.0
  0
POINT
  5
296
100
AcDbEntity
  8
DEFPOINTS
  6
BYBLOCK
 62
     0
100
AcDbPoint
 10
108.289434
 20
157.715459
 30
0.0
  0
ENDBLK
  5
297
100
AcDbEntity
  8
0
100
AcDbBlockEnd
  0
BLOCK
  5
2A0
100
AcDbEntity
  8
0
100
AcDbBlockBegin
  2
*D2
 70
    65
 10
0.0
 20
0.0
 30
0.0
  3
*D2
  1

  0
LINE
  5
2A1
100
AcDbEntity
  8
0
  6
BYBLOCK
 62
     0
100
AcDbLine
 10
97.535476
 20
133.079562
 30
0.0
 11
94.500768
 21
126.220951
 31
0.0
  0
SOLID
  5
2A2
100
AcDbEntity
  8
0
  6
BYBLOCK
 62
     0
100
AcDbTrace
 10
94.119734
 20
126.389546
 30
0.0
 11
94.881802
 21
126.052357
 31
0.0
 12
93.489198
 22
123.934748
 32
0.0
 13
93.489198
 23
123.934748
 33
0.0
  0
MTEXT
  5
2A3
100
AcDbEntity
  8
0
  6
BYBLOCK
 62
     0
100
AcDbMText
 10
93.569064
 20
129.366989
 30
0.0
 40
3.0
 41
0.0
 71
     5
 72
     1
  1
\A1;R10
 11
0.404628
 21
0.914481
 31
0.0
  0
POINT
  5
2A4
100
AcDbEntity
  8
DEFPOINTS
  6
BYBLOCK
 62
     0
100
AcDbPoint
 10
93.489198
 20
123.934748
 30
0.0
  0
POINT
  5
2A5
100
AcDbEntity
  8
DEFPOINTS
  6
BYBLOCK
 62
     0
100
AcDbPoint
 10
97.535476
 20
133.079562
 30
0.0
  0
ENDBLK
  5
2A6
100
AcDbEntity
  8
0
100
AcDbBlockEnd
  0
BLOCK
  5
2B6
100
AcDbEntity
  8
0
100
AcDbBlockBegin
  2
*D3
 70
    65
 10
0.0
 20
0.0
 30
0.0
  3
*D3
  1

  0
LINE
  5
2B7
100
AcDbEntity
  8
0
  6
BYBLOCK
 62
     0
100
AcDbLine
 10
78.897589
 20
151.944145
 30
0.0
 11
83.634191
 21
140.508976
 31
0.0
  0
LINE
  5
2B8
100
AcDbEntity
  8
0
  6
BYBLOCK
 62
     0
100
AcDbLine
 10
79.544304
 20
152.212023
 30
0.0
 11
84.280906
 21
140.776854
 31
0.0
  0
LINE
  5
2B9
100
AcDbEntity
  8
0
  6
BYBLOCK
 62
     0
100
AcDbLine
 10
86.112251
 20
142.888412
 30
0.0
 11
88.42195
 21
143.845121
 31
0.0
  0
LINE
  5
2BA
100
AcDbEntity
  8
0
  6
BYBLOCK
 62
     0
100
AcDbLine
 10
80.846138
 20
140.707117
 30
0.0
 11
73.082424
 21
137.491281
 31
0.0
  0
SOLID
  5
2BB
100
AcDbEntity
  8
0
  6
BYBLOCK
 62
     0
100
AcDbTrace
 10
85.9528
 20
143.273362
 30
0.0
 11
86.271702
 21
142.503463
 31
0.0
 12
83.802552
 22
141.931704
 32
0.0
 13
83.802552
 23
141.931704
 33
0.0
  0
SOLID
  5
2BC
100
AcDbEntity
  8
0
  6
BYBLOCK
 62
     0
100
AcDbTrace
 10
80.686686
 20
141.092067
 30
0.0
 11
81.005589
 21
140.322167
 31
0.0
 12
83.155836
 22
141.663825
 32
0.0
 13
83.155836
 23
141.663825
 33
0.0
  0
MTEXT
  5
2BD
100
AcDbEntity
  8
0
  6
BYBLOCK
 62
     0
100
AcDbMText
 10
74.980808
 20
140.577701
 30
0.0
 40
3.0
 41
0.0
 71
     5
 72
     1
  1
\A1;0.7
 11
0.92388
 21
0.382683
 31
0.0
  0
POINT
  5
2BE
100
AcDbEntity
  8
DEFPOINTS
  6
BYBLOCK
 62
     0
100
AcDbPoint
 10
78.658412
 20
152.52157
 30
0.0
  0
POINT
  5
2BF
100
AcDbEntity
  8
DEFPOINTS
  6
BYBLOCK
 62
     0
100
AcDbPoint
 10
79.305127
 20
152.789448
 30
0.0
  0
POINT
  5
2C0
100
AcDbEntity
  8
DEFPOINTS
  6
BYBLOCK
 62
     0
100
AcDbPoint
 10
83.802552
 20
141.931704
 30
0.0
  0
ENDBLK
  5
2C1
100
AcDbEntity
  8
0
100
AcDbBlockEnd
  0
BLOCK
  5
332
100
AcDbEntity
  8
0
100
AcDbBlockBegin
  2
*D4
 70
    65
 10
0.0
 20
0.0
 30
0.0
  3
*D4
  1

  0
LINE
  5
333
100
AcDbEntity
  8
0
  6
BYBLOCK
 62
     0
100
AcDbLine
 10
116.173365
 20
153.773333
 30
0.0
 11
114.436032
 21
149.57904
 31
0.0
  0
LINE
  5
334
100
AcDbEntity
  8
0
  6
BYBLOCK
 62
     0
100
AcDbLine
 10
78.897589
 20
153.773333
 30
0.0
 11
80.634922
 21
149.57904
 31
0.0
  0
ARC
  5
335
100
AcDbEntity
  8
0
  6
BYBLOCK
 62
     0
100
AcDbCircle
 10
97.535477
 20
108.777491
 30
0.0
 40
45.413278
100
AcDbArc
 50
70.65453
 51
109.34547
  0
SOLID
  5
336
100
AcDbEntity
  8
0
  6
BYBLOCK
 62
     0
100
AcDbTrace
 10
112.728024
 20
152.015854
 30
0.0
 11
112.430434
 21
151.237469
 31
0.0
 12
114.914386
 22
150.73389
 32
0.0
 13
114.914386
 23
150.73389
 33
0.0
  0
SOLID
  5
337
100
AcDbEntity
  8
0
  6
BYBLOCK
 62
     0
100
AcDbTrace
 10
82.64052
 20
151.237469
 30
0.0
 11
82.342929
 21
152.015854
 31
0.0
 12
80.156567
 22
150.73389
 32
0.0
 13
80.156567
 23
150.73389
 33
0.0
  0
MTEXT
  5
338
100
AcDbEntity
  8
0
  6
BYBLOCK
 62
     0
100
AcDbMText
 10
97.535477
 20
156.31577
 30
0.0
 40
3.0
 41
0.0
 71
     5
 72
     1
  1
\A1;45°
  0
POINT
  5
339
100
AcDbEntity
  8
DEFPOINTS
  6
BYBLOCK
 62
     0
100
AcDbPoint
 10
103.463099
 20
153.802253
 30
0.0
  0
POINT
  5
33A
100
AcDbEntity
  8
DEFPOINTS
  6
BYBLOCK
 62
     0
100
AcDbPoint
 10
73.55828
 20
166.663564
 30
0.0
  0
POINT
  5
33B
100
AcDbEntity
  8
DEFPOINTS
  6
BYBLOCK
 62
     0
100
AcDbPoint
 10
121.512673
 20
166.663564
 30
0.0
  0
POINT
  5
33C
100
AcDbEntity
  8
DEFPOINTS
  6
BYBLOCK
 62
     0
100
AcDbPoint
 10
116.412542
 20
154.350758
 30
0.0
  0
POINT
  5
33D
100
AcDbEntity
  8
DEFPOINTS
  6
BYBLOCK
 62
     0
100
AcDbPoint
 10
78.658412
 20
154.350758
 30
0.0
  0
ENDBLK
  5
33E
100
AcDbEntity
  8
0
100
AcDbBlockEnd
  0
BLOCK
  5
32A
100
AcDbEntity
  8
0
100
AcDbBlockBegin
  2
*D5
 70
    65
 10
0.0
 20
0.0
 30
0.0
  3
*D5
  1

  0
LINE
  5
32B
100
AcDbEntity
  8
0
  6
BYBLOCK
 62
     0
100
AcDbLine
 10
69.862762
 20
165.13283
 30
0.0
 11
71.222858
 21
165.765396
 31
0.0
  0
LINE
  5
32C
100
AcDbEntity
  8
0
  6
BYBLOCK
 62
     0
100
AcDbLine
 10
73.489684
 20
166.819673
 30
0.0
 11
82.683173
 21
171.095465
 31
0.0
  0
SOLID
  5
32D
100
AcDbEntity
  8
0
  6
BYBLOCK
 62
     0
100
AcDbTrace
 10
71.047145
 20
166.143201
 30
0.0
 11
71.398571
 21
165.387592
 31
0.0
 12
73.489684
 22
166.819673
 32
0.0
 13
73.489684
 23
166.819673
 33
0.0
  0
MTEXT
  5
32E
100
AcDbEntity
  8
0
  6
BYBLOCK
 62
     0
100
AcDbMText
 10
79.275395
 20
171.854129
 30
0.0
 40
3.0
 41
0.0
 71
     5
 72
     1
  1
\A1;R4
 11
0.90673
 21
0.421711
 31
0.0
  0
POINT
  5
32F
100
AcDbEntity
  8
DEFPOINTS
  6
BYBLOCK
 62
     0
100
AcDbPoint
 10
73.489684
 20
166.819673
 30
0.0
  0
POINT
  5
330
100
AcDbEntity
  8
DEFPOINTS
  6
BYBLOCK
 62
     0
100
AcDbPoint
 10
69.862762
 20
165.13283
 30
0.0
  0
ENDBLK
  5
331
100
AcDbEntity
  8
0
100
AcDbBlockEnd
  0
BLOCK
  5
36D
100
AcDbEntity
  8
0
100
AcDbBlockBegin
  2
*D6
 70
    65
 10
0.0
 20
0.0
 30
0.0
  3
*D6
  1

  0
LINE
  5
36E
100
AcDbEntity
  8
0
  6
BYBLOCK
 62
     0
100
AcDbLine
 10
55.035477
 20
169.75783
 30
0.0
 11
55.035477
 21
220.488314
 31
0.0
  0
LINE
  5
36F
100
AcDbEntity
  8
0
  6
BYBLOCK
 62
     0
100
AcDbLine
 10
140.035477
 20
169.75783
 30
0.0
 11
140.035477
 21
220.488314
 31
0.0
  0
LINE
  5
370
100
AcDbEntity
  8
0
  6
BYBLOCK
 62
     0
100
AcDbLine
 10
57.535477
 20
219.238314
 30
0.0
 11
137.535477
 21
219.238314
 31
0.0
  0
SOLID
  5
371
100
AcDbEntity
  8
0
  6
BYBLOCK
 62
     0
100
AcDbTrace
 10
57.535477
 20
219.654981
 30
0.0
 11
57.535477
 21
218.821648
 31
0.0
 12
55.035477
 22
219.238314
 32
0.0
 13
55.035477
 23
219.238314
 33
0.0
  0
SOLID
  5
372
100
AcDbEntity
  8
0
  6
BYBLOCK
 62
     0
100
AcDbTrace
 10
137.535477
 20
219.654981
 30
0.0
 11
137.535477
 21
218.821648
 31
0.0
 12
140.035477
 22
219.238314
 32
0.0
 13
140.035477
 23
219.238314
 33
0.0
  0
MTEXT
  5
373
100
AcDbEntity
  8
0
  6
BYBLOCK
 62
     0
100
AcDbMText
 10
97.535477
 20
222.544259
 30
0.0
 40
3.0
 41
0.0
 71
     5
 72
     1
  1
\A2;85{\H2.400000;\S+0.05^  0;}
  0
POINT
  5
374
100
AcDbEntity
  8
DEFPOINTS
  6
BYBLOCK
 62
     0
100
AcDbPoint
 10
55.035477
 20
169.13283
 30
0.0
  0
POINT
  5
375
100
AcDbEntity
  8
DEFPOINTS
  6
BYBLOCK
 62
     0
100
AcDbPoint
 10
140.035477
 20
169.13283
 30
0.0
  0
POINT
  5
376
100
AcDbEntity
  8
DEFPOINTS
  6
BYBLOCK
 62
     0
100
AcDbPoint
 10
140.035477
 20
219.238314
 30
0.0
  0
ENDBLK
  5
377
100
AcDbEntity
  8
0
100
AcDbBlockEnd
  0
BLOCK
  5
383
100
AcDbEntity
  8
0
100
AcDbBlockBegin
  2
*D7
 70
    65
 10
0.0
 20
0.0
 30
0.0
  3
*D7
  1

  0
LINE
  5
384
100
AcDbEntity
  8
0
  6
BYBLOCK
 62
     0
100
AcDbLine
 10
140.660477
 20
169.13283
 30
0.0
 11
159.257779
 21
169.13283
 31
0.0
  0
LINE
  5
385
100
AcDbEntity
  8
0
  6
BYBLOCK
 62
     0
100
AcDbLine
 10
140.660477
 20
109.13283
 30
0.0
 11
159.257779
 21
109.13283
 31
0.0
  0
LINE
  5
386
100
AcDbEntity
  8
0
  6
BYBLOCK
 62
     0
100
AcDbLine
 10
158.007779
 20
166.63283
 30
0.0
 11
158.007779
 21
111.63283
 31
0.0
  0
SOLID
  5
387
100
AcDbEntity
  8
0
  6
BYBLOCK
 62
     0
100
AcDbTrace
 10
157.591112
 20
166.63283
 30
0.0
 11
158.424446
 21
166.63283
 31
0.0
 12
158.007779
 22
169.13283
 32
0.0
 13
158.007779
 23
169.13283
 33
0.0
  0
SOLID
  5
388
100
AcDbEntity
  8
0
  6
BYBLOCK
 62
     0
100
AcDbTrace
 10
157.591112
 20
111.63283
 30
0.0
 11
158.424446
 21
111.63283
 31
0.0
 12
158.007779
 22
109.13283
 32
0.0
 13
158.007779
 23
109.13283
 33
0.0
  0
MTEXT
  5
389
100
AcDbEntity
  8
0
  6
BYBLOCK
 62
     0
100
AcDbMText
 10
155.882779
 20
139.13283
 30
0.0
 40
3.0
 41
0.0
 71
     5
 72
     1
  1
\A1;60
 11
0.0
 21
1.0
 31
0.0
  0
POINT
  5
38A
100
AcDbEntity
  8
DEFPOINTS
  6
BYBLOCK
 62
     0
100
AcDbPoint
 10
140.035477
 20
169.13283
 30
0.0
  0
POINT
  5
38B
100
AcDbEntity
  8
DEFPOINTS
  6
BYBLOCK
 62
     0
100
AcDbPoint
 10
140.035477
 20
109.13283
 30
0.0
  0
POINT
  5
38C
100
AcDbEntity
  8
DEFPOINTS
  6
BYBLOCK
 62
     0
100
AcDbPoint
 10
158.007779
 20
109.13283
 30
0.0
  0
ENDBLK
  5
38D
100
AcDbEntity
  8
0
100
AcDbBlockEnd
  0
BLOCK
  5
2F6
100
AcDbEntity
  8
0
100
AcDbBlockBegin
  2
*D8
 70
    65
 10
0.0
 20
0.0
 30
0.0
  3
*D8
  1

  0
LINE
  5
2F7
100
AcDbEntity
  8
0
  6
BYBLOCK
 62
     0
100
AcDbLine
 10
140.660477
 20
109.13283
 30
0.0
 11
159.35842
 21
109.13283
 31
0.0
  0
LINE
  5
2F8
100
AcDbEntity
  8
0
  6
BYBLOCK
 62
     0
100
AcDbLine
 10
128.160477
 20
89.13283
 30
0.0
 11
159.35842
 21
89.13283
 31
0.0
  0
LINE
  5
2F9
100
AcDbEntity
  8
0
  6
BYBLOCK
 62
     0
100
AcDbLine
 10
158.10842
 20
106.63283
 30
0.0
 11
158.10842
 21
91.63283
 31
0.0
  0
SOLID
  5
2FA
100
AcDbEntity
  8
0
  6
BYBLOCK
 62
     0
100
AcDbTrace
 10
157.691753
 20
106.63283
 30
0.0
 11
158.525086
 21
106.63283
 31
0.0
 12
158.10842
 22
109.13283
 32
0.0
 13
158.10842
 23
109.13283
 33
0.0
  0
SOLID
  5
2FB
100
AcDbEntity
  8
0
  6
BYBLOCK
 62
     0
100
AcDbTrace
 10
157.691753
 20
91.63283
 30
0.0
 11
158.525086
 21
91.63283
 31
0.0
 12
158.10842
 22
89.13283
 32
0.0
 13
158.10842
 23
89.13283
 33
0.0
  0
MTEXT
  5
2FC
100
AcDbEntity
  8
0
  6
BYBLOCK
 62
     0
100
AcDbMText
 10
155.98342
 20
99.13283
 30
0.0
 40
3.0
 41
0.0
 71
     5
 72
     1
  1
\A1;20
 11
0.0
 21
1.0
 31
0.0
  0
POINT
  5
2FD
100
AcDbEntity
  8
DEFPOINTS
  6
BYBLOCK
 62
     0
100
AcDbPoint
 10
140.035477
 20
109.13283
 30
0.0
  0
POINT
  5
2FE
100
AcDbEntity
  8
DEFPOINTS
  6
BYBLOCK
 62
     0
100
AcDbPoint
 10
127.535477
 20
89.13283
 30
0.0
  0
POINT
  5
2FF
100
AcDbEntity
  8
DEFPOINTS
  6
BYBLOCK
 62
     0
100
AcDbPoint
 10
158.10842
 20
89.13283
 30
0.0
  0
ENDBLK
  5
300
100
AcDbEntity
  8
0
100
AcDbBlockEnd
  0
BLOCK
  5
378
100
AcDbEntity
  8
0
100
AcDbBlockBegin
  2
*D9
 70
    65
 10
0.0
 20
0.0
 30
0.0
  3
*D9
  1

  0
LINE
  5
379
100
AcDbEntity
  8
0
  6
BYBLOCK
 62
     0
100
AcDbLine
 10
140.660477
 20
169.13283
 30
0.0
 11
179.192798
 21
169.13283
 31
0.0
  0
LINE
  5
37A
100
AcDbEntity
  8
0
  6
BYBLOCK
 62
     0
100
AcDbLine
 10
128.160477
 20
89.13283
 30
0.0
 11
179.192798
 21
89.13283
 31
0.0
  0
LINE
  5
37B
100
AcDbEntity
  8
0
  6
BYBLOCK
 62
     0
100
AcDbLine
 10
177.942798
 20
166.63283
 30
0.0
 11
177.942798
 21
91.63283
 31
0.0
  0
SOLID
  5
37C
100
AcDbEntity
  8
0
  6
BYBLOCK
 62
     0
100
AcDbTrace
 10
177.526132
 20
166.63283
 30
0.0
 11
178.359465
 21
166.63283
 31
0.0
 12
177.942798
 22
169.13283
 32
0.0
 13
177.942798
 23
169.13283
 33
0.0
  0
SOLID
  5
37D
100
AcDbEntity
  8
0
  6
BYBLOCK
 62
     0
100
AcDbTrace
 10
177.526132
 20
91.63283
 30
0.0
 11
178.359465
 21
91.63283
 31
0.0
 12
177.942798
 22
89.13283
 32
0.0
 13
177.942798
 23
89.13283
 33
0.0
  0
MTEXT
  5
37E
100
AcDbEntity
  8
0
  6
BYBLOCK
 62
     0
100
AcDbMText
 10
174.57709
 20
129.13283
 30
0.0
 40
3.0
 41
0.0
 71
     5
 72
     1
  1
\A2;80{\H2.400000;\S+0.02^  0;}
 11
0.0
 21
1.0
 31
0.0
  0
POINT
  5
37F
100
AcDbEntity
  8
DEFPOINTS
  6
BYBLOCK
 62
     0
100
AcDbPoint
 10
140.035477
 20
169.13283
 30
0.0
  0
POINT
  5
380
100
AcDbEntity
  8
DEFPOINTS
  6
BYBLOCK
 62
     0
100
AcDbPoint
 10
127.535477
 20
89.13283
 30
0.0
  0
POINT
  5
381
100
AcDbEntity
  8
DEFPOINTS
  6
BYBLOCK
 62
     0
100
AcDbPoint
 10
177.942798
 20
89.13283
 30
0.0
  0
ENDBLK
  5
382
100
AcDbEntity
  8
0
100
AcDbBlockEnd
  0
BLOCK
  5
35F
100
AcDbEntity
  8
0
100
AcDbBlockBegin
  2
*D10
 70
    65
 10
0.0
 20
0.0
 30
0.0
  3
*D10
  1

  0
LINE
  5
360
100
AcDbEntity
  8
0
  6
BYBLOCK
 62
     0
100
AcDbLine
 10
67.535477
 20
88.50783
 30
0.0
 11
67.535477
 21
67.198651
 31
0.0
  0
LINE
  5
361
100
AcDbEntity
  8
0
  6
BYBLOCK
 62
     0
100
AcDbLine
 10
127.535477
 20
88.50783
 30
0.0
 11
127.535477
 21
67.198651
 31
0.0
  0
LINE
  5
362
100
AcDbEntity
  8
0
  6
BYBLOCK
 62
     0
100
AcDbLine
 10
70.035477
 20
68.448651
 30
0.0
 11
125.035477
 21
68.448651
 31
0.0
  0
SOLID
  5
363
100
AcDbEntity
  8
0
  6
BYBLOCK
 62
     0
100
AcDbTrace
 10
70.035477
 20
68.865317
 30
0.0
 11
70.035477
 21
68.031984
 31
0.0
 12
67.535477
 22
68.448651
 32
0.0
 13
67.535477
 23
68.448651
 33
0.0
  0
SOLID
  5
364
100
AcDbEntity
  8
0
  6
BYBLOCK
 62
     0
100
AcDbTrace
 10
125.035477
 20
68.865317
 30
0.0
 11
125.035477
 21
68.031984
 31
0.0
 12
127.535477
 22
68.448651
 32
0.0
 13
127.535477
 23
68.448651
 33
0.0
  0
MTEXT
  5
365
100
AcDbEntity
  8
0
  6
BYBLOCK
 62
     0
100
AcDbMText
 10
97.535477
 20
71.754596
 30
0.0
 40
3.0
 41
0.0
 71
     5
 72
     1
  1
\A2;60{\H2.400000;\S+0.05^  0;}
  0
POINT
  5
366
100
AcDbEntity
  8
DEFPOINTS
  6
BYBLOCK
 62
     0
100
AcDbPoint
 10
67.535477
 20
89.13283
 30
0.0
  0
POINT
  5
367
100
AcDbEntity
  8
DEFPOINTS
  6
BYBLOCK
 62
     0
100
AcDbPoint
 10
127.535477
 20
89.13283
 30
0.0
  0
POINT
  5
368
100
AcDbEntity
  8
DEFPOINTS
  6
BYBLOCK
 62
     0
100
AcDbPoint
 10
127.535477
 20
68.448651
 30
0.0
  0
ENDBLK
  5
369
100
AcDbEntity
  8
0
100
AcDbBlockEnd
  0
BLOCK
  5
38E
100
AcDbEntity
  8
0
100
AcDbBlockBegin
  2
*D11
 70
    65
 10
0.0
 20
0.0
 30
0.0
  3
*D11
  1

  0
LINE
  5
38F
100
AcDbEntity
  8
0
  6
BYBLOCK
 62
     0
100
AcDbLine
 10
96.910477
 20
199.105639
 30
0.0
 11
25.919661
 21
199.105639
 31
0.0
  0
LINE
  5
390
100
AcDbEntity
  8
0
  6
BYBLOCK
 62
     0
100
AcDbLine
 10
66.910477
 20
89.13283
 30
0.0
 11
25.919661
 21
89.13283
 31
0.0
  0
LINE
  5
391
100
AcDbEntity
  8
0
  6
BYBLOCK
 62
     0
100
AcDbLine
 10
27.169661
 20
196.605639
 30
0.0
 11
27.169661
 21
91.63283
 31
0.0
  0
SOLID
  5
392
100
AcDbEntity
  8
0
  6
BYBLOCK
 62
     0
100
AcDbTrace
 10
26.752994
 20
196.605639
 30
0.0
 11
27.586328
 21
196.605639
 31
0.0
 12
27.169661
 22
199.105639
 32
0.0
 13
27.169661
 23
199.105639
 33
0.0
  0
SOLID
  5
393
100
AcDbEntity
  8
0
  6
BYBLOCK
 62
     0
100
AcDbTrace
 10
26.752994
 20
91.63283
 30
0.0
 11
27.586328
 21
91.63283
 31
0.0
 12
27.169661
 22
89.13283
 32
0.0
 13
27.169661
 23
89.13283
 33
0.0
  0
MTEXT
  5
394
100
AcDbEntity
  8
0
  6
BYBLOCK
 62
     0
100
AcDbMText
 10
23.803952
 20
144.119235
 30
0.0
 40
3.0
 41
0.0
 71
     5
 72
     1
  1
\A2;109.97{\H2.400000;\S+0.02^  0;}
 11
0.0
 21
1.0
 31
0.0
  0
POINT
  5
395
100
AcDbEntity
  8
DEFPOINTS
  6
BYBLOCK
 62
     0
100
AcDbPoint
 10
97.535477
 20
199.105639
 30
0.0
  0
POINT
  5
396
100
AcDbEntity
  8
DEFPOINTS
  6
BYBLOCK
 62
     0
100
AcDbPoint
 10
67.535477
 20
89.13283
 30
0.0
  0
POINT
  5
397
100
AcDbEntity
  8
DEFPOINTS
  6
BYBLOCK
 62
     0
100
AcDbPoint
 10
27.169661
 20
89.13283
 30
0.0
  0
ENDBLK
  5
398
100
AcDbEntity
  8
0
100
AcDbBlockEnd
  0
BLOCK
  5
356
100
AcDbEntity
  8
0
100
AcDbBlockBegin
  2
*D12
 70
    65
 10
0.0
 20
0.0
 30
0.0
  3
*D12
  1

  0
LINE
  5
357
100
AcDbEntity
  8
0
  6
BYBLOCK
 62
     0
100
AcDbLine
 10
120.02589
 20
173.448896
 30
0.0
 11
75.045063
 21
174.762383
 31
0.0
  0
SOLID
  5
358
100
AcDbEntity
  8
0
  6
BYBLOCK
 62
     0
100
AcDbTrace
 10
120.038052
 20
173.865385
 30
0.0
 11
120.013728
 21
173.032407
 31
0.0
 12
122.524825
 22
173.375924
 32
0.0
 13
122.524825
 23
173.375924
 33
0.0
  0
SOLID
  5
359
100
AcDbEntity
  8
0
  6
BYBLOCK
 62
     0
100
AcDbTrace
 10
75.057225
 20
175.178872
 30
0.0
 11
75.032901
 21
174.345894
 31
0.0
 12
72.546129
 22
174.835355
 32
0.0
 13
72.546129
 23
174.835355
 33
0.0
  0
MTEXT
  5
35A
100
AcDbEntity
  8
0
  6
BYBLOCK
 62
     0
100
AcDbMText
 10
97.597502
 20
176.229734
 30
0.0
 40
3.0
 41
0.0
 71
     5
 72
     1
  1
\A2;\U+220550{\H2.400000;±0.01}
 11
0.999574
 21
-0.029189
 31
0.0
  0
POINT
  5
35B
100
AcDbEntity
  8
DEFPOINTS
  6
BYBLOCK
 62
     0
100
AcDbPoint
 10
72.546129
 20
174.835355
 30
0.0
  0
POINT
  5
35C
100
AcDbEntity
  8
DEFPOINTS
  6
BYBLOCK
 62
     0
100
AcDbPoint
 10
122.524825
 20
173.375924
 30
0.0
  0
ENDBLK
  5
35D
100
AcDbEntity
  8
0
100
AcDbBlockEnd
  0
BLOCK
  5
3AC
100
AcDbEntity
  8
DISEGNO
100
AcDbBlockBegin
  2
RUGOSITA
 70
     2
 10
0.0
 20
0.0
 30
0.0
  3
RUGOSITA
  1

  0
ATTDEF
  5
3A9
100
AcDbEntity
  8
QUOTE
100
AcDbText
 10
-1.071886
 20
3.214106
 30
0.0
 40
1.5
  1
0.8
100
AcDbAttributeDefinition
  3
CHE RUGOSITA ?
  2
RUGOSITA
 70
     0
  0
LINE
  5
3AA
100
AcDbEntity
  8
QUOTE
100
AcDbLine
 10
0.0
 20
0.0
 30
0.0
 11
4.0
 21
6.928203
 31
0.0
  0
LINE
  5
3AB
100
AcDbEntity
  8
QUOTE
100
AcDbLine
 10
0.0
 20
0.0
 30
0.0
 11
-1.75
 21
3.031089
 31
0.0
  0
ENDBLK
  5
3AD
100
AcDbEntity
  8
DISEGNO
100
AcDbBlockEnd
  0
BLOCK
  5
3D2
100
AcDbEntity
  8
QUOTE
100
AcDbBlockBegin
  2
A$C6153
 70
     0
 10
0.0
 20
0.0
 30
0.0
  3
A$C6153
  1

  0
POLYLINE
  5
3C9
100
AcDbEntity
  8
QUOTE
100
AcDb2dPolyline
 66
     1
 10
0.0
 20
0.0
 30
0.0
 70
     1
  0
VERTEX
  5
3CA
100
AcDbEntity
  8
QUOTE
100
AcDbVertex
100
AcDb2dVertex
 10
10.800572
 20
43.629742
 30
0.0
  0
VERTEX
  5
3CB
100
AcDbEntity
  8
QUOTE
100
AcDbVertex
100
AcDb2dVertex
 10
10.800572
 20
30.915133
 30
0.0
  0
VERTEX
  5
3CC
100
AcDbEntity
  8
QUOTE
100
AcDbVertex
100
AcDb2dVertex
 10
51.919612
 20
30.915133
 30
0.0
  0
VERTEX
  5
3CD
100
AcDbEntity
  8
QUOTE
100
AcDbVertex
100
AcDb2dVertex
 10
51.919612
 20
43.629742
 30
0.0
  0
SEQEND
  5
3CE
100
AcDbEntity
  8
QUOTE
  0
TOLERANCE
  5
3CF
100
AcDbEntity
  8
QUOTE
  6
CONTINUOUS
100
AcDbFcf
  3
ISO-25
 10
14.598712
 20
35.229849
 30
0.0
  1
{\Fgdt;b}%%v0.02%%v%%v%%v%%v
1001
ACAD
1000
DSTYLE
1002
{
1070
   140
1040
2.6
1070
    47
1040
0.02
1070
    73
1070
     0
1070
   272
1070
     2
1070
   147
1040
0.53
1070
    42
1040
0.5261
1070
    44
1040
1.0522
1070
    43
1040
3.1566
1070
   271
1070
     2
1070
   141
1040
2.1044
1070
    41
1040
2.6
1002
}
  0
TEXT
  5
3D0
100
AcDbEntity
  8
QUOTE
100
AcDbText
 10
11.394157
 20
39.165781
 30
0.0
 40
2.5
  1
TOLLERANZE AL METRO
 41
1.1
100
AcDbText
  0
TOLERANCE
  5
3D1
100
AcDbEntity
  8
QUOTE
  6
CONTINUOUS
100
AcDbFcf
  3
ISO-25
 10
30.156669
 20
35.229849
 30
0.0
  1
{\Fgdt;u}%%v0.02%%v%%v%%v%%v
1001
ACAD
1000
DSTYLE
1002
{
1070
   140
1040
2.6
1070
    47
1040
0.02
1070
    73
1070
     0
1070
   272
1070
     2
1070
   147
1040
0.53
1070
    42
1040
0.5261
1070
    44
1040
1.0522
1070
    43
1040
3.1566
1070
   271
1070
     2
1070
   141
1040
2.1044
1070
    41
1040
2.6
1002
}
  0
ENDBLK
  5
3D3
100
AcDbEntity
  8
QUOTE
100
AcDbBlockEnd
  0
BLOCK
  5
3F7
100
AcDbEntity
  8
0
100
AcDbBlockBegin
  2
*X15
 70
    65
 10
0.0
 20
0.0
 30
0.0
  3
*X15
  1

  0
LINE
  5
3F9
100
AcDbEntity
  8
0
 62
     0
100
AcDbLine
 10
77.765722
 20
203.913571
 30
0.0
 11
77.80461
 21
203.95246
 31
0.0
  0
LINE
  5
3FA
100
AcDbEntity
  8
0
 62
     0
100
AcDbLine
 10
77.666514
 20
203.955786
 30
0.0
 11
77.763189
 21
204.05246
 31
0.0
  0
LINE
  5
3FB
100
AcDbEntity
  8
0
 62
     0
100
AcDbLine
 10
77.567307
 20
203.998
 30
0.0
 11
77.721767
 21
204.15246
 31
0.0
  0
LINE
  5
3FC
100
AcDbEntity
  8
0
 62
     0
100
AcDbLine
 10
77.4681
 20
204.040214
 30
0.0
 11
77.680346
 21
204.25246
 31
0.0
  0
LINE
  5
3FD
100
AcDbEntity
  8
0
 62
     0
100
AcDbLine
 10
77.368893
 20
204.082428
 30
0.0
 11
77.638925
 21
204.35246
 31
0.0
  0
LINE
  5
3FE
100
AcDbEntity
  8
0
 62
     0
100
AcDbLine
 10
77.269686
 20
204.124642
 30
0.0
 11
77.597503
 21
204.45246
 31
0.0
  0
LINE
  5
3FF
100
AcDbEntity
  8
0
 62
     0
100
AcDbLine
 10
77.170479
 20
204.166856
 30
0.0
 11
77.556082
 21
204.55246
 31
0.0
  0
LINE
  5
400
100
AcDbEntity
  8
0
 62
     0
100
AcDbLine
 10
77.071271
 20
204.209071
 30
0.0
 11
77.514661
 21
204.65246
 31
0.0
  0
LINE
  5
401
100
AcDbEntity
  8
0
 62
     0
100
AcDbLine
 10
76.972064
 20
204.251285
 30
0.0
 11
77.473239
 21
204.75246
 31
0.0
  0
LINE
  5
402
100
AcDbEntity
  8
0
 62
     0
100
AcDbLine
 10
76.872857
 20
204.293499
 30
0.0
 11
77.431818
 21
204.85246
 31
0.0
  0
LINE
  5
403
100
AcDbEntity
  8
0
 62
     0
100
AcDbLine
 10
76.77365
 20
204.335713
 30
0.0
 11
77.390397
 21
204.95246
 31
0.0
  0
LINE
  5
404
100
AcDbEntity
  8
0
 62
     0
100
AcDbLine
 10
76.674443
 20
204.377927
 30
0.0
 11
77.348975
 21
205.05246
 31
0.0
  0
LINE
  5
405
100
AcDbEntity
  8
0
 62
     0
100
AcDbLine
 10
76.575235
 20
204.420141
 30
0.0
 11
77.307554
 21
205.15246
 31
0.0
  0
LINE
  5
406
100
AcDbEntity
  8
0
 62
     0
100
AcDbLine
 10
76.476028
 20
204.462356
 30
0.0
 11
77.266133
 21
205.25246
 31
0.0
  0
LINE
  5
407
100
AcDbEntity
  8
0
 62
     0
100
AcDbLine
 10
76.376821
 20
204.50457
 30
0.0
 11
77.224711
 21
205.35246
 31
0.0
  0
LINE
  5
408
100
AcDbEntity
  8
0
 62
     0
100
AcDbLine
 10
76.277614
 20
204.546784
 30
0.0
 11
77.18329
 21
205.45246
 31
0.0
  0
LINE
  5
409
100
AcDbEntity
  8
0
 62
     0
100
AcDbLine
 10
76.178407
 20
204.588998
 30
0.0
 11
77.141868
 21
205.55246
 31
0.0
  0
LINE
  5
40A
100
AcDbEntity
  8
0
 62
     0
100
AcDbLine
 10
76.079199
 20
204.631212
 30
0.0
 11
77.100447
 21
205.65246
 31
0.0
  0
LINE
  5
40B
100
AcDbEntity
  8
0
 62
     0
100
AcDbLine
 10
75.979992
 20
204.673426
 30
0.0
 11
77.059026
 21
205.75246
 31
0.0
  0
LINE
  5
40C
100
AcDbEntity
  8
0
 62
     0
100
AcDbLine
 10
75.880785
 20
204.715641
 30
0.0
 11
77.017604
 21
205.85246
 31
0.0
  0
LINE
  5
40D
100
AcDbEntity
  8
0
 62
     0
100
AcDbLine
 10
75.781578
 20
204.757855
 30
0.0
 11
76.976183
 21
205.95246
 31
0.0
  0
LINE
  5
40E
100
AcDbEntity
  8
0
 62
     0
100
AcDbLine
 10
75.682371
 20
204.800069
 30
0.0
 11
76.934762
 21
206.05246
 31
0.0
  0
LINE
  5
40F
100
AcDbEntity
  8
0
 62
     0
100
AcDbLine
 10
75.583164
 20
204.842283
 30
0.0
 11
76.89334
 21
206.15246
 31
0.0
  0
LINE
  5
410
100
AcDbEntity
  8
0
 62
     0
100
AcDbLine
 10
75.483956
 20
204.884497
 30
0.0
 11
76.851919
 21
206.25246
 31
0.0
  0
LINE
  5
411
100
AcDbEntity
  8
0
 62
     0
100
AcDbLine
 10
75.384749
 20
204.926711
 30
0.0
 11
76.810498
 21
206.35246
 31
0.0
  0
LINE
  5
412
100
AcDbEntity
  8
0
 62
     0
100
AcDbLine
 10
75.285542
 20
204.968926
 30
0.0
 11
76.769076
 21
206.45246
 31
0.0
  0
LINE
  5
413
100
AcDbEntity
  8
0
 62
     0
100
AcDbLine
 10
75.186335
 20
205.01114
 30
0.0
 11
76.727655
 21
206.55246
 31
0.0
  0
LINE
  5
414
100
AcDbEntity
  8
0
 62
     0
100
AcDbLine
 10
75.087128
 20
205.053354
 30
0.0
 11
76.686234
 21
206.65246
 31
0.0
  0
LINE
  5
415
100
AcDbEntity
  8
0
 62
     0
100
AcDbLine
 10
74.98792
 20
205.095568
 30
0.0
 11
76.644812
 21
206.75246
 31
0.0
  0
LINE
  5
416
100
AcDbEntity
  8
0
 62
     0
100
AcDbLine
 10
74.888713
 20
205.137782
 30
0.0
 11
76.603391
 21
206.85246
 31
0.0
  0
LINE
  5
417
100
AcDbEntity
  8
0
 62
     0
100
AcDbLine
 10
74.789506
 20
205.179997
 30
0.0
 11
76.561969
 21
206.95246
 31
0.0
  0
LINE
  5
418
100
AcDbEntity
  8
0
 62
     0
100
AcDbLine
 10
74.690299
 20
205.222211
 30
0.0
 11
76.520548
 21
207.05246
 31
0.0
  0
LINE
  5
419
100
AcDbEntity
  8
0
 62
     0
100
AcDbLine
 10
74.591092
 20
205.264425
 30
0.0
 11
76.479127
 21
207.15246
 31
0.0
  0
LINE
  5
41A
100
AcDbEntity
  8
0
 62
     0
100
AcDbLine
 10
74.491884
 20
205.306639
 30
0.0
 11
76.437705
 21
207.25246
 31
0.0
  0
LINE
  5
41B
100
AcDbEntity
  8
0
 62
     0
100
AcDbLine
 10
74.392677
 20
205.348853
 30
0.0
 11
76.396284
 21
207.35246
 31
0.0
  0
LINE
  5
41C
100
AcDbEntity
  8
0
 62
     0
100
AcDbLine
 10
74.29347
 20
205.391067
 30
0.0
 11
76.354863
 21
207.45246
 31
0.0
  0
LINE
  5
41D
100
AcDbEntity
  8
0
 62
     0
100
AcDbLine
 10
74.194263
 20
205.433282
 30
0.0
 11
76.313441
 21
207.55246
 31
0.0
  0
LINE
  5
41E
100
AcDbEntity
  8
0
 62
     0
100
AcDbLine
 10
74.095056
 20
205.475496
 30
0.0
 11
76.27202
 21
207.65246
 31
0.0
  0
LINE
  5
41F
100
AcDbEntity
  8
0
 62
     0
100
AcDbLine
 10
73.995849
 20
205.51771
 30
0.0
 11
76.230599
 21
207.75246
 31
0.0
  0
LINE
  5
420
100
AcDbEntity
  8
0
 62
     0
100
AcDbLine
 10
73.896641
 20
205.559924
 30
0.0
 11
76.189177
 21
207.85246
 31
0.0
  0
LINE
  5
421
100
AcDbEntity
  8
0
 62
     0
100
AcDbLine
 10
73.797434
 20
205.602138
 30
0.0
 11
76.147756
 21
207.95246
 31
0.0
  0
LINE
  5
422
100
AcDbEntity
  8
0
 62
     0
100
AcDbLine
 10
73.698227
 20
205.644352
 30
0.0
 11
76.106335
 21
208.05246
 31
0.0
  0
LINE
  5
423
100
AcDbEntity
  8
0
 62
     0
100
AcDbLine
 10
73.59902
 20
205.686567
 30
0.0
 11
76.064913
 21
208.15246
 31
0.0
  0
LINE
  5
424
100
AcDbEntity
  8
0
 62
     0
100
AcDbLine
 10
73.499813
 20
205.728781
 30
0.0
 11
76.023492
 21
208.25246
 31
0.0
  0
LINE
  5
425
100
AcDbEntity
  8
0
 62
     0
100
AcDbLine
 10
73.400605
 20
205.770995
 30
0.0
 11
75.98207
 21
208.35246
 31
0.0
  0
LINE
  5
426
100
AcDbEntity
  8
0
 62
     0
100
AcDbLine
 10
73.301398
 20
205.813209
 30
0.0
 11
75.940649
 21
208.45246
 31
0.0
  0
LINE
  5
427
100
AcDbEntity
  8
0
 62
     0
100
AcDbLine
 10
73.202191
 20
205.855423
 30
0.0
 11
75.899228
 21
208.55246
 31
0.0
  0
LINE
  5
428
100
AcDbEntity
  8
0
 62
     0
100
AcDbLine
 10
73.102984
 20
205.897637
 30
0.0
 11
75.857806
 21
208.65246
 31
0.0
  0
LINE
  5
429
100
AcDbEntity
  8
0
 62
     0
100
AcDbLine
 10
73.003777
 20
205.939852
 30
0.0
 11
75.816385
 21
208.75246
 31
0.0
  0
LINE
  5
42A
100
AcDbEntity
  8
0
 62
     0
100
AcDbLine
 10
72.90457
 20
205.982066
 30
0.0
 11
75.774964
 21
208.85246
 31
0.0
  0
LINE
  5
42B
100
AcDbEntity
  8
0
 62
     0
100
AcDbLine
 10
72.805362
 20
206.02428
 30
0.0
 11
75.733542
 21
208.95246
 31
0.0
  0
LINE
  5
42C
100
AcDbEntity
  8
0
 62
     0
100
AcDbLine
 10
72.706155
 20
206.066494
 30
0.0
 11
75.692121
 21
209.05246
 31
0.0
  0
LINE
  5
42D
100
AcDbEntity
  8
0
 62
     0
100
AcDbLine
 10
72.606948
 20
206.108708
 30
0.0
 11
75.6507
 21
209.15246
 31
0.0
  0
LINE
  5
42E
100
AcDbEntity
  8
0
 62
     0
100
AcDbLine
 10
72.507741
 20
206.150922
 30
0.0
 11
75.609278
 21
209.25246
 31
0.0
  0
LINE
  5
42F
100
AcDbEntity
  8
0
 62
     0
100
AcDbLine
 10
72.408534
 20
206.193137
 30
0.0
 11
75.567857
 21
209.35246
 31
0.0
  0
LINE
  5
430
100
AcDbEntity
  8
0
 62
     0
100
AcDbLine
 10
72.309326
 20
206.235351
 30
0.0
 11
75.526436
 21
209.45246
 31
0.0
  0
LINE
  5
431
100
AcDbEntity
  8
0
 62
     0
100
AcDbLine
 10
72.210119
 20
206.277565
 30
0.0
 11
75.485014
 21
209.55246
 31
0.0
  0
LINE
  5
432
100
AcDbEntity
  8
0
 62
     0
100
AcDbLine
 10
72.110912
 20
206.319779
 30
0.0
 11
75.443593
 21
209.65246
 31
0.0
  0
LINE
  5
433
100
AcDbEntity
  8
0
 62
     0
100
AcDbLine
 10
72.011705
 20
206.361993
 30
0.0
 11
75.402172
 21
209.75246
 31
0.0
  0
LINE
  5
434
100
AcDbEntity
  8
0
 62
     0
100
AcDbLine
 10
71.912498
 20
206.404207
 30
0.0
 11
75.36075
 21
209.85246
 31
0.0
  0
LINE
  5
435
100
AcDbEntity
  8
0
 62
     0
100
AcDbLine
 10
71.81329
 20
206.446422
 30
0.0
 11
75.319329
 21
209.95246
 31
0.0
  0
LINE
  5
436
100
AcDbEntity
  8
0
 62
     0
100
AcDbLine
 10
71.714083
 20
206.488636
 30
0.0
 11
75.277907
 21
210.05246
 31
0.0
  0
LINE
  5
437
100
AcDbEntity
  8
0
 62
     0
100
AcDbLine
 10
71.614876
 20
206.53085
 30
0.0
 11
75.236486
 21
210.15246
 31
0.0
  0
LINE
  5
438
100
AcDbEntity
  8
0
 62
     0
100
AcDbLine
 10
71.515669
 20
206.573064
 30
0.0
 11
75.195065
 21
210.25246
 31
0.0
  0
LINE
  5
439
100
AcDbEntity
  8
0
 62
     0
100
AcDbLine
 10
71.416462
 20
206.615278
 30
0.0
 11
75.153643
 21
210.35246
 31
0.0
  0
LINE
  5
43A
100
AcDbEntity
  8
0
 62
     0
100
AcDbLine
 10
71.317255
 20
206.657492
 30
0.0
 11
75.112222
 21
210.45246
 31
0.0
  0
LINE
  5
43B
100
AcDbEntity
  8
0
 62
     0
100
AcDbLine
 10
71.218047
 20
206.699707
 30
0.0
 11
75.070801
 21
210.55246
 31
0.0
  0
LINE
  5
43C
100
AcDbEntity
  8
0
 62
     0
100
AcDbLine
 10
71.11884
 20
206.741921
 30
0.0
 11
75.029379
 21
210.65246
 31
0.0
  0
LINE
  5
43D
100
AcDbEntity
  8
0
 62
     0
100
AcDbLine
 10
71.019633
 20
206.784135
 30
0.0
 11
74.987958
 21
210.75246
 31
0.0
  0
LINE
  5
43E
100
AcDbEntity
  8
0
 62
     0
100
AcDbLine
 10
70.920426
 20
206.826349
 30
0.0
 11
74.946537
 21
210.85246
 31
0.0
  0
LINE
  5
43F
100
AcDbEntity
  8
0
 62
     0
100
AcDbLine
 10
70.821219
 20
206.868563
 30
0.0
 11
74.905115
 21
210.95246
 31
0.0
  0
LINE
  5
440
100
AcDbEntity
  8
0
 62
     0
100
AcDbLine
 10
70.722011
 20
206.910777
 30
0.0
 11
74.863694
 21
211.05246
 31
0.0
  0
LINE
  5
441
100
AcDbEntity
  8
0
 62
     0
100
AcDbLine
 10
70.622804
 20
206.952992
 30
0.0
 11
74.822273
 21
211.15246
 31
0.0
  0
LINE
  5
442
100
AcDbEntity
  8
0
 62
     0
100
AcDbLine
 10
70.523597
 20
206.995206
 30
0.0
 11
74.780851
 21
211.25246
 31
0.0
  0
LINE
  5
443
100
AcDbEntity
  8
0
 62
     0
100
AcDbLine
 10
70.42439
 20
207.03742
 30
0.0
 11
74.73943
 21
211.35246
 31
0.0
  0
LINE
  5
444
100
AcDbEntity
  8
0
 62
     0
100
AcDbLine
 10
70.325183
 20
207.079634
 30
0.0
 11
74.698008
 21
211.45246
 31
0.0
  0
LINE
  5
445
100
AcDbEntity
  8
0
 62
     0
100
AcDbLine
 10
70.225975
 20
207.121848
 30
0.0
 11
74.656587
 21
211.55246
 31
0.0
  0
LINE
  5
446
100
AcDbEntity
  8
0
 62
     0
100
AcDbLine
 10
70.126768
 20
207.164062
 30
0.0
 11
74.615166
 21
211.65246
 31
0.0
  0
LINE
  5
447
100
AcDbEntity
  8
0
 62
     0
100
AcDbLine
 10
70.027561
 20
207.206277
 30
0.0
 11
74.573744
 21
211.75246
 31
0.0
  0
LINE
  5
448
100
AcDbEntity
  8
0
 62
     0
100
AcDbLine
 10
69.928354
 20
207.248491
 30
0.0
 11
74.532323
 21
211.85246
 31
0.0
  0
LINE
  5
449
100
AcDbEntity
  8
0
 62
     0
100
AcDbLine
 10
69.829147
 20
207.290705
 30
0.0
 11
74.490902
 21
211.95246
 31
0.0
  0
LINE
  5
44A
100
AcDbEntity
  8
0
 62
     0
100
AcDbLine
 10
69.72994
 20
207.332919
 30
0.0
 11
74.44948
 21
212.05246
 31
0.0
  0
LINE
  5
44B
100
AcDbEntity
  8
0
 62
     0
100
AcDbLine
 10
69.630732
 20
207.375133
 30
0.0
 11
74.408059
 21
212.15246
 31
0.0
  0
LINE
  5
44C
100
AcDbEntity
  8
0
 62
     0
100
AcDbLine
 10
69.531525
 20
207.417347
 30
0.0
 11
74.366638
 21
212.25246
 31
0.0
  0
LINE
  5
44D
100
AcDbEntity
  8
0
 62
     0
100
AcDbLine
 10
69.432318
 20
207.459562
 30
0.0
 11
74.325216
 21
212.35246
 31
0.0
  0
LINE
  5
44E
100
AcDbEntity
  8
0
 62
     0
100
AcDbLine
 10
69.333111
 20
207.501776
 30
0.0
 11
74.283795
 21
212.45246
 31
0.0
  0
LINE
  5
44F
100
AcDbEntity
  8
0
 62
     0
100
AcDbLine
 10
69.233904
 20
207.54399
 30
0.0
 11
74.242374
 21
212.55246
 31
0.0
  0
LINE
  5
450
100
AcDbEntity
  8
0
 62
     0
100
AcDbLine
 10
69.134696
 20
207.586204
 30
0.0
 11
74.200952
 21
212.65246
 31
0.0
  0
LINE
  5
451
100
AcDbEntity
  8
0
 62
     0
100
AcDbLine
 10
69.035489
 20
207.628418
 30
0.0
 11
74.159531
 21
212.75246
 31
0.0
  0
LINE
  5
452
100
AcDbEntity
  8
0
 62
     0
100
AcDbLine
 10
68.936282
 20
207.670633
 30
0.0
 11
74.118109
 21
212.85246
 31
0.0
  0
LINE
  5
453
100
AcDbEntity
  8
0
 62
     0
100
AcDbLine
 10
68.837075
 20
207.712847
 30
0.0
 11
74.076688
 21
212.95246
 31
0.0
  0
LINE
  5
454
100
AcDbEntity
  8
0
 62
     0
100
AcDbLine
 10
68.737868
 20
207.755061
 30
0.0
 11
74.035267
 21
213.05246
 31
0.0
  0
LINE
  5
455
100
AcDbEntity
  8
0
 62
     0
100
AcDbLine
 10
68.63866
 20
207.797275
 30
0.0
 11
73.993845
 21
213.15246
 31
0.0
  0
LINE
  5
456
100
AcDbEntity
  8
0
 62
     0
100
AcDbLine
 10
68.539453
 20
207.839489
 30
0.0
 11
73.952424
 21
213.25246
 31
0.0
  0
LINE
  5
457
100
AcDbEntity
  8
0
 62
     0
100
AcDbLine
 10
68.440246
 20
207.881703
 30
0.0
 11
73.911003
 21
213.35246
 31
0.0
  0
LINE
  5
458
100
AcDbEntity
  8
0
 62
     0
100
AcDbLine
 10
68.341039
 20
207.923918
 30
0.0
 11
73.869581
 21
213.45246
 31
0.0
  0
LINE
  5
459
100
AcDbEntity
  8
0
 62
     0
100
AcDbLine
 10
68.241832
 20
207.966132
 30
0.0
 11
73.82816
 21
213.55246
 31
0.0
  0
LINE
  5
45A
100
AcDbEntity
  8
0
 62
     0
100
AcDbLine
 10
68.142625
 20
208.008346
 30
0.0
 11
73.786739
 21
213.65246
 31
0.0
  0
LINE
  5
45B
100
AcDbEntity
  8
0
 62
     0
100
AcDbLine
 10
68.043417
 20
208.05056
 30
0.0
 11
73.745317
 21
213.75246
 31
0.0
  0
LINE
  5
45C
100
AcDbEntity
  8
0
 62
     0
100
AcDbLine
 10
67.94421
 20
208.092774
 30
0.0
 11
73.703896
 21
213.85246
 31
0.0
  0
LINE
  5
45D
100
AcDbEntity
  8
0
 62
     0
100
AcDbLine
 10
67.845003
 20
208.134988
 30
0.0
 11
73.662475
 21
213.95246
 31
0.0
  0
LINE
  5
45E
100
AcDbEntity
  8
0
 62
     0
100
AcDbLine
 10
67.745796
 20
208.177203
 30
0.0
 11
73.621053
 21
214.05246
 31
0.0
  0
LINE
  5
45F
100
AcDbEntity
  8
0
 62
     0
100
AcDbLine
 10
67.646589
 20
208.219417
 30
0.0
 11
73.579632
 21
214.15246
 31
0.0
  0
LINE
  5
460
100
AcDbEntity
  8
0
 62
     0
100
AcDbLine
 10
67.547381
 20
208.261631
 30
0.0
 11
73.537949
 21
214.252198
 31
0.0
  0
LINE
  5
461
100
AcDbEntity
  8
0
 62
     0
100
AcDbLine
 10
67.448174
 20
208.303845
 30
0.0
 11
73.494358
 21
214.350029
 31
0.0
  0
LINE
  5
462
100
AcDbEntity
  8
0
 62
     0
100
AcDbLine
 10
67.348967
 20
208.346059
 30
0.0
 11
73.448628
 21
214.44572
 31
0.0
  0
LINE
  5
463
100
AcDbEntity
  8
0
 62
     0
100
AcDbLine
 10
67.24976
 20
208.388273
 30
0.0
 11
73.400817
 21
214.53933
 31
0.0
  0
LINE
  5
464
100
AcDbEntity
  8
0
 62
     0
100
AcDbLine
 10
67.150553
 20
208.430488
 30
0.0
 11
73.350978
 21
214.630913
 31
0.0
  0
LINE
  5
465
100
AcDbEntity
  8
0
 62
     0
100
AcDbLine
 10
67.051345
 20
208.472702
 30
0.0
 11
73.299157
 21
214.720513
 31
0.0
  0
LINE
  5
466
100
AcDbEntity
  8
0
 62
     0
100
AcDbLine
 10
66.952138
 20
208.514916
 30
0.0
 11
73.245395
 21
214.808173
 31
0.0
  0
LINE
  5
467
100
AcDbEntity
  8
0
 62
     0
100
AcDbLine
 10
66.852931
 20
208.55713
 30
0.0
 11
73.189728
 21
214.893927
 31
0.0
  0
LINE
  5
468
100
AcDbEntity
  8
0
 62
     0
100
AcDbLine
 10
66.753724
 20
208.599344
 30
0.0
 11
73.132186
 21
214.977806
 31
0.0
  0
LINE
  5
469
100
AcDbEntity
  8
0
 62
     0
100
AcDbLine
 10
66.654517
 20
208.641558
 30
0.0
 11
73.072795
 21
215.059837
 31
0.0
  0
LINE
  5
46A
100
AcDbEntity
  8
0
 62
     0
100
AcDbLine
 10
66.55531
 20
208.683773
 30
0.0
 11
73.011579
 21
215.140042
 31
0.0
  0
LINE
  5
46B
100
AcDbEntity
  8
0
 62
     0
100
AcDbLine
 10
66.456102
 20
208.725987
 30
0.0
 11
72.948556
 21
215.218441
 31
0.0
  0
LINE
  5
46C
100
AcDbEntity
  8
0
 62
     0
100
AcDbLine
 10
66.356895
 20
208.768201
 30
0.0
 11
72.88374
 21
215.295046
 31
0.0
  0
LINE
  5
46D
100
AcDbEntity
  8
0
 62
     0
100
AcDbLine
 10
66.257688
 20
208.810415
 30
0.0
 11
72.817143
 21
215.36987
 31
0.0
  0
LINE
  5
46E
100
AcDbEntity
  8
0
 62
     0
100
AcDbLine
 10
66.158481
 20
208.852629
 30
0.0
 11
72.748772
 21
215.442921
 31
0.0
  0
LINE
  5
46F
100
AcDbEntity
  8
0
 62
     0
100
AcDbLine
 10
66.059274
 20
208.894843
 30
0.0
 11
72.678632
 21
215.514202
 31
0.0
  0
LINE
  5
470
100
AcDbEntity
  8
0
 62
     0
100
AcDbLine
 10
65.960066
 20
208.937058
 30
0.0
 11
72.606724
 21
215.583715
 31
0.0
  0
LINE
  5
471
100
AcDbEntity
  8
0
 62
     0
100
AcDbLine
 10
65.860859
 20
208.979272
 30
0.0
 11
72.533046
 21
215.651458
 31
0.0
  0
LINE
  5
472
100
AcDbEntity
  8
0
 62
     0
100
AcDbLine
 10
65.761652
 20
209.021486
 30
0.0
 11
72.457592
 21
215.717425
 31
0.0
  0
LINE
  5
473
100
AcDbEntity
  8
0
 62
     0
100
AcDbLine
 10
65.662445
 20
209.0637
 30
0.0
 11
72.380352
 21
215.781607
 31
0.0
  0
LINE
  5
474
100
AcDbEntity
  8
0
 62
     0
100
AcDbLine
 10
65.563238
 20
209.105914
 30
0.0
 11
72.301316
 21
215.843992
 31
0.0
  0
LINE
  5
475
100
AcDbEntity
  8
0
 62
     0
100
AcDbLine
 10
65.46403
 20
209.148128
 30
0.0
 11
72.220466
 21
215.904563
 31
0.0
  0
LINE
  5
476
100
AcDbEntity
  8
0
 62
     0
100
AcDbLine
 10
65.364823
 20
209.190343
 30
0.0
 11
72.137782
 21
215.963301
 31
0.0
  0
LINE
  5
477
100
AcDbEntity
  8
0
 62
     0
100
AcDbLine
 10
65.265616
 20
209.232557
 30
0.0
 11
72.053242
 21
216.020182
 31
0.0
  0
LINE
  5
478
100
AcDbEntity
  8
0
 62
     0
100
AcDbLine
 10
65.166409
 20
209.274771
 30
0.0
 11
71.966816
 21
216.075178
 31
0.0
  0
LINE
  5
479
100
AcDbEntity
  8
0
 62
     0
100
AcDbLine
 10
65.067202
 20
209.316985
 30
0.0
 11
71.878473
 21
216.128257
 31
0.0
  0
LINE
  5
47A
100
AcDbEntity
  8
0
 62
     0
100
AcDbLine
 10
64.967995
 20
209.359199
 30
0.0
 11
71.788175
 21
216.17938
 31
0.0
  0
LINE
  5
47B
100
AcDbEntity
  8
0
 62
     0
100
AcDbLine
 10
64.868787
 20
209.401413
 30
0.0
 11
71.69588
 21
216.228506
 31
0.0
  0
LINE
  5
47C
100
AcDbEntity
  8
0
 62
     0
100
AcDbLine
 10
64.76958
 20
209.443628
 30
0.0
 11
71.601539
 21
216.275586
 31
0.0
  0
LINE
  5
47D
100
AcDbEntity
  8
0
 62
     0
100
AcDbLine
 10
64.670373
 20
209.485842
 30
0.0
 11
71.505097
 21
216.320565
 31
0.0
  0
LINE
  5
47E
100
AcDbEntity
  8
0
 62
     0
100
AcDbLine
 10
64.571166
 20
209.528056
 30
0.0
 11
71.406492
 21
216.363382
 31
0.0
  0
LINE
  5
47F
100
AcDbEntity
  8
0
 62
     0
100
AcDbLine
 10
64.471959
 20
209.57027
 30
0.0
 11
71.305654
 21
216.403966
 31
0.0
  0
LINE
  5
480
100
AcDbEntity
  8
0
 62
     0
100
AcDbLine
 10
64.372751
 20
209.612484
 30
0.0
 11
71.202505
 21
216.442238
 31
0.0
  0
LINE
  5
481
100
AcDbEntity
  8
0
 62
     0
100
AcDbLine
 10
64.273544
 20
209.654698
 30
0.0
 11
71.096954
 21
216.478109
 31
0.0
  0
LINE
  5
482
100
AcDbEntity
  8
0
 62
     0
100
AcDbLine
 10
64.174337
 20
209.696913
 30
0.0
 11
70.988902
 21
216.511477
 31
0.0
  0
LINE
  5
483
100
AcDbEntity
  8
0
 62
     0
100
AcDbLine
 10
64.07513
 20
209.739127
 30
0.0
 11
70.878233
 21
216.542229
 31
0.0
  0
LINE
  5
484
100
AcDbEntity
  8
0
 62
     0
100
AcDbLine
 10
63.975923
 20
209.781341
 30
0.0
 11
70.764816
 21
216.570234
 31
0.0
  0
LINE
  5
485
100
AcDbEntity
  8
0
 62
     0
100
AcDbLine
 10
63.876716
 20
209.823555
 30
0.0
 11
70.648501
 21
216.595341
 31
0.0
  0
LINE
  5
486
100
AcDbEntity
  8
0
 62
     0
100
AcDbLine
 10
63.777508
 20
209.865769
 30
0.0
 11
70.529118
 21
216.617379
 31
0.0
  0
LINE
  5
487
100
AcDbEntity
  8
0
 62
     0
100
AcDbLine
 10
63.678301
 20
209.907983
 30
0.0
 11
70.406467
 21
216.636149
 31
0.0
  0
LINE
  5
488
100
AcDbEntity
  8
0
 62
     0
100
AcDbLine
 10
63.579094
 20
209.950198
 30
0.0
 11
70.280316
 21
216.65142
 31
0.0
  0
LINE
  5
489
100
AcDbEntity
  8
0
 62
     0
100
AcDbLine
 10
63.479887
 20
209.992412
 30
0.0
 11
70.150394
 21
216.662919
 31
0.0
  0
LINE
  5
48A
100
AcDbEntity
  8
0
 62
     0
100
AcDbLine
 10
63.38068
 20
210.034626
 30
0.0
 11
70.016376
 21
216.670323
 31
0.0
  0
LINE
  5
48B
100
AcDbEntity
  8
0
 62
     0
100
AcDbLine
 10
63.281472
 20
210.07684
 30
0.0
 11
69.877877
 21
216.673245
 31
0.0
  0
LINE
  5
48C
100
AcDbEntity
  8
0
 62
     0
100
AcDbLine
 10
63.182265
 20
210.119054
 30
0.0
 11
69.736484
 21
216.673274
 31
0.0
  0
LINE
  5
48D
100
AcDbEntity
  8
0
 62
     0
100
AcDbLine
 10
63.083058
 20
210.161268
 30
0.0
 11
69.595063
 21
216.673274
 31
0.0
  0
LINE
  5
48E
100
AcDbEntity
  8
0
 62
     0
100
AcDbLine
 10
62.983851
 20
210.203483
 30
0.0
 11
69.453642
 21
216.673274
 31
0.0
  0
LINE
  5
48F
100
AcDbEntity
  8
0
 62
     0
100
AcDbLine
 10
62.884644
 20
210.245697
 30
0.0
 11
69.31222
 21
216.673274
 31
0.0
  0
LINE
  5
490
100
AcDbEntity
  8
0
 62
     0
100
AcDbLine
 10
62.785436
 20
210.287911
 30
0.0
 11
69.170799
 21
216.673274
 31
0.0
  0
LINE
  5
491
100
AcDbEntity
  8
0
 62
     0
100
AcDbLine
 10
62.686229
 20
210.330125
 30
0.0
 11
69.029378
 21
216.673274
 31
0.0
  0
LINE
  5
492
100
AcDbEntity
  8
0
 62
     0
100
AcDbLine
 10
62.587022
 20
210.372339
 30
0.0
 11
68.887956
 21
216.673274
 31
0.0
  0
LINE
  5
493
100
AcDbEntity
  8
0
 62
     0
100
AcDbLine
 10
62.487815
 20
210.414554
 30
0.0
 11
68.746535
 21
216.673274
 31
0.0
  0
LINE
  5
494
100
AcDbEntity
  8
0
 62
     0
100
AcDbLine
 10
62.388608
 20
210.456768
 30
0.0
 11
68.605114
 21
216.673274
 31
0.0
  0
LINE
  5
495
100
AcDbEntity
  8
0
 62
     0
100
AcDbLine
 10
62.289401
 20
210.498982
 30
0.0
 11
68.463692
 21
216.673274
 31
0.0
  0
LINE
  5
496
100
AcDbEntity
  8
0
 62
     0
100
AcDbLine
 10
62.190193
 20
210.541196
 30
0.0
 11
68.322271
 21
216.673274
 31
0.0
  0
LINE
  5
497
100
AcDbEntity
  8
0
 62
     0
100
AcDbLine
 10
62.090986
 20
210.58341
 30
0.0
 11
68.18085
 21
216.673274
 31
0.0
  0
LINE
  5
498
100
AcDbEntity
  8
0
 62
     0
100
AcDbLine
 10
61.991779
 20
210.625624
 30
0.0
 11
68.039428
 21
216.673274
 31
0.0
  0
LINE
  5
499
100
AcDbEntity
  8
0
 62
     0
100
AcDbLine
 10
61.892572
 20
210.667839
 30
0.0
 11
67.898007
 21
216.673274
 31
0.0
  0
LINE
  5
49A
100
AcDbEntity
  8
0
 62
     0
100
AcDbLine
 10
61.793365
 20
210.710053
 30
0.0
 11
67.756585
 21
216.673274
 31
0.0
  0
LINE
  5
49B
100
AcDbEntity
  8
0
 62
     0
100
AcDbLine
 10
61.694157
 20
210.752267
 30
0.0
 11
67.615164
 21
216.673274
 31
0.0
  0
LINE
  5
49C
100
AcDbEntity
  8
0
 62
     0
100
AcDbLine
 10
61.59495
 20
210.794481
 30
0.0
 11
67.473743
 21
216.673274
 31
0.0
  0
LINE
  5
49D
100
AcDbEntity
  8
0
 62
     0
100
AcDbLine
 10
61.495743
 20
210.836695
 30
0.0
 11
67.332321
 21
216.673274
 31
0.0
  0
LINE
  5
49E
100
AcDbEntity
  8
0
 62
     0
100
AcDbLine
 10
61.396536
 20
210.878909
 30
0.0
 11
67.1909
 21
216.673274
 31
0.0
  0
LINE
  5
49F
100
AcDbEntity
  8
0
 62
     0
100
AcDbLine
 10
61.297329
 20
210.921124
 30
0.0
 11
67.049479
 21
216.673274
 31
0.0
  0
LINE
  5
4A0
100
AcDbEntity
  8
0
 62
     0
100
AcDbLine
 10
61.198121
 20
210.963338
 30
0.0
 11
66.908057
 21
216.673274
 31
0.0
  0
LINE
  5
4A1
100
AcDbEntity
  8
0
 62
     0
100
AcDbLine
 10
61.098914
 20
211.005552
 30
0.0
 11
66.766636
 21
216.673274
 31
0.0
  0
LINE
  5
4A2
100
AcDbEntity
  8
0
 62
     0
100
AcDbLine
 10
60.999707
 20
211.047766
 30
0.0
 11
66.625215
 21
216.673274
 31
0.0
  0
LINE
  5
4A3
100
AcDbEntity
  8
0
 62
     0
100
AcDbLine
 10
60.9005
 20
211.08998
 30
0.0
 11
66.483793
 21
216.673274
 31
0.0
  0
LINE
  5
4A4
100
AcDbEntity
  8
0
 62
     0
100
AcDbLine
 10
60.801293
 20
211.132194
 30
0.0
 11
66.342372
 21
216.673274
 31
0.0
  0
LINE
  5
4A5
100
AcDbEntity
  8
0
 62
     0
100
AcDbLine
 10
60.702086
 20
211.174409
 30
0.0
 11
66.200951
 21
216.673274
 31
0.0
  0
LINE
  5
4A6
100
AcDbEntity
  8
0
 62
     0
100
AcDbLine
 10
60.602878
 20
211.216623
 30
0.0
 11
66.059529
 21
216.673274
 31
0.0
  0
LINE
  5
4A7
100
AcDbEntity
  8
0
 62
     0
100
AcDbLine
 10
60.503671
 20
211.258837
 30
0.0
 11
65.918108
 21
216.673274
 31
0.0
  0
LINE
  5
4A8
100
AcDbEntity
  8
0
 62
     0
100
AcDbLine
 10
60.404464
 20
211.301051
 30
0.0
 11
65.776686
 21
216.673274
 31
0.0
  0
LINE
  5
4A9
100
AcDbEntity
  8
0
 62
     0
100
AcDbLine
 10
60.305257
 20
211.343265
 30
0.0
 11
65.635265
 21
216.673274
 31
0.0
  0
LINE
  5
4AA
100
AcDbEntity
  8
0
 62
     0
100
AcDbLine
 10
60.20605
 20
211.385479
 30
0.0
 11
65.493844
 21
216.673274
 31
0.0
  0
LINE
  5
4AB
100
AcDbEntity
  8
0
 62
     0
100
AcDbLine
 10
60.106842
 20
211.427694
 30
0.0
 11
65.352422
 21
216.673274
 31
0.0
  0
LINE
  5
4AC
100
AcDbEntity
  8
0
 62
     0
100
AcDbLine
 10
60.007635
 20
211.469908
 30
0.0
 11
65.211001
 21
216.673274
 31
0.0
  0
LINE
  5
4AD
100
AcDbEntity
  8
0
 62
     0
100
AcDbLine
 10
59.908428
 20
211.512122
 30
0.0
 11
65.06958
 21
216.673274
 31
0.0
  0
LINE
  5
4AE
100
AcDbEntity
  8
0
 62
     0
100
AcDbLine
 10
59.809221
 20
211.554336
 30
0.0
 11
64.928158
 21
216.673274
 31
0.0
  0
LINE
  5
4AF
100
AcDbEntity
  8
0
 62
     0
100
AcDbLine
 10
59.710014
 20
211.59655
 30
0.0
 11
64.786737
 21
216.673274
 31
0.0
  0
LINE
  5
4B0
100
AcDbEntity
  8
0
 62
     0
100
AcDbLine
 10
59.610806
 20
211.638764
 30
0.0
 11
64.645316
 21
216.673274
 31
0.0
  0
LINE
  5
4B1
100
AcDbEntity
  8
0
 62
     0
100
AcDbLine
 10
59.511599
 20
211.680979
 30
0.0
 11
64.503894
 21
216.673274
 31
0.0
  0
LINE
  5
4B2
100
AcDbEntity
  8
0
 62
     0
100
AcDbLine
 10
59.412392
 20
211.723193
 30
0.0
 11
64.362473
 21
216.673274
 31
0.0
  0
LINE
  5
4B3
100
AcDbEntity
  8
0
 62
     0
100
AcDbLine
 10
59.313185
 20
211.765407
 30
0.0
 11
64.221052
 21
216.673274
 31
0.0
  0
LINE
  5
4B4
100
AcDbEntity
  8
0
 62
     0
100
AcDbLine
 10
59.213978
 20
211.807621
 30
0.0
 11
64.07963
 21
216.673274
 31
0.0
  0
LINE
  5
4B5
100
AcDbEntity
  8
0
 62
     0
100
AcDbLine
 10
59.114771
 20
211.849835
 30
0.0
 11
63.938209
 21
216.673274
 31
0.0
  0
LINE
  5
4B6
100
AcDbEntity
  8
0
 62
     0
100
AcDbLine
 10
59.015563
 20
211.892049
 30
0.0
 11
63.796787
 21
216.673274
 31
0.0
  0
LINE
  5
4B7
100
AcDbEntity
  8
0
 62
     0
100
AcDbLine
 10
58.916356
 20
211.934264
 30
0.0
 11
63.655366
 21
216.673274
 31
0.0
  0
LINE
  5
4B8
100
AcDbEntity
  8
0
 62
     0
100
AcDbLine
 10
58.817149
 20
211.976478
 30
0.0
 11
63.513945
 21
216.673274
 31
0.0
  0
LINE
  5
4B9
100
AcDbEntity
  8
0
 62
     0
100
AcDbLine
 10
58.717942
 20
212.018692
 30
0.0
 11
63.372523
 21
216.673274
 31
0.0
  0
LINE
  5
4BA
100
AcDbEntity
  8
0
 62
     0
100
AcDbLine
 10
58.618735
 20
212.060906
 30
0.0
 11
63.231102
 21
216.673274
 31
0.0
  0
LINE
  5
4BB
100
AcDbEntity
  8
0
 62
     0
100
AcDbLine
 10
58.519527
 20
212.10312
 30
0.0
 11
63.089681
 21
216.673274
 31
0.0
  0
LINE
  5
4BC
100
AcDbEntity
  8
0
 62
     0
100
AcDbLine
 10
58.42032
 20
212.145334
 30
0.0
 11
62.948259
 21
216.673274
 31
0.0
  0
LINE
  5
4BD
100
AcDbEntity
  8
0
 62
     0
100
AcDbLine
 10
58.321113
 20
212.187549
 30
0.0
 11
62.806838
 21
216.673274
 31
0.0
  0
LINE
  5
4BE
100
AcDbEntity
  8
0
 62
     0
100
AcDbLine
 10
58.221906
 20
212.229763
 30
0.0
 11
62.665417
 21
216.673274
 31
0.0
  0
LINE
  5
4BF
100
AcDbEntity
  8
0
 62
     0
100
AcDbLine
 10
58.122699
 20
212.271977
 30
0.0
 11
62.523995
 21
216.673274
 31
0.0
  0
LINE
  5
4C0
100
AcDbEntity
  8
0
 62
     0
100
AcDbLine
 10
58.023491
 20
212.314191
 30
0.0
 11
62.382574
 21
216.673274
 31
0.0
  0
LINE
  5
4C1
100
AcDbEntity
  8
0
 62
     0
100
AcDbLine
 10
57.924284
 20
212.356405
 30
0.0
 11
62.241153
 21
216.673274
 31
0.0
  0
LINE
  5
4C2
100
AcDbEntity
  8
0
 62
     0
100
AcDbLine
 10
57.825077
 20
212.398619
 30
0.0
 11
62.099731
 21
216.673274
 31
0.0
  0
LINE
  5
4C3
100
AcDbEntity
  8
0
 62
     0
100
AcDbLine
 10
57.72587
 20
212.440834
 30
0.0
 11
61.95831
 21
216.673274
 31
0.0
  0
LINE
  5
4C4
100
AcDbEntity
  8
0
 62
     0
100
AcDbLine
 10
57.626663
 20
212.483048
 30
0.0
 11
61.816888
 21
216.673274
 31
0.0
  0
LINE
  5
4C5
100
AcDbEntity
  8
0
 62
     0
100
AcDbLine
 10
57.527456
 20
212.525262
 30
0.0
 11
61.675467
 21
216.673274
 31
0.0
  0
LINE
  5
4C6
100
AcDbEntity
  8
0
 62
     0
100
AcDbLine
 10
57.428248
 20
212.567476
 30
0.0
 11
61.534046
 21
216.673274
 31
0.0
  0
LINE
  5
4C7
100
AcDbEntity
  8
0
 62
     0
100
AcDbLine
 10
57.329041
 20
212.60969
 30
0.0
 11
61.392624
 21
216.673274
 31
0.0
  0
LINE
  5
4C8
100
AcDbEntity
  8
0
 62
     0
100
AcDbLine
 10
57.229834
 20
212.651904
 30
0.0
 11
61.251203
 21
216.673274
 31
0.0
  0
LINE
  5
4C9
100
AcDbEntity
  8
0
 62
     0
100
AcDbLine
 10
57.130627
 20
212.694119
 30
0.0
 11
61.109782
 21
216.673274
 31
0.0
  0
LINE
  5
4CA
100
AcDbEntity
  8
0
 62
     0
100
AcDbLine
 10
57.03142
 20
212.736333
 30
0.0
 11
60.96836
 21
216.673274
 31
0.0
  0
LINE
  5
4CB
100
AcDbEntity
  8
0
 62
     0
100
AcDbLine
 10
56.932212
 20
212.778547
 30
0.0
 11
60.826939
 21
216.673274
 31
0.0
  0
LINE
  5
4CC
100
AcDbEntity
  8
0
 62
     0
100
AcDbLine
 10
56.833005
 20
212.820761
 30
0.0
 11
60.685518
 21
216.673274
 31
0.0
  0
LINE
  5
4CD
100
AcDbEntity
  8
0
 62
     0
100
AcDbLine
 10
56.733798
 20
212.862975
 30
0.0
 11
60.544096
 21
216.673274
 31
0.0
  0
LINE
  5
4CE
100
AcDbEntity
  8
0
 62
     0
100
AcDbLine
 10
56.634591
 20
212.90519
 30
0.0
 11
60.402675
 21
216.673274
 31
0.0
  0
LINE
  5
4CF
100
AcDbEntity
  8
0
 62
     0
100
AcDbLine
 10
56.535384
 20
212.947404
 30
0.0
 11
60.261254
 21
216.673274
 31
0.0
  0
LINE
  5
4D0
100
AcDbEntity
  8
0
 62
     0
100
AcDbLine
 10
56.436176
 20
212.989618
 30
0.0
 11
60.119832
 21
216.673274
 31
0.0
  0
LINE
  5
4D1
100
AcDbEntity
  8
0
 62
     0
100
AcDbLine
 10
56.336969
 20
213.031832
 30
0.0
 11
59.978411
 21
216.673274
 31
0.0
  0
LINE
  5
4D2
100
AcDbEntity
  8
0
 62
     0
100
AcDbLine
 10
56.237762
 20
213.074046
 30
0.0
 11
59.836989
 21
216.673274
 31
0.0
  0
LINE
  5
4D3
100
AcDbEntity
  8
0
 62
     0
100
AcDbLine
 10
56.138555
 20
213.11626
 30
0.0
 11
59.695568
 21
216.673274
 31
0.0
  0
LINE
  5
4D4
100
AcDbEntity
  8
0
 62
     0
100
AcDbLine
 10
56.039348
 20
213.158475
 30
0.0
 11
59.554147
 21
216.673274
 31
0.0
  0
LINE
  5
4D5
100
AcDbEntity
  8
0
 62
     0
100
AcDbLine
 10
55.940141
 20
213.200689
 30
0.0
 11
59.412725
 21
216.673274
 31
0.0
  0
LINE
  5
4D6
100
AcDbEntity
  8
0
 62
     0
100
AcDbLine
 10
55.840933
 20
213.242903
 30
0.0
 11
59.271304
 21
216.673274
 31
0.0
  0
LINE
  5
4D7
100
AcDbEntity
  8
0
 62
     0
100
AcDbLine
 10
55.741726
 20
213.285117
 30
0.0
 11
59.129883
 21
216.673274
 31
0.0
  0
LINE
  5
4D8
100
AcDbEntity
  8
0
 62
     0
100
AcDbLine
 10
55.642519
 20
213.327331
 30
0.0
 11
58.988461
 21
216.673274
 31
0.0
  0
LINE
  5
4D9
100
AcDbEntity
  8
0
 62
     0
100
AcDbLine
 10
55.543312
 20
213.369545
 30
0.0
 11
58.84704
 21
216.673274
 31
0.0
  0
LINE
  5
4DA
100
AcDbEntity
  8
0
 62
     0
100
AcDbLine
 10
55.444105
 20
213.41176
 30
0.0
 11
58.705619
 21
216.673274
 31
0.0
  0
LINE
  5
4DB
100
AcDbEntity
  8
0
 62
     0
100
AcDbLine
 10
55.344897
 20
213.453974
 30
0.0
 11
58.564197
 21
216.673274
 31
0.0
  0
LINE
  5
4DC
100
AcDbEntity
  8
0
 62
     0
100
AcDbLine
 10
55.24569
 20
213.496188
 30
0.0
 11
58.422776
 21
216.673274
 31
0.0
  0
LINE
  5
4DD
100
AcDbEntity
  8
0
 62
     0
100
AcDbLine
 10
55.146483
 20
213.538402
 30
0.0
 11
58.281355
 21
216.673274
 31
0.0
  0
LINE
  5
4DE
100
AcDbEntity
  8
0
 62
     0
100
AcDbLine
 10
55.047276
 20
213.580616
 30
0.0
 11
58.139933
 21
216.673274
 31
0.0
  0
LINE
  5
4DF
100
AcDbEntity
  8
0
 62
     0
100
AcDbLine
 10
55.035477
 20
213.710238
 30
0.0
 11
57.998512
 21
216.673274
 31
0.0
  0
LINE
  5
4E0
100
AcDbEntity
  8
0
 62
     0
100
AcDbLine
 10
55.035477
 20
213.85166
 30
0.0
 11
57.857091
 21
216.673274
 31
0.0
  0
LINE
  5
4E1
100
AcDbEntity
  8
0
 62
     0
100
AcDbLine
 10
55.035477
 20
213.993081
 30
0.0
 11
57.715669
 21
216.673274
 31
0.0
  0
LINE
  5
4E2
100
AcDbEntity
  8
0
 62
     0
100
AcDbLine
 10
55.035477
 20
214.134502
 30
0.0
 11
57.574248
 21
216.673274
 31
0.0
  0
LINE
  5
4E3
100
AcDbEntity
  8
0
 62
     0
100
AcDbLine
 10
55.035477
 20
214.275924
 30
0.0
 11
57.432826
 21
216.673274
 31
0.0
  0
LINE
  5
4E4
100
AcDbEntity
  8
0
 62
     0
100
AcDbLine
 10
55.035477
 20
214.417345
 30
0.0
 11
57.291405
 21
216.673274
 31
0.0
  0
LINE
  5
4E5
100
AcDbEntity
  8
0
 62
     0
100
AcDbLine
 10
55.035477
 20
214.558766
 30
0.0
 11
57.149984
 21
216.673274
 31
0.0
  0
LINE
  5
4E6
100
AcDbEntity
  8
0
 62
     0
100
AcDbLine
 10
55.035477
 20
214.700188
 30
0.0
 11
57.008562
 21
216.673274
 31
0.0
  0
LINE
  5
4E7
100
AcDbEntity
  8
0
 62
     0
100
AcDbLine
 10
55.035477
 20
214.841609
 30
0.0
 11
56.867141
 21
216.673274
 31
0.0
  0
LINE
  5
4E8
100
AcDbEntity
  8
0
 62
     0
100
AcDbLine
 10
55.035477
 20
214.983031
 30
0.0
 11
56.72572
 21
216.673274
 31
0.0
  0
LINE
  5
4E9
100
AcDbEntity
  8
0
 62
     0
100
AcDbLine
 10
55.035477
 20
215.124452
 30
0.0
 11
56.584298
 21
216.673274
 31
0.0
  0
LINE
  5
4EA
100
AcDbEntity
  8
0
 62
     0
100
AcDbLine
 10
55.035477
 20
215.265873
 30
0.0
 11
56.442877
 21
216.673274
 31
0.0
  0
LINE
  5
4EB
100
AcDbEntity
  8
0
 62
     0
100
AcDbLine
 10
55.035477
 20
215.407295
 30
0.0
 11
56.301456
 21
216.673274
 31
0.0
  0
LINE
  5
4EC
100
AcDbEntity
  8
0
 62
     0
100
AcDbLine
 10
55.035477
 20
215.548716
 30
0.0
 11
56.160034
 21
216.673274
 31
0.0
  0
LINE
  5
4ED
100
AcDbEntity
  8
0
 62
     0
100
AcDbLine
 10
121.980094
 20
215.035346
 30
0.0
 11
122.846119
 21
215.901371
 31
0.0
  0
LINE
  5
4EE
100
AcDbEntity
  8
0
 62
     0
100
AcDbLine
 10
121.723695
 20
214.637527
 30
0.0
 11
123.243938
 21
216.157769
 31
0.0
  0
LINE
  5
4EF
100
AcDbEntity
  8
0
 62
     0
100
AcDbLine
 10
121.575717
 20
214.348127
 30
0.0
 11
123.533338
 21
216.305747
 31
0.0
  0
LINE
  5
4F0
100
AcDbEntity
  8
0
 62
     0
100
AcDbLine
 10
121.470002
 20
214.10099
 30
0.0
 11
123.777781
 21
216.408769
 31
0.0
  0
LINE
  5
4F1
100
AcDbEntity
  8
0
 62
     0
100
AcDbLine
 10
121.370002
 20
213.859569
 30
0.0
 11
123.995425
 21
216.484992
 31
0.0
  0
LINE
  5
4F2
100
AcDbEntity
  8
0
 62
     0
100
AcDbLine
 10
121.270002
 20
213.618148
 30
0.0
 11
124.194568
 21
216.542714
 31
0.0
  0
LINE
  5
4F3
100
AcDbEntity
  8
0
 62
     0
100
AcDbLine
 10
121.170002
 20
213.376726
 30
0.0
 11
124.379838
 21
216.586563
 31
0.0
  0
LINE
  5
4F4
100
AcDbEntity
  8
0
 62
     0
100
AcDbLine
 10
121.070002
 20
213.135305
 30
0.0
 11
124.554135
 21
216.619438
 31
0.0
  0
LINE
  5
4F5
100
AcDbEntity
  8
0
 62
     0
100
AcDbLine
 10
120.970002
 20
212.893884
 30
0.0
 11
124.719417
 21
216.643299
 31
0.0
  0
LINE
  5
4F6
100
AcDbEntity
  8
0
 62
     0
100
AcDbLine
 10
120.870002
 20
212.652462
 30
0.0
 11
124.877086
 21
216.659546
 31
0.0
  0
LINE
  5
4F7
100
AcDbEntity
  8
0
 62
     0
100
AcDbLine
 10
120.770002
 20
212.411041
 30
0.0
 11
125.028182
 21
216.669221
 31
0.0
  0
LINE
  5
4F8
100
AcDbEntity
  8
0
 62
     0
100
AcDbLine
 10
120.670002
 20
212.16962
 30
0.0
 11
125.173506
 21
216.673123
 31
0.0
  0
LINE
  5
4F9
100
AcDbEntity
  8
0
 62
     0
100
AcDbLine
 10
120.570002
 20
211.928198
 30
0.0
 11
125.315077
 21
216.673274
 31
0.0
  0
LINE
  5
4FA
100
AcDbEntity
  8
0
 62
     0
100
AcDbLine
 10
120.470002
 20
211.686777
 30
0.0
 11
125.456499
 21
216.673274
 31
0.0
  0
LINE
  5
4FB
100
AcDbEntity
  8
0
 62
     0
100
AcDbLine
 10
120.370002
 20
211.445355
 30
0.0
 11
125.59792
 21
216.673274
 31
0.0
  0
LINE
  5
4FC
100
AcDbEntity
  8
0
 62
     0
100
AcDbLine
 10
120.270002
 20
211.203934
 30
0.0
 11
125.739342
 21
216.673274
 31
0.0
  0
LINE
  5
4FD
100
AcDbEntity
  8
0
 62
     0
100
AcDbLine
 10
120.170002
 20
210.962513
 30
0.0
 11
125.880763
 21
216.673274
 31
0.0
  0
LINE
  5
4FE
100
AcDbEntity
  8
0
 62
     0
100
AcDbLine
 10
120.070002
 20
210.721091
 30
0.0
 11
126.022184
 21
216.673274
 31
0.0
  0
LINE
  5
4FF
100
AcDbEntity
  8
0
 62
     0
100
AcDbLine
 10
119.970002
 20
210.47967
 30
0.0
 11
126.163606
 21
216.673274
 31
0.0
  0
LINE
  5
500
100
AcDbEntity
  8
0
 62
     0
100
AcDbLine
 10
119.870002
 20
210.238249
 30
0.0
 11
126.305027
 21
216.673274
 31
0.0
  0
LINE
  5
501
100
AcDbEntity
  8
0
 62
     0
100
AcDbLine
 10
119.770002
 20
209.996827
 30
0.0
 11
126.446448
 21
216.673274
 31
0.0
  0
LINE
  5
502
100
AcDbEntity
  8
0
 62
     0
100
AcDbLine
 10
119.670002
 20
209.755406
 30
0.0
 11
126.58787
 21
216.673274
 31
0.0
  0
LINE
  5
503
100
AcDbEntity
  8
0
 62
     0
100
AcDbLine
 10
119.570002
 20
209.513985
 30
0.0
 11
126.729291
 21
216.673274
 31
0.0
  0
LINE
  5
504
100
AcDbEntity
  8
0
 62
     0
100
AcDbLine
 10
119.470002
 20
209.272563
 30
0.0
 11
126.870712
 21
216.673274
 31
0.0
  0
LINE
  5
505
100
AcDbEntity
  8
0
 62
     0
100
AcDbLine
 10
119.370002
 20
209.031142
 30
0.0
 11
127.012134
 21
216.673274
 31
0.0
  0
LINE
  5
506
100
AcDbEntity
  8
0
 62
     0
100
AcDbLine
 10
119.270002
 20
208.789721
 30
0.0
 11
127.153555
 21
216.673274
 31
0.0
  0
LINE
  5
507
100
AcDbEntity
  8
0
 62
     0
100
AcDbLine
 10
119.170002
 20
208.548299
 30
0.0
 11
127.294976
 21
216.673274
 31
0.0
  0
LINE
  5
508
100
AcDbEntity
  8
0
 62
     0
100
AcDbLine
 10
119.070002
 20
208.306878
 30
0.0
 11
127.436398
 21
216.673274
 31
0.0
  0
LINE
  5
509
100
AcDbEntity
  8
0
 62
     0
100
AcDbLine
 10
118.970002
 20
208.065456
 30
0.0
 11
127.577819
 21
216.673274
 31
0.0
  0
LINE
  5
50A
100
AcDbEntity
  8
0
 62
     0
100
AcDbLine
 10
118.870002
 20
207.824035
 30
0.0
 11
127.71924
 21
216.673274
 31
0.0
  0
LINE
  5
50B
100
AcDbEntity
  8
0
 62
     0
100
AcDbLine
 10
118.770002
 20
207.582614
 30
0.0
 11
127.860662
 21
216.673274
 31
0.0
  0
LINE
  5
50C
100
AcDbEntity
  8
0
 62
     0
100
AcDbLine
 10
118.670002
 20
207.341192
 30
0.0
 11
128.002083
 21
216.673274
 31
0.0
  0
LINE
  5
50D
100
AcDbEntity
  8
0
 62
     0
100
AcDbLine
 10
118.570002
 20
207.099771
 30
0.0
 11
128.143505
 21
216.673274
 31
0.0
  0
LINE
  5
50E
100
AcDbEntity
  8
0
 62
     0
100
AcDbLine
 10
118.470002
 20
206.85835
 30
0.0
 11
128.284926
 21
216.673274
 31
0.0
  0
LINE
  5
50F
100
AcDbEntity
  8
0
 62
     0
100
AcDbLine
 10
118.370002
 20
206.616928
 30
0.0
 11
128.426347
 21
216.673274
 31
0.0
  0
LINE
  5
510
100
AcDbEntity
  8
0
 62
     0
100
AcDbLine
 10
118.270002
 20
206.375507
 30
0.0
 11
128.567769
 21
216.673274
 31
0.0
  0
LINE
  5
511
100
AcDbEntity
  8
0
 62
     0
100
AcDbLine
 10
118.170002
 20
206.134086
 30
0.0
 11
128.70919
 21
216.673274
 31
0.0
  0
LINE
  5
512
100
AcDbEntity
  8
0
 62
     0
100
AcDbLine
 10
118.070002
 20
205.892664
 30
0.0
 11
128.850611
 21
216.673274
 31
0.0
  0
LINE
  5
513
100
AcDbEntity
  8
0
 62
     0
100
AcDbLine
 10
117.970002
 20
205.651243
 30
0.0
 11
128.992033
 21
216.673274
 31
0.0
  0
LINE
  5
514
100
AcDbEntity
  8
0
 62
     0
100
AcDbLine
 10
117.870002
 20
205.409822
 30
0.0
 11
129.133454
 21
216.673274
 31
0.0
  0
LINE
  5
515
100
AcDbEntity
  8
0
 62
     0
100
AcDbLine
 10
117.770002
 20
205.1684
 30
0.0
 11
129.274875
 21
216.673274
 31
0.0
  0
LINE
  5
516
100
AcDbEntity
  8
0
 62
     0
100
AcDbLine
 10
117.670002
 20
204.926979
 30
0.0
 11
129.416297
 21
216.673274
 31
0.0
  0
LINE
  5
517
100
AcDbEntity
  8
0
 62
     0
100
AcDbLine
 10
117.570002
 20
204.685557
 30
0.0
 11
129.557718
 21
216.673274
 31
0.0
  0
LINE
  5
518
100
AcDbEntity
  8
0
 62
     0
100
AcDbLine
 10
117.470002
 20
204.444136
 30
0.0
 11
129.699139
 21
216.673274
 31
0.0
  0
LINE
  5
519
100
AcDbEntity
  8
0
 62
     0
100
AcDbLine
 10
117.370002
 20
204.202715
 30
0.0
 11
129.840561
 21
216.673274
 31
0.0
  0
LINE
  5
51A
100
AcDbEntity
  8
0
 62
     0
100
AcDbLine
 10
117.270002
 20
203.961293
 30
0.0
 11
129.981982
 21
216.673274
 31
0.0
  0
LINE
  5
51B
100
AcDbEntity
  8
0
 62
     0
100
AcDbLine
 10
117.407009
 20
203.956879
 30
0.0
 11
130.123404
 21
216.673274
 31
0.0
  0
LINE
  5
51C
100
AcDbEntity
  8
0
 62
     0
100
AcDbLine
 10
117.65318
 20
204.061629
 30
0.0
 11
130.264825
 21
216.673274
 31
0.0
  0
LINE
  5
51D
100
AcDbEntity
  8
0
 62
     0
100
AcDbLine
 10
117.899351
 20
204.166378
 30
0.0
 11
130.406246
 21
216.673274
 31
0.0
  0
LINE
  5
51E
100
AcDbEntity
  8
0
 62
     0
100
AcDbLine
 10
118.145522
 20
204.271128
 30
0.0
 11
130.547668
 21
216.673274
 31
0.0
  0
LINE
  5
51F
100
AcDbEntity
  8
0
 62
     0
100
AcDbLine
 10
118.391692
 20
204.375877
 30
0.0
 11
130.689089
 21
216.673274
 31
0.0
  0
LINE
  5
520
100
AcDbEntity
  8
0
 62
     0
100
AcDbLine
 10
118.637863
 20
204.480627
 30
0.0
 11
130.83051
 21
216.673274
 31
0.0
  0
LINE
  5
521
100
AcDbEntity
  8
0
 62
     0
100
AcDbLine
 10
118.884034
 20
204.585376
 30
0.0
 11
130.971932
 21
216.673274
 31
0.0
  0
LINE
  5
522
100
AcDbEntity
  8
0
 62
     0
100
AcDbLine
 10
119.130205
 20
204.690125
 30
0.0
 11
131.113353
 21
216.673274
 31
0.0
  0
LINE
  5
523
100
AcDbEntity
  8
0
 62
     0
100
AcDbLine
 10
119.376376
 20
204.794875
 30
0.0
 11
131.254774
 21
216.673274
 31
0.0
  0
LINE
  5
524
100
AcDbEntity
  8
0
 62
     0
100
AcDbLine
 10
119.622546
 20
204.899624
 30
0.0
 11
131.396196
 21
216.673274
 31
0.0
  0
LINE
  5
525
100
AcDbEntity
  8
0
 62
     0
100
AcDbLine
 10
119.868717
 20
205.004374
 30
0.0
 11
131.537617
 21
216.673274
 31
0.0
  0
LINE
  5
526
100
AcDbEntity
  8
0
 62
     0
100
AcDbLine
 10
120.114888
 20
205.109123
 30
0.0
 11
131.679038
 21
216.673274
 31
0.0
  0
LINE
  5
527
100
AcDbEntity
  8
0
 62
     0
100
AcDbLine
 10
120.361059
 20
205.213872
 30
0.0
 11
131.82046
 21
216.673274
 31
0.0
  0
LINE
  5
528
100
AcDbEntity
  8
0
 62
     0
100
AcDbLine
 10
120.607229
 20
205.318622
 30
0.0
 11
131.961881
 21
216.673274
 31
0.0
  0
LINE
  5
529
100
AcDbEntity
  8
0
 62
     0
100
AcDbLine
 10
120.8534
 20
205.423371
 30
0.0
 11
132.103303
 21
216.673274
 31
0.0
  0
LINE
  5
52A
100
AcDbEntity
  8
0
 62
     0
100
AcDbLine
 10
121.099571
 20
205.528121
 30
0.0
 11
132.244724
 21
216.673274
 31
0.0
  0
LINE
  5
52B
100
AcDbEntity
  8
0
 62
     0
100
AcDbLine
 10
121.345742
 20
205.63287
 30
0.0
 11
132.386145
 21
216.673274
 31
0.0
  0
LINE
  5
52C
100
AcDbEntity
  8
0
 62
     0
100
AcDbLine
 10
121.591912
 20
205.737619
 30
0.0
 11
132.527567
 21
216.673274
 31
0.0
  0
LINE
  5
52D
100
AcDbEntity
  8
0
 62
     0
100
AcDbLine
 10
121.838083
 20
205.842369
 30
0.0
 11
132.668988
 21
216.673274
 31
0.0
  0
LINE
  5
52E
100
AcDbEntity
  8
0
 62
     0
100
AcDbLine
 10
122.084254
 20
205.947118
 30
0.0
 11
132.810409
 21
216.673274
 31
0.0
  0
LINE
  5
52F
100
AcDbEntity
  8
0
 62
     0
100
AcDbLine
 10
122.330425
 20
206.051868
 30
0.0
 11
132.951831
 21
216.673274
 31
0.0
  0
LINE
  5
530
100
AcDbEntity
  8
0
 62
     0
100
AcDbLine
 10
122.576596
 20
206.156617
 30
0.0
 11
133.093252
 21
216.673274
 31
0.0
  0
LINE
  5
531
100
AcDbEntity
  8
0
 62
     0
100
AcDbLine
 10
122.822766
 20
206.261367
 30
0.0
 11
133.234673
 21
216.673274
 31
0.0
  0
LINE
  5
532
100
AcDbEntity
  8
0
 62
     0
100
AcDbLine
 10
123.068937
 20
206.366116
 30
0.0
 11
133.376095
 21
216.673274
 31
0.0
  0
LINE
  5
533
100
AcDbEntity
  8
0
 62
     0
100
AcDbLine
 10
123.315108
 20
206.470865
 30
0.0
 11
133.517516
 21
216.673274
 31
0.0
  0
LINE
  5
534
100
AcDbEntity
  8
0
 62
     0
100
AcDbLine
 10
123.561279
 20
206.575615
 30
0.0
 11
133.658937
 21
216.673274
 31
0.0
  0
LINE
  5
535
100
AcDbEntity
  8
0
 62
     0
100
AcDbLine
 10
123.807449
 20
206.680364
 30
0.0
 11
133.800359
 21
216.673274
 31
0.0
  0
LINE
  5
536
100
AcDbEntity
  8
0
 62
     0
100
AcDbLine
 10
124.05362
 20
206.785114
 30
0.0
 11
133.94178
 21
216.673274
 31
0.0
  0
LINE
  5
537
100
AcDbEntity
  8
0
 62
     0
100
AcDbLine
 10
124.299791
 20
206.889863
 30
0.0
 11
134.083202
 21
216.673274
 31
0.0
  0
LINE
  5
538
100
AcDbEntity
  8
0
 62
     0
100
AcDbLine
 10
124.545962
 20
206.994612
 30
0.0
 11
134.224623
 21
216.673274
 31
0.0
  0
LINE
  5
539
100
AcDbEntity
  8
0
 62
     0
100
AcDbLine
 10
124.792132
 20
207.099362
 30
0.0
 11
134.366044
 21
216.673274
 31
0.0
  0
LINE
  5
53A
100
AcDbEntity
  8
0
 62
     0
100
AcDbLine
 10
125.038303
 20
207.204111
 30
0.0
 11
134.507466
 21
216.673274
 31
0.0
  0
LINE
  5
53B
100
AcDbEntity
  8
0
 62
     0
100
AcDbLine
 10
125.284474
 20
207.308861
 30
0.0
 11
134.648887
 21
216.673274
 31
0.0
  0
LINE
  5
53C
100
AcDbEntity
  8
0
 62
     0
100
AcDbLine
 10
125.530645
 20
207.41361
 30
0.0
 11
134.790308
 21
216.673274
 31
0.0
  0
LINE
  5
53D
100
AcDbEntity
  8
0
 62
     0
100
AcDbLine
 10
125.776816
 20
207.518359
 30
0.0
 11
134.93173
 21
216.673274
 31
0.0
  0
LINE
  5
53E
100
AcDbEntity
  8
0
 62
     0
100
AcDbLine
 10
126.022986
 20
207.623109
 30
0.0
 11
135.073151
 21
216.673274
 31
0.0
  0
LINE
  5
53F
100
AcDbEntity
  8
0
 62
     0
100
AcDbLine
 10
126.269157
 20
207.727858
 30
0.0
 11
135.214572
 21
216.673274
 31
0.0
  0
LINE
  5
540
100
AcDbEntity
  8
0
 62
     0
100
AcDbLine
 10
126.515328
 20
207.832608
 30
0.0
 11
135.355994
 21
216.673274
 31
0.0
  0
LINE
  5
541
100
AcDbEntity
  8
0
 62
     0
100
AcDbLine
 10
126.761499
 20
207.937357
 30
0.0
 11
135.497415
 21
216.673274
 31
0.0
  0
LINE
  5
542
100
AcDbEntity
  8
0
 62
     0
100
AcDbLine
 10
127.007669
 20
208.042107
 30
0.0
 11
135.638836
 21
216.673274
 31
0.0
  0
LINE
  5
543
100
AcDbEntity
  8
0
 62
     0
100
AcDbLine
 10
127.25384
 20
208.146856
 30
0.0
 11
135.780258
 21
216.673274
 31
0.0
  0
LINE
  5
544
100
AcDbEntity
  8
0
 62
     0
100
AcDbLine
 10
127.500011
 20
208.251605
 30
0.0
 11
135.921679
 21
216.673274
 31
0.0
  0
LINE
  5
545
100
AcDbEntity
  8
0
 62
     0
100
AcDbLine
 10
127.746182
 20
208.356355
 30
0.0
 11
136.063101
 21
216.673274
 31
0.0
  0
LINE
  5
546
100
AcDbEntity
  8
0
 62
     0
100
AcDbLine
 10
127.992352
 20
208.461104
 30
0.0
 11
136.204522
 21
216.673274
 31
0.0
  0
LINE
  5
547
100
AcDbEntity
  8
0
 62
     0
100
AcDbLine
 10
128.238523
 20
208.565854
 30
0.0
 11
136.345943
 21
216.673274
 31
0.0
  0
LINE
  5
548
100
AcDbEntity
  8
0
 62
     0
100
AcDbLine
 10
128.484694
 20
208.670603
 30
0.0
 11
136.487365
 21
216.673274
 31
0.0
  0
LINE
  5
549
100
AcDbEntity
  8
0
 62
     0
100
AcDbLine
 10
128.730865
 20
208.775352
 30
0.0
 11
136.628786
 21
216.673274
 31
0.0
  0
LINE
  5
54A
100
AcDbEntity
  8
0
 62
     0
100
AcDbLine
 10
128.977036
 20
208.880102
 30
0.0
 11
136.770207
 21
216.673274
 31
0.0
  0
LINE
  5
54B
100
AcDbEntity
  8
0
 62
     0
100
AcDbLine
 10
129.223206
 20
208.984851
 30
0.0
 11
136.911629
 21
216.673274
 31
0.0
  0
LINE
  5
54C
100
AcDbEntity
  8
0
 62
     0
100
AcDbLine
 10
129.469377
 20
209.089601
 30
0.0
 11
137.05305
 21
216.673274
 31
0.0
  0
LINE
  5
54D
100
AcDbEntity
  8
0
 62
     0
100
AcDbLine
 10
129.715548
 20
209.19435
 30
0.0
 11
137.194471
 21
216.673274
 31
0.0
  0
LINE
  5
54E
100
AcDbEntity
  8
0
 62
     0
100
AcDbLine
 10
129.961719
 20
209.299099
 30
0.0
 11
137.335893
 21
216.673274
 31
0.0
  0
LINE
  5
54F
100
AcDbEntity
  8
0
 62
     0
100
AcDbLine
 10
130.207889
 20
209.403849
 30
0.0
 11
137.477314
 21
216.673274
 31
0.0
  0
LINE
  5
550
100
AcDbEntity
  8
0
 62
     0
100
AcDbLine
 10
130.45406
 20
209.508598
 30
0.0
 11
137.618735
 21
216.673274
 31
0.0
  0
LINE
  5
551
100
AcDbEntity
  8
0
 62
     0
100
AcDbLine
 10
130.700231
 20
209.613348
 30
0.0
 11
137.760157
 21
216.673274
 31
0.0
  0
LINE
  5
552
100
AcDbEntity
  8
0
 62
     0
100
AcDbLine
 10
130.946402
 20
209.718097
 30
0.0
 11
137.901578
 21
216.673274
 31
0.0
  0
LINE
  5
553
100
AcDbEntity
  8
0
 62
     0
100
AcDbLine
 10
131.192572
 20
209.822847
 30
0.0
 11
138.042999
 21
216.673274
 31
0.0
  0
LINE
  5
554
100
AcDbEntity
  8
0
 62
     0
100
AcDbLine
 10
131.438743
 20
209.927596
 30
0.0
 11
138.184421
 21
216.673274
 31
0.0
  0
LINE
  5
555
100
AcDbEntity
  8
0
 62
     0
100
AcDbLine
 10
131.684914
 20
210.032345
 30
0.0
 11
138.325842
 21
216.673274
 31
0.0
  0
LINE
  5
556
100
AcDbEntity
  8
0
 62
     0
100
AcDbLine
 10
131.931085
 20
210.137095
 30
0.0
 11
138.467264
 21
216.673274
 31
0.0
  0
LINE
  5
557
100
AcDbEntity
  8
0
 62
     0
100
AcDbLine
 10
132.177256
 20
210.241844
 30
0.0
 11
138.608685
 21
216.673274
 31
0.0
  0
LINE
  5
558
100
AcDbEntity
  8
0
 62
     0
100
AcDbLine
 10
132.423426
 20
210.346594
 30
0.0
 11
138.750106
 21
216.673274
 31
0.0
  0
LINE
  5
559
100
AcDbEntity
  8
0
 62
     0
100
AcDbLine
 10
132.669597
 20
210.451343
 30
0.0
 11
138.891528
 21
216.673274
 31
0.0
  0
LINE
  5
55A
100
AcDbEntity
  8
0
 62
     0
100
AcDbLine
 10
132.915768
 20
210.556092
 30
0.0
 11
139.032949
 21
216.673274
 31
0.0
  0
LINE
  5
55B
100
AcDbEntity
  8
0
 62
     0
100
AcDbLine
 10
133.161939
 20
210.660842
 30
0.0
 11
139.104923
 21
216.603827
 31
0.0
  0
LINE
  5
55C
100
AcDbEntity
  8
0
 62
     0
100
AcDbLine
 10
133.408109
 20
210.765591
 30
0.0
 11
139.175634
 21
216.533116
 31
0.0
  0
LINE
  5
55D
100
AcDbEntity
  8
0
 62
     0
100
AcDbLine
 10
133.65428
 20
210.870341
 30
0.0
 11
139.246345
 21
216.462405
 31
0.0
  0
LINE
  5
55E
100
AcDbEntity
  8
0
 62
     0
100
AcDbLine
 10
133.900451
 20
210.97509
 30
0.0
 11
139.317056
 21
216.391695
 31
0.0
  0
LINE
  5
55F
100
AcDbEntity
  8
0
 62
     0
100
AcDbLine
 10
134.146622
 20
211.079839
 30
0.0
 11
139.387766
 21
216.320984
 31
0.0
  0
LINE
  5
560
100
AcDbEntity
  8
0
 62
     0
100
AcDbLine
 10
134.392792
 20
211.184589
 30
0.0
 11
139.458477
 21
216.250273
 31
0.0
  0
LINE
  5
561
100
AcDbEntity
  8
0
 62
     0
100
AcDbLine
 10
134.638963
 20
211.289338
 30
0.0
 11
139.529188
 21
216.179563
 31
0.0
  0
LINE
  5
562
100
AcDbEntity
  8
0
 62
     0
100
AcDbLine
 10
134.885134
 20
211.394088
 30
0.0
 11
139.599898
 21
216.108852
 31
0.0
  0
LINE
  5
563
100
AcDbEntity
  8
0
 62
     0
100
AcDbLine
 10
135.131305
 20
211.498837
 30
0.0
 11
139.670609
 21
216.038141
 31
0.0
  0
LINE
  5
564
100
AcDbEntity
  8
0
 62
     0
100
AcDbLine
 10
135.377476
 20
211.603587
 30
0.0
 11
139.74132
 21
215.967431
 31
0.0
  0
LINE
  5
565
100
AcDbEntity
  8
0
 62
     0
100
AcDbLine
 10
135.623646
 20
211.708336
 30
0.0
 11
139.81203
 21
215.89672
 31
0.0
  0
LINE
  5
566
100
AcDbEntity
  8
0
 62
     0
100
AcDbLine
 10
135.869817
 20
211.813085
 30
0.0
 11
139.882741
 21
215.826009
 31
0.0
  0
LINE
  5
567
100
AcDbEntity
  8
0
 62
     0
100
AcDbLine
 10
136.115988
 20
211.917835
 30
0.0
 11
139.953452
 21
215.755299
 31
0.0
  0
LINE
  5
568
100
AcDbEntity
  8
0
 62
     0
100
AcDbLine
 10
136.362159
 20
212.022584
 30
0.0
 11
140.024162
 21
215.684588
 31
0.0
  0
LINE
  5
569
100
AcDbEntity
  8
0
 62
     0
100
AcDbLine
 10
136.608329
 20
212.127334
 30
0.0
 11
140.035477
 21
215.554481
 31
0.0
  0
LINE
  5
56A
100
AcDbEntity
  8
0
 62
     0
100
AcDbLine
 10
136.8545
 20
212.232083
 30
0.0
 11
140.035477
 21
215.41306
 31
0.0
  0
LINE
  5
56B
100
AcDbEntity
  8
0
 62
     0
100
AcDbLine
 10
137.100671
 20
212.336832
 30
0.0
 11
140.035477
 21
215.271638
 31
0.0
  0
LINE
  5
56C
100
AcDbEntity
  8
0
 62
     0
100
AcDbLine
 10
137.346842
 20
212.441582
 30
0.0
 11
140.035477
 21
215.130217
 31
0.0
  0
LINE
  5
56D
100
AcDbEntity
  8
0
 62
     0
100
AcDbLine
 10
137.593012
 20
212.546331
 30
0.0
 11
140.035477
 21
214.988795
 31
0.0
  0
LINE
  5
56E
100
AcDbEntity
  8
0
 62
     0
100
AcDbLine
 10
137.839183
 20
212.651081
 30
0.0
 11
140.035477
 21
214.847374
 31
0.0
  0
LINE
  5
56F
100
AcDbEntity
  8
0
 62
     0
100
AcDbLine
 10
138.085354
 20
212.75583
 30
0.0
 11
140.035477
 21
214.705953
 31
0.0
  0
LINE
  5
570
100
AcDbEntity
  8
0
 62
     0
100
AcDbLine
 10
138.331525
 20
212.860579
 30
0.0
 11
140.035477
 21
214.564531
 31
0.0
  0
LINE
  5
571
100
AcDbEntity
  8
0
 62
     0
100
AcDbLine
 10
138.577696
 20
212.965329
 30
0.0
 11
140.035477
 21
214.42311
 31
0.0
  0
LINE
  5
572
100
AcDbEntity
  8
0
 62
     0
100
AcDbLine
 10
138.823866
 20
213.070078
 30
0.0
 11
140.035477
 21
214.281689
 31
0.0
  0
LINE
  5
573
100
AcDbEntity
  8
0
 62
     0
100
AcDbLine
 10
139.070037
 20
213.174828
 30
0.0
 11
140.035477
 21
214.140267
 31
0.0
  0
LINE
  5
574
100
AcDbEntity
  8
0
 62
     0
100
AcDbLine
 10
139.316208
 20
213.279577
 30
0.0
 11
140.035477
 21
213.998846
 31
0.0
  0
LINE
  5
575
100
AcDbEntity
  8
0
 62
     0
100
AcDbLine
 10
139.562379
 20
213.384327
 30
0.0
 11
140.035477
 21
213.857425
 31
0.0
  0
LINE
  5
576
100
AcDbEntity
  8
0
 62
     0
100
AcDbLine
 10
139.808549
 20
213.489076
 30
0.0
 11
140.035477
 21
213.716003
 31
0.0
  0
ENDBLK
  5
577
100
AcDbEntity
  8
0
100
AcDbBlockEnd
  0
ENDSEC
  0
SECTION
  2
ENTITIES
  0
LINE
  5
25F
100
AcDbEntity
  8
DISEGNO
100
AcDbLine
 10
68.535477
 20
136.673274
 30
0.0
 11
126.535477
 21
136.673274
 31
0.0
  0
LINE
  5
260
100
AcDbEntity
  8
DISEGNO
100
AcDbLine
 10
127.535477
 20
137.673274
 30
0.0
 11
127.535477
 21
156.673274
 31
0.0
  0
LINE
  5
261
100
AcDbEntity
  8
DISEGNO
100
AcDbLine
 10
127.535477
 20
156.673274
 30
0.0
 11
139.035477
 21
156.673274
 31
0.0
  0
LINE
  5
262
100
AcDbEntity
  8
DISEGNO
100
AcDbLine
 10
140.035477
 20
157.673274
 30
0.0
 11
140.035477
 21
215.673274
 31
0.0
1001
ACAD
1000
ASC_BOUNDS
1002
{
1070
    19
1002
}
  0
LINE
  5
263
100
AcDbEntity
  8
DISEGNO
100
AcDbLine
 10
139.035477
 20
216.673274
 30
0.0
 11
125.208191
 21
216.673274
 31
0.0
1001
ACAD
1000
ASC_BOUNDS
1002
{
1070
    19
1002
}
  0
LINE
  5
264
100
AcDbEntity
  8
DISEGNO
100
AcDbLine
 10
55.035477
 20
215.673274
 30
0.0
 11
55.035477
 21
157.673274
 31
0.0
1001
ACAD
1000
ASC_BOUNDS
1002
{
1070
    19
1002
}
  0
LINE
  5
265
100
AcDbEntity
  8
DISEGNO
100
AcDbLine
 10
56.035477
 20
156.673274
 30
0.0
 11
67.535477
 21
156.673274
 31
0.0
  0
LINE
  5
266
100
AcDbEntity
  8
DISEGNO
100
AcDbLine
 10
67.535477
 20
156.673274
 30
0.0
 11
67.535477
 21
137.673274
 31
0.0
  0
LINE
  5
279
100
AcDbEntity
  8
DISEGNO
100
AcDbLine
 10
73.55828
 20
214.204007
 30
0.0
 11
78.658412
 21
201.891201
 31
0.0
1001
ACAD
1000
ASC_BOUNDS
1002
{
1070
    19
1002
}
  0
LINE
  5
27A
100
AcDbEntity
  8
DISEGNO
100
AcDbLine
 10
121.512673
 20
214.204007
 30
0.0
 11
116.412542
 21
201.891201
 31
0.0
1001
ACAD
1000
ASC_BOUNDS
1002
{
1070
    19
1002
}
  0
LINE
  5
27B
100
AcDbEntity
  8
DISEGNO
100
AcDbLine
 10
69.862762
 20
216.673274
 30
0.0
 11
56.035477
 21
216.673274
 31
0.0
1001
ACAD
1000
ASC_BOUNDS
1002
{
1070
    19
1002
}
  0
LINE
  5
28A
100
AcDbEntity
  8
DISEGNO
100
AcDbLine
 10
116.412542
 20
201.891201
 30
0.0
 11
116.412542
 21
201.574764
 31
0.0
  0
LINE
  5
28B
100
AcDbEntity
  8
DISEGNO
100
AcDbLine
 10
78.658412
 20
201.891201
 30
0.0
 11
78.658412
 21
200.062013
 31
0.0
  0
LINE
  5
299
100
AcDbEntity
  8
DISEGNO
100
AcDbLine
 10
116.412542
 20
201.574764
 30
0.0
 11
116.412542
 21
200.062013
 31
0.0
  0
LINE
  5
29A
100
AcDbEntity
  8
DISEGNO
100
AcDbLine
 10
78.658412
 20
200.062013
 30
0.0
 11
88.296681
 21
176.793171
 31
0.0
  0
LINE
  5
29B
100
AcDbEntity
  8
DISEGNO
100
AcDbLine
 10
116.412542
 20
200.062013
 30
0.0
 11
106.774272
 21
176.793171
 31
0.0
  0
ARC
  5
29C
100
AcDbEntity
  8
DISEGNO
100
AcDbCircle
 10
97.535476
 20
180.620006
 30
0.0
 40
10.0
100
AcDbArc
 50
202.5
 51
337.5
  0
ARC
  5
29D
100
AcDbEntity
  8
DISEGNO
100
AcDbCircle
 10
125.208191
 20
212.673274
 30
0.0
 40
4.0
100
AcDbArc
 50
90.0
 51
157.5
1001
ACAD
1000
ASC_BOUNDS
1002
{
1070
    19
1002
}
  0
ARC
  5
29E
100
AcDbEntity
  8
DISEGNO
100
AcDbCircle
 10
69.862762
 20
212.673274
 30
0.0
 40
4.0
100
AcDbArc
 50
22.5
 51
90.0
1001
ACAD
1000
ASC_BOUNDS
1002
{
1070
    19
1002
}
  0
LINE
  5
3B1
100
AcDbEntity
  8
DISEGNO
100
AcDbLine
 10
56.035477
 20
216.673274
 30
0.0
 11
55.035477
 21
215.673274
 31
0.0
1001
ACAD
1000
ASC_BOUNDS
1002
{
1070
    19
1002
}
  0
LINE
  5
3B2
100
AcDbEntity
  8
DISEGNO
100
AcDbLine
 10
55.035477
 20
157.673274
 30
0.0
 11
56.035477
 21
156.673274
 31
0.0
  0
LINE
  5
3B3
100
AcDbEntity
  8
DISEGNO
100
AcDbLine
 10
67.535477
 20
137.673274
 30
0.0
 11
68.535477
 21
136.673274
 31
0.0
  0
LINE
  5
3B4
100
AcDbEntity
  8
DISEGNO
100
AcDbLine
 10
126.535477
 20
136.673274
 30
0.0
 11
127.535477
 21
137.673274
 31
0.0
  0
LINE
  5
3B5
100
AcDbEntity
  8
DISEGNO
100
AcDbLine
 10
139.035477
 20
156.673274
 30
0.0
 11
140.035477
 21
157.673274
 31
0.0
  0
LINE
  5
3B6
100
AcDbEntity
  8
DISEGNO
100
AcDbLine
 10
139.035477
 20
216.673274
 30
0.0
 11
140.035477
 21
215.673274
 31
0.0
1001
ACAD
1000
ASC_BOUNDS
1002
{
1070
    19
1002
}
  0
ENDSEC
  0
SECTION
  2
OBJECTS
  0
DICTIONARY
  5
C
100
AcDbDictionary
  3
ACAD_GROUP
350
D
  3
ACAD_MLINESTYLE
350
E
  0
DICTIONARY
  5
D
102
{ACAD_REACTORS
330
C
102
}
100
AcDbDictionary
  0
DICTIONARY
  5
E
102
{ACAD_REACTORS
330
C
102
}
100
AcDbDictionary
  3
STANDARD
350
1C
  0
MLINESTYLE
  5
1C
102
{ACAD_REACTORS
330
E
102
}
100
AcDbMlineStyle
  2
STANDARD
 70
     0
  3

 62
     0
 51
90.0
 52
90.0
 71
     2
 49
0.5
 62
   256
  6
BYLAYER
 49
-0.5
 62
   256
  6
BYLAYER
  0
ENDSEC
  0
EOF
