  0
SECTION
  2
HEADER
  9
$ACADVER
  1
AC1006
  9
$DWGCODEPAGE
  3
ansi_1252
  9
$INSBASE
 10
0.0
 20
0.0
 30
0.0
  9
$EXTMIN
 10
1.000000E+20
 20
1.000000E+20
  9
$EXTMAX
 10
-1.000000E+20
 20
-1.000000E+20
  9
$LIMMIN
 10
0.0
 20
0.0
  9
$LIMMAX
 10
420.0
 20
297.0
  9
$ORTHOMODE
 70
     0
  9
$REGENMODE
 70
     1
  9
$FILLMODE
 70
     1
  9
$QTEXTMODE
 70
     0
  9
$MIRRTEXT
 70
     1
  9
$DRAGMODE
 70
     2
  9
$LTSCALE
 40
1.0
  9
$OSMODE
 70
    37
  9
$ATTMODE
 70
     1
  9
$TEXTSIZE
 40
2.5
  9
$TRACEWID
 40
1.0
  9
$TEXTSTYLE
  7
STANDARD
  9
$CLAYER
  8
0
  9
$CELTYPE
  6
BYLAYER
  9
$CECOLOR
 62
   256
  9
$DIMSCALE
 40
1.0
  9
$DIMASZ
 40
2.5
  9
$DIMEXO
 40
0.625
  9
$DIMDLI
 40
3.75
  9
$DIMRND
 40
0.0
  9
$DIMDLE
 40
0.0
  9
$DIMEXE
 40
1.25
  9
$DIMTP
 40
0.0
  9
$DIMTM
 40
0.0
  9
$DIMTXT
 40
2.5
  9
$DIMCEN
 40
2.5
  9
$DIMTSZ
 40
0.0
  9
$DIMTOL
 70
     0
  9
$DIMLIM
 70
     0
  9
$DIMTIH
 70
     0
  9
$DIMTOH
 70
     0
  9
$DIMSE1
 70
     0
  9
$DIMSE2
 70
     0
  9
$DIMTAD
 70
     1
  9
$DIMZIN
 70
     8
  9
$DIMBLK
  1

  9
$DIMASO
 70
     1
  9
$DIMSHO
 70
     1
  9
$DIMPOST
  1

  9
$DIMAPOST
  1

  9
$DIMALT
 70
     0
  9
$DIMALTD
 70
     3
  9
$DIMALTF
 40
0.03937
  9
$DIMLFAC
 40
1.0
  9
$DIMTOFL
 70
     1
  9
$DIMTVP
 40
0.0
  9
$DIMTIX
 70
     0
  9
$DIMSOXD
 70
     0
  9
$DIMSAH
 70
     0
  9
$DIMBLK1
  1

  9
$DIMBLK2
  1

  9
$LUNITS
 70
     2
  9
$LUPREC
 70
     4
  9
$SKETCHINC
 40
1.0
  9
$FILLETRAD
 40
10.0
  9
$AUNITS
 70
     0
  9
$AUPREC
 70
     0
  9
$MENU
  1
.
  9
$ELEVATION
 40
0.0
  9
$THICKNESS
 40
0.0
  9
$LIMCHECK
 70
     0
  9
$CHAMFERA
 40
10.0
  9
$CHAMFERB
 40
10.0
  9
$SKPOLY
 70
     0
  9
$TDCREATE
 40
2457813.595084421
  9
$TDUPDATE
 40
2457813.595084433
  9
$TDINDWG
 40
0.0000000116
  9
$TDUSRTIMER
 40
0.0000000116
  9
$USRTIMER
 70
     1
  9
$ANGBASE
 50
0.0
  9
$ANGDIR
 70
     0
  9
$PDMODE
 70
     0
  9
$PDSIZE
 40
0.0
  9
$PLINEWID
 40
0.0
  9
$COORDS
 70
     1
  9
$SPLFRAME
 70
     0
  9
$SPLINETYPE
 70
     6
  9
$SPLINESEGS
 70
     8
  9
$ATTDIA
 70
     0
  9
$ATTREQ
 70
     1
  9
$HANDLING
 70
     1
  9
$HANDSEED
  5
8A
  9
$SURFTAB1
 70
     6
  9
$SURFTAB2
 70
     6
  9
$SURFTYPE
 70
     6
  9
$SURFU
 70
     6
  9
$SURFV
 70
     6
  9
$UCSNAME
  2

  9
$UCSORG
 10
0.0
 20
0.0
 30
0.0
  9
$UCSXDIR
 10
1.0
 20
0.0
 30
0.0
  9
$UCSYDIR
 10
0.0
 20
1.0
 30
0.0
  9
$USERI1
 70
     0
  9
$USERI2
 70
     0
  9
$USERI3
 70
     0
  9
$USERI4
 70
     0
  9
$USERI5
 70
     0
  9
$USERR1
 40
0.0
  9
$USERR2
 40
0.0
  9
$USERR3
 40
0.0
  9
$USERR4
 40
0.0
  9
$USERR5
 40
0.0
  9
$WORLDVIEW
 70
     1
  0
ENDSEC
  0
SECTION
  2
TABLES
  0
TABLE
  2
VPORT
 70
     1
  0
VPORT
  2
*ACTIVE
 70
     0
 10
0.0
 20
0.0
 11
1.0
 21
1.0
 12
344.186916
 22
148.5
 13
0.0
 23
0.0
 14
10.0
 24
10.0
 15
10.0
 25
10.0
 16
0.0
 26
0.0
 36
1.0
 17
0.0
 27
0.0
 37
0.0
 40
297.0
 41
1.972973
 42
50.0
 43
0.0
 44
0.0
 50
0.0
 51
0.0
 71
     0
 72
   100
 73
     1
 74
     3
 75
     0
 76
     0
 77
     0
 78
     0
  0
ENDTAB
  0
TABLE
  2
LTYPE
 70
     3
  0
LTYPE
  2
CONTINUOUS
 70
     0
  3
Solid line
 72
    65
 73
     0
 40
0.0
  0
LTYPE
  2
DASHDOT
 70
     0
  3
Dash dot __ . __ . __ . __ . __ . __ . __ . __
 72
    65
 73
     4
 40
25.4
 49
12.7
 49
-6.35
 49
0.0
 49
-6.35
  0
LTYPE
  2
HIDDEN2
 70
     0
  3
Hidden (.5x) _ _ _ _ _ _ _ _ _ _ _ _ _ _ _ _ _ 
 72
    65
 73
     2
 40
4.7625
 49
3.175
 49
-1.5875
  0
ENDTAB
  0
TABLE
  2
LAYER
 70
    11
  0
LAYER
  2
0
 70
     0
 62
     7
  6
CONTINUOUS
  0
LAYER
  2
DISEGNO
 70
     0
 62
     7
  6
CONTINUOUS
  0
LAYER
  2
ASSI
 70
     0
 62
     1
  6
DASHDOT
  0
LAYER
  2
SEZIONE
 70
     0
 62
     3
  6
CONTINUOUS
  0
LAYER
  2
TEMPRA
 70
     0
 62
     2
  6
CONTINUOUS
  0
LAYER
  2
QUOTE
 70
     0
 62
     5
  6
CONTINUOUS
  0
LAYER
  2
TRATTO
 70
     0
 62
     6
  6
HIDDEN2
  0
LAYER
  2
DEFPOINTS
 70
     0
 62
     7
  6
CONTINUOUS
  0
LAYER
  2
TABELLA
 70
     0
 62
     8
  6
CONTINUOUS
  0
LAYER
  2
MARCATURA
 70
     0
 62
   132
  6
CONTINUOUS
  0
LAYER
  2
TESTO
 70
     0
 62
   142
  6
CONTINUOUS
  0
ENDTAB
  0
TABLE
  2
STYLE
 70
     3
  0
STYLE
  2
STANDARD
 70
     0
 40
0.0
 41
1.0
 50
0.0
 71
     0
 42
2.5
  3
txt
  4

  0
STYLE
  2
DEFAULT
 70
     0
 40
0.0
 41
1.0
 50
0.0
 71
     0
 42
0.2
  3

  4

  0
STYLE
  2
STYLE3
 70
     0
 40
0.0
 41
1.0
 50
0.0
 71
     0
 42
0.2
  3

  4

  0
ENDTAB
  0
TABLE
  2
VIEW
 70
     0
  0
ENDTAB
  0
TABLE
  2
UCS
 70
     0
  0
ENDTAB
  0
ENDSEC
  0
SECTION
  2
BLOCKS
  0
BLOCK
  8
0
  2
_CLOSED
 70
     0
 10
0.0
 20
0.0
 30
0.0
  0
LINE
  5
51
  8
0
  6
BYBLOCK
 62
     0
 10
-1.0
 20
0.166667
 30
0.0
 11
0.0
 21
0.0
 31
0.0
  0
LINE
  5
52
  8
0
  6
BYBLOCK
 62
     0
 10
0.0
 20
0.0
 30
0.0
 11
-1.0
 21
-0.166667
 31
0.0
  0
LINE
  5
53
  8
0
  6
BYBLOCK
 62
     0
 10
-1.0
 20
0.166667
 30
0.0
 11
-1.0
 21
-0.166667
 31
0.0
  0
LINE
  5
54
  8
0
  6
BYBLOCK
 62
     0
 10
0.0
 20
0.0
 30
0.0
 11
-1.0
 21
0.0
 31
0.0
  0
ENDBLK
  8
0
  0
ENDSEC
  0
SECTION
  2
ENTITIES
  0
LINE
  5
6C
  8
DISEGNO
 10
-1770.272
 20
-1537.283
 30
0.0
 11
-1781.272
 21
-1537.283
 31
0.0
  0
LINE
  5
6D
  8
DISEGNO
 10
-1782.272
 20
-1536.283
 30
0.0
 11
-1782.272
 21
-1517.283
 31
0.0
  0
LINE
  5
6E
  8
DISEGNO
 10
-1782.272
 20
-1517.283
 30
0.0
 11
-1792.772
 21
-1517.283
 31
0.0
  0
LINE
  5
6F
  8
DISEGNO
 10
-1793.272
 20
-1516.783
 30
0.0
 11
-1793.272
 21
-1418.283
 31
0.0
  0
LINE
  5
70
  8
DISEGNO
 10
-1792.272
 20
-1417.283
 30
0.0
 11
-1789.65838
 21
-1417.283
 31
0.0
  0
LINE
  5
71
  8
DISEGNO
 10
-1758.272
 20
-1418.283
 30
0.0
 11
-1758.272
 21
-1481.283
 31
0.0
  0
LINE
  5
72
  8
DISEGNO
 10
-1758.772
 20
-1517.283
 30
0.0
 11
-1769.272
 21
-1517.283
 31
0.0
  0
LINE
  5
73
  8
DISEGNO
 10
-1769.272
 20
-1536.283
 30
0.0
 11
-1769.272
 21
-1517.283
 31
0.0
  0
LINE
  5
74
  8
DISEGNO
 10
-1761.884602
 20
-1417.283
 30
0.0
 11
-1759.272
 21
-1417.283
 31
0.0
  0
LINE
  5
75
  8
DISEGNO
 10
-1792.272
 20
-1417.283
 30
0.0
 11
-1793.272
 21
-1418.283
 31
0.0
  0
LINE
  5
76
  8
DISEGNO
 10
-1759.272
 20
-1417.283
 30
0.0
 11
-1758.272
 21
-1418.283
 31
0.0
  0
LINE
  5
77
  8
DISEGNO
 10
-1769.272
 20
-1536.283
 30
0.0
 11
-1770.272
 21
-1537.283
 31
0.0
  0
LINE
  5
78
  8
DISEGNO
 10
-1781.272
 20
-1537.283
 30
0.0
 11
-1782.272
 21
-1536.283
 31
0.0
  0
LINE
  5
79
  8
DISEGNO
 10
-1758.272
 20
-1481.283
 30
0.0
 11
-1759.272
 21
-1482.283
 31
0.0
  0
LINE
  5
7A
  8
DISEGNO
 10
-1758.272
 20
-1483.283
 30
0.0
 11
-1759.272
 21
-1482.283
 31
0.0
  0
LINE
  5
7B
  8
DISEGNO
 10
-1758.272
 20
-1483.283
 30
0.0
 11
-1758.272
 21
-1516.783
 31
0.0
  0
LINE
  5
7C
  8
DISEGNO
 10
-1792.772
 20
-1517.283
 30
0.0
 11
-1793.272
 21
-1516.783
 31
0.0
  0
LINE
  5
7D
  8
DISEGNO
 10
-1758.772
 20
-1517.283
 30
0.0
 11
-1758.272
 21
-1516.783
 31
0.0
  0
LINE
  5
7E
  8
DISEGNO
 10
-1763.713
 20
-1418.078
 30
0.0
 11
-1774.308782
 21
-1429.440766
 31
0.0
  0
LINE
  5
7F
  8
DISEGNO
 10
-1787.829983
 20
-1418.078019
 30
0.0
 11
-1777.234218
 21
-1429.440766
 31
0.0
  0
ARC
  5
80
  8
0
 10
-1789.65838
 20
-1419.783
 30
0.0
 40
2.5
 50
42.999544
 51
90.0
  0
ARC
  5
81
  8
0
 10
-1761.884602
 20
-1419.782981
 30
0.0
 40
2.5
 50
90.0
 51
137.000456
  0
ARC
  5
82
  8
0
 10
-1775.7715
 20
-1428.076781
 30
0.0
 40
2.0
 50
222.999544
 51
317.000456
  0
ENDSEC
  0
EOF
