  0
SECTION
  2
HEADER
  9
$ACADVER
  1
AC1012
  9
$DWGCODEPAGE
  3
iso8859-1
  9
$INSBASE
 10
0.0
 20
0.0
 30
0.0
  9
$EXTMIN
 10
7.0
 20
5.0
 30
0.0
  9
$EXTMAX
 10
247.155141
 20
458.871102
 30
0.0
  9
$LIMMIN
 10
0.0
 20
0.0
  9
$LIMMAX
 10
210.0
 20
297.0
  9
$ORTHOMODE
 70
     1
  9
$REGENMODE
 70
     1
  9
$FILLMODE
 70
     1
  9
$QTEXTMODE
 70
     0
  9
$MIRRTEXT
 70
     1
  9
$DRAGMODE
 70
     2
  9
$LTSCALE
 40
1.0
  9
$OSMODE
 70
     0
  9
$ATTMODE
 70
     1
  9
$TEXTSIZE
 40
3.0
  9
$TRACEWID
 40
0.05
  9
$TEXTSTYLE
  7
STANDARD
  9
$CLAYER
  8
DISEGNO
  9
$CELTYPE
  6
BYLAYER
  9
$CECOLOR
 62
   256
  9
$CELTSCALE
 40
1.0
  9
$DELOBJ
 70
     1
  9
$DISPSILH
 70
     0
  9
$DIMSCALE
 40
1.0
  9
$DIMASZ
 40
2.5
  9
$DIMEXO
 40
0.625
  9
$DIMDLI
 40
3.75
  9
$DIMRND
 40
0.0
  9
$DIMDLE
 40
0.0
  9
$DIMEXE
 40
1.25
  9
$DIMTP
 40
0.0
  9
$DIMTM
 40
0.0
  9
$DIMTXT
 40
3.0
  9
$DIMCEN
 40
2.5
  9
$DIMTSZ
 40
0.0
  9
$DIMTOL
 70
     0
  9
$DIMLIM
 70
     0
  9
$DIMTIH
 70
     0
  9
$DIMTOH
 70
     0
  9
$DIMSE1
 70
     0
  9
$DIMSE2
 70
     0
  9
$DIMTAD
 70
     1
  9
$DIMZIN
 70
     8
  9
$DIMBLK
  1

  9
$DIMASO
 70
     1
  9
$DIMSHO
 70
     1
  9
$DIMPOST
  1

  9
$DIMAPOST
  1

  9
$DIMALT
 70
     0
  9
$DIMALTD
 70
     2
  9
$DIMALTF
 40
0.03937
  9
$DIMLFAC
 40
1.0
  9
$DIMTOFL
 70
     0
  9
$DIMTVP
 40
0.0
  9
$DIMTIX
 70
     0
  9
$DIMSOXD
 70
     0
  9
$DIMSAH
 70
     0
  9
$DIMBLK1
  1

  9
$DIMBLK2
  1

  9
$DIMSTYLE
  2
STANDARD
  9
$DIMCLRD
 70
     0
  9
$DIMCLRE
 70
     0
  9
$DIMCLRT
 70
     0
  9
$DIMTFAC
 40
1.0
  9
$DIMGAP
 40
0.625
  9
$DIMJUST
 70
     0
  9
$DIMSD1
 70
     0
  9
$DIMSD2
 70
     0
  9
$DIMTOLJ
 70
     1
  9
$DIMTZIN
 70
     8
  9
$DIMALTZ
 70
     0
  9
$DIMALTTZ
 70
     0
  9
$DIMFIT
 70
     3
  9
$DIMUPT
 70
     0
  9
$DIMUNIT
 70
     2
  9
$DIMDEC
 70
     2
  9
$DIMTDEC
 70
     2
  9
$DIMALTU
 70
     2
  9
$DIMALTTD
 70
     2
  9
$DIMTXSTY
  7
STANDARD
  9
$DIMAUNIT
 70
     0
  9
$LUNITS
 70
     2
  9
$LUPREC
 70
     4
  9
$SKETCHINC
 40
0.1
  9
$FILLETRAD
 40
0.8
  9
$AUNITS
 70
     0
  9
$AUPREC
 70
     0
  9
$MENU
  1
acad
  9
$ELEVATION
 40
0.0
  9
$PELEVATION
 40
0.0
  9
$THICKNESS
 40
0.0
  9
$LIMCHECK
 70
     0
  9
$BLIPMODE
 70
     1
  9
$CHAMFERA
 40
10.0
  9
$CHAMFERB
 40
10.0
  9
$CHAMFERC
 40
20.0
  9
$CHAMFERD
 40
0.0
  9
$SKPOLY
 70
     0
  9
$TDCREATE
 40
2451667.425685879
  9
$TDUPDATE
 40
2452599.544926967
  9
$TDINDWG
 40
0.0266090278
  9
$TDUSRTIMER
 40
0.0266090278
  9
$USRTIMER
 70
     1
  9
$ANGBASE
 50
0.0
  9
$ANGDIR
 70
     0
  9
$PDMODE
 70
     0
  9
$PDSIZE
 40
0.0
  9
$PLINEWID
 40
0.0
  9
$COORDS
 70
     1
  9
$SPLFRAME
 70
     0
  9
$SPLINETYPE
 70
     6
  9
$SPLINESEGS
 70
     8
  9
$ATTDIA
 70
     0
  9
$ATTREQ
 70
     1
  9
$HANDLING
 70
     1
  9
$HANDSEED
  5
3F4
  9
$SURFTAB1
 70
     6
  9
$SURFTAB2
 70
     6
  9
$SURFTYPE
 70
     6
  9
$SURFU
 70
     6
  9
$SURFV
 70
     6
  9
$UCSNAME
  2

  9
$UCSORG
 10
0.0
 20
0.0
 30
0.0
  9
$UCSXDIR
 10
1.0
 20
0.0
 30
0.0
  9
$UCSYDIR
 10
0.0
 20
1.0
 30
0.0
  9
$PUCSNAME
  2

  9
$PUCSORG
 10
0.0
 20
0.0
 30
0.0
  9
$PUCSXDIR
 10
1.0
 20
0.0
 30
0.0
  9
$PUCSYDIR
 10
0.0
 20
1.0
 30
0.0
  9
$USERI1
 70
     0
  9
$USERI2
 70
     0
  9
$USERI3
 70
     0
  9
$USERI4
 70
     0
  9
$USERI5
 70
     0
  9
$USERR1
 40
0.0
  9
$USERR2
 40
0.0
  9
$USERR3
 40
0.0
  9
$USERR4
 40
0.0
  9
$USERR5
 40
0.0
  9
$WORLDVIEW
 70
     1
  9
$SHADEDGE
 70
     3
  9
$SHADEDIF
 70
    70
  9
$TILEMODE
 70
     1
  9
$MAXACTVP
 70
    16
  9
$PINSBASE
 10
0.0
 20
0.0
 30
0.0
  9
$PLIMCHECK
 70
     0
  9
$PEXTMIN
 10
1.000000E+20
 20
1.000000E+20
 30
1.000000E+20
  9
$PEXTMAX
 10
-1.000000E+20
 20
-1.000000E+20
 30
-1.000000E+20
  9
$PLIMMIN
 10
0.0
 20
0.0
  9
$PLIMMAX
 10
12.0
 20
9.0
  9
$UNITMODE
 70
     0
  9
$VISRETAIN
 70
     0
  9
$PLINEGEN
 70
     0
  9
$PSLTSCALE
 70
     1
  9
$TREEDEPTH
 70
  3020
  9
$PICKSTYLE
 70
     1
  9
$CMLSTYLE
  2
STANDARD
  9
$CMLJUST
 70
     0
  9
$CMLSCALE
 40
20.0
  9
$SAVEIMAGES
 70
     0
  0
ENDSEC
  0
SECTION
  2
CLASSES
  0
ENDSEC
  0
SECTION
  2
TABLES
  0
TABLE
  2
VPORT
  5
8
100
AcDbSymbolTable
 70
     8
  0
VPORT
  5
3F3
100
AcDbSymbolTableRecord
100
AcDbViewportTableRecord
  2
*ACTIVE
 70
     0
 10
0.0
 20
0.0
 11
1.0
 21
1.0
 12
139.754924
 22
215.125832
 13
0.0
 23
0.0
 14
10.0
 24
10.0
 15
10.0
 25
10.0
 16
0.0
 26
0.0
 36
1.0
 17
0.0
 27
0.0
 37
0.0
 40
125.341461
 41
1.8523
 42
50.0
 43
0.0
 44
0.0
 50
0.0
 51
0.0
 71
     0
 72
   100
 73
     1
 74
     0
 75
     0
 76
     0
 77
     0
 78
     0
  0
ENDTAB
  0
TABLE
  2
LTYPE
  5
5
100
AcDbSymbolTable
 70
     4
  0
LTYPE
  5
13
100
AcDbSymbolTableRecord
100
AcDbLinetypeTableRecord
  2
BYBLOCK
 70
     0
  3

 72
    65
 73
     0
 40
0.0
  0
LTYPE
  5
14
100
AcDbSymbolTableRecord
100
AcDbLinetypeTableRecord
  2
BYLAYER
 70
     0
  3

 72
    65
 73
     0
 40
0.0
  0
LTYPE
  5
15
100
AcDbSymbolTableRecord
100
AcDbLinetypeTableRecord
  2
CONTINUOUS
 70
    64
  3
Solid line
 72
    65
 73
     0
 40
0.0
  0
LTYPE
  5
94
100
AcDbSymbolTableRecord
100
AcDbLinetypeTableRecord
  2
ACAD_ISO04W100
 70
    64
  3
____ . ____ . ____ . ____ . ____ . ____ . ____ 
 72
    65
 73
     4
 40
30.5
 49
24.0
 74
     0
 49
-3.0
 74
     0
 49
0.5
 74
     0
 49
-3.0
 74
     0
  0
LTYPE
  5
225
100
AcDbSymbolTableRecord
100
AcDbLinetypeTableRecord
  2
TRATTEGGIATAX2
 70
    64
  3
____  ____  ____  ____  ____  ____  ____  ____ 
 72
    65
 73
     2
 40
1.5
 49
1.0
 74
     0
 49
-0.5
 74
     0
  0
LTYPE
  5
226
100
AcDbSymbolTableRecord
100
AcDbLinetypeTableRecord
  2
NASCOSTA
 70
    64
  3
__ __ __ __ __ __ __ __ __ __ __ __ __ __ __ __
 72
    65
 73
     2
 40
0.375
 49
0.25
 74
     0
 49
-0.125
 74
     0
  0
ENDTAB
  0
TABLE
  2
LAYER
  5
2
100
AcDbSymbolTable
 70
     9
  0
LAYER
  5
F
100
AcDbSymbolTableRecord
100
AcDbLayerTableRecord
  2
0
 70
     0
 62
     7
  6
CONTINUOUS
  0
LAYER
  5
95
100
AcDbSymbolTableRecord
100
AcDbLayerTableRecord
  2
DISEGNO
 70
    64
 62
     7
  6
CONTINUOUS
  0
LAYER
  5
96
100
AcDbSymbolTableRecord
100
AcDbLayerTableRecord
  2
ASSI
 70
    64
 62
     1
  6
ACAD_ISO04W100
  0
LAYER
  5
97
100
AcDbSymbolTableRecord
100
AcDbLayerTableRecord
  2
SEZIONE
 70
    64
 62
     3
  6
CONTINUOUS
  0
LAYER
  5
98
100
AcDbSymbolTableRecord
100
AcDbLayerTableRecord
  2
TEMPRA
 70
    64
 62
     2
  6
CONTINUOUS
  0
LAYER
  5
99
100
AcDbSymbolTableRecord
100
AcDbLayerTableRecord
  2
QUOTE
 70
    64
 62
     5
  6
CONTINUOUS
  0
LAYER
  5
9A
100
AcDbSymbolTableRecord
100
AcDbLayerTableRecord
  2
FOGLIO
 70
    64
 62
     8
  6
CONTINUOUS
  0
LAYER
  5
1A3
100
AcDbSymbolTableRecord
100
AcDbLayerTableRecord
  2
TRATTO
 70
    64
 62
     6
  6
NASCOSTA
  0
LAYER
  5
26D
100
AcDbSymbolTableRecord
100
AcDbLayerTableRecord
  2
DEFPOINTS
 70
    64
 62
     7
  6
CONTINUOUS
  0
ENDTAB
  0
TABLE
  2
STYLE
  5
3
100
AcDbSymbolTable
 70
     2
  0
STYLE
  5
10
100
AcDbSymbolTableRecord
100
AcDbTextStyleTableRecord
  2
STANDARD
 70
    64
 40
0.0
 41
1.1
 50
0.0
 71
     0
 42
3.0
  3
C:\Programmi\AutoCAD LT\isocp.shx
  4

  0
STYLE
  5
B0
100
AcDbSymbolTableRecord
100
AcDbTextStyleTableRecord
  2
STYLE3
 70
    64
 40
0.0
 41
1.5
 50
0.0
 71
     0
 42
4.0
  3
C:\Programmi\AutoCAD LT\isocp3.shx
  4

  0
ENDTAB
  0
TABLE
  2
VIEW
  5
6
100
AcDbSymbolTable
 70
     0
  0
ENDTAB
  0
TABLE
  2
UCS
  5
7
100
AcDbSymbolTable
 70
     0
  0
ENDTAB
  0
TABLE
  2
APPID
  5
9
100
AcDbSymbolTable
 70
     1
  0
APPID
  5
11
100
AcDbSymbolTableRecord
100
AcDbRegAppTableRecord
  2
ACAD
 70
     0
  0
ENDTAB
  0
TABLE
  2
DIMSTYLE
  5
A
100
AcDbSymbolTable
 70
     9
  0
DIMSTYLE
105
1D
100
AcDbSymbolTableRecord
100
AcDbDimStyleTableRecord
  2
STANDARD
 70
     0
  3

  4

  5

  6

  7

 40
1.0
 41
2.5
 42
0.625
 43
3.75
 44
1.25
 45
0.0
 46
0.0
 47
0.0
 48
0.0
140
3.0
141
2.5
142
0.0
143
0.03937
144
1.0
145
0.0
146
1.0
147
0.625
 71
     0
 72
     0
 73
     0
 74
     0
 75
     0
 76
     0
 77
     1
 78
     8
170
     0
171
     2
172
     0
173
     0
174
     0
175
     0
176
     0
177
     0
178
     0
270
     2
271
     2
272
     2
273
     2
274
     2
340
10
275
     0
280
     0
281
     0
282
     0
283
     1
284
     8
285
     0
286
     0
287
     3
288
     0
  0
DIMSTYLE
105
198
100
AcDbSymbolTableRecord
100
AcDbDimStyleTableRecord
  2
TOLL-06
 70
     0
  3

  4

  5

  6

  7

 40
1.0
 41
2.5
 42
0.625
 43
3.75
 44
1.25
 45
0.0
 46
0.0
 47
0.1
 48
0.1
140
3.0
141
2.5
142
0.0
143
0.03937
144
1.0
145
0.0
146
0.8
147
0.625
 71
     1
 72
     0
 73
     0
 74
     0
 75
     0
 76
     0
 77
     1
 78
     8
170
     0
171
     2
172
     0
173
     0
174
     0
175
     0
176
     0
177
     0
178
     0
270
     2
271
     2
272
     2
273
     2
274
     2
340
10
275
     0
280
     0
281
     0
282
     0
283
     2
284
     8
285
     0
286
     0
287
     3
288
     0
  0
DIMSTYLE
105
20B
100
AcDbSymbolTableRecord
100
AcDbDimStyleTableRecord
  2
TOLL-01
 70
     0
  3

  4

  5

  6

  7

 40
1.0
 41
2.5
 42
0.625
 43
3.75
 44
1.25
 45
0.0
 46
0.0
 47
0.02
 48
0.0
140
3.0
141
2.5
142
0.0
143
0.03937
144
1.0
145
0.0
146
0.8
147
0.625
 71
     1
 72
     0
 73
     0
 74
     0
 75
     0
 76
     0
 77
     1
 78
     8
170
     0
171
     2
172
     0
173
     0
174
     0
175
     0
176
     0
177
     0
178
     0
270
     2
271
     2
272
     2
273
     2
274
     2
340
10
275
     0
280
     0
281
     0
282
     0
283
     2
284
     8
285
     0
286
     0
287
     3
288
     0
  0
DIMSTYLE
105
232
100
AcDbSymbolTableRecord
100
AcDbDimStyleTableRecord
  2
TOLL-02
 70
     0
  3

  4

  5

  6

  7

 40
1.0
 41
2.5
 42
0.625
 43
3.75
 44
1.25
 45
0.0
 46
0.0
 47
0.0
 48
-0.02
140
3.0
141
2.5
142
0.0
143
0.03937
144
1.0
145
0.0
146
0.8
147
0.625
 71
     1
 72
     0
 73
     0
 74
     0
 75
     0
 76
     0
 77
     1
 78
     8
170
     0
171
     2
172
     0
173
     0
174
     0
175
     0
176
     0
177
     0
178
     0
270
     2
271
     2
272
     2
273
     2
274
     2
340
10
275
     0
280
     0
281
     0
282
     0
283
     2
284
     8
285
     0
286
     0
287
     3
288
     0
  0
DIMSTYLE
105
233
100
AcDbSymbolTableRecord
100
AcDbDimStyleTableRecord
  2
TOLL-03
 70
     0
  3

  4

  5

  6

  7

 40
1.0
 41
2.5
 42
0.625
 43
3.75
 44
1.25
 45
0.0
 46
0.0
 47
0.01
 48
0.01
140
3.0
141
2.5
142
0.0
143
0.03937
144
1.0
145
0.0
146
0.8
147
0.625
 71
     1
 72
     0
 73
     0
 74
     0
 75
     0
 76
     0
 77
     1
 78
     8
170
     0
171
     2
172
     0
173
     0
174
     0
175
     0
176
     0
177
     0
178
     0
270
     2
271
     2
272
     2
273
     2
274
     2
340
10
275
     0
280
     0
281
     0
282
     0
283
     2
284
     8
285
     0
286
     0
287
     3
288
     0
  0
DIMSTYLE
105
234
100
AcDbSymbolTableRecord
100
AcDbDimStyleTableRecord
  2
TOLL-04
 70
     0
  3

  4

  5

  6

  7

 40
1.0
 41
2.5
 42
0.625
 43
3.75
 44
1.25
 45
0.0
 46
0.0
 47
0.05
 48
0.05
140
3.0
141
2.5
142
0.0
143
0.03937
144
1.0
145
0.0
146
0.8
147
0.625
 71
     1
 72
     0
 73
     0
 74
     0
 75
     0
 76
     0
 77
     1
 78
     8
170
     0
171
     2
172
     0
173
     0
174
     0
175
     0
176
     0
177
     0
178
     0
270
     2
271
     2
272
     2
273
     2
274
     2
340
10
275
     0
280
     0
281
     0
282
     0
283
     2
284
     8
285
     0
286
     0
287
     3
288
     0
  0
DIMSTYLE
105
235
100
AcDbSymbolTableRecord
100
AcDbDimStyleTableRecord
  2
TOLL-05
 70
     0
  3

  4

  5

  6

  7

 40
1.0
 41
2.5
 42
0.625
 43
3.75
 44
1.25
 45
0.0
 46
0.0
 47
0.1
 48
0.0
140
3.0
141
2.5
142
0.0
143
0.03937
144
1.0
145
0.0
146
0.8
147
0.625
 71
     1
 72
     0
 73
     0
 74
     0
 75
     0
 76
     0
 77
     1
 78
     8
170
     0
171
     2
172
     0
173
     0
174
     0
175
     0
176
     0
177
     0
178
     0
270
     2
271
     2
272
     2
273
     2
274
     2
340
10
275
     0
280
     0
281
     0
282
     0
283
     2
284
     8
285
     0
286
     0
287
     3
288
     0
  0
DIMSTYLE
105
247
100
AcDbSymbolTableRecord
100
AcDbDimStyleTableRecord
  2
TOLL-07
 70
     0
  3

  4

  5

  6

  7

 40
1.0
 41
2.5
 42
0.625
 43
3.75
 44
1.25
 45
0.0
 46
0.0
 47
-0.1
 48
0.0
140
3.0
141
2.5
142
0.0
143
0.03937
144
1.0
145
0.0
146
1.0
147
0.625
 71
     1
 72
     0
 73
     0
 74
     0
 75
     0
 76
     0
 77
     1
 78
     8
170
     0
171
     2
172
     0
173
     0
174
     0
175
     0
176
     0
177
     0
178
     0
270
     2
271
     2
272
     2
273
     2
274
     2
340
10
275
     0
280
     0
281
     0
282
     0
283
     1
284
     8
285
     0
286
     0
287
     3
288
     0
  0
DIMSTYLE
105
251
100
AcDbSymbolTableRecord
100
AcDbDimStyleTableRecord
  2
TOLL-08
 70
     0
  3

  4

  5

  6

  7

 40
1.0
 41
2.5
 42
0.625
 43
3.75
 44
1.25
 45
0.0
 46
0.0
 47
0.05
 48
0.0
140
3.0
141
2.5
142
0.0
143
0.03937
144
1.0
145
0.0
146
1.0
147
0.625
 71
     1
 72
     0
 73
     0
 74
     0
 75
     0
 76
     0
 77
     1
 78
     8
170
     0
171
     2
172
     0
173
     0
174
     0
175
     0
176
     0
177
     0
178
     0
270
     2
271
     2
272
     2
273
     2
274
     2
340
10
275
     0
280
     0
281
     0
282
     0
283
     1
284
     8
285
     0
286
     0
287
     3
288
     0
  0
ENDTAB
  0
TABLE
  2
BLOCK_RECORD
  5
1
100
AcDbSymbolTable
 70
    14
  0
BLOCK_RECORD
  5
19
100
AcDbSymbolTableRecord
100
AcDbBlockTableRecord
  2
*MODEL_SPACE
  0
BLOCK_RECORD
  5
16
100
AcDbSymbolTableRecord
100
AcDbBlockTableRecord
  2
*PAPER_SPACE
  0
BLOCK_RECORD
  5
265
100
AcDbSymbolTableRecord
100
AcDbBlockTableRecord
  2
*D0
  0
BLOCK_RECORD
  5
273
100
AcDbSymbolTableRecord
100
AcDbBlockTableRecord
  2
*D1
  0
BLOCK_RECORD
  5
280
100
AcDbSymbolTableRecord
100
AcDbBlockTableRecord
  2
*D2
  0
BLOCK_RECORD
  5
28D
100
AcDbSymbolTableRecord
100
AcDbBlockTableRecord
  2
*D3
  0
BLOCK_RECORD
  5
29A
100
AcDbSymbolTableRecord
100
AcDbBlockTableRecord
  2
*D4
  0
BLOCK_RECORD
  5
2A9
100
AcDbSymbolTableRecord
100
AcDbBlockTableRecord
  2
*D5
  0
BLOCK_RECORD
  5
2BB
100
AcDbSymbolTableRecord
100
AcDbBlockTableRecord
  2
*D6
  0
BLOCK_RECORD
  5
2CB
100
AcDbSymbolTableRecord
100
AcDbBlockTableRecord
  2
*D7
  0
BLOCK_RECORD
  5
2D8
100
AcDbSymbolTableRecord
100
AcDbBlockTableRecord
  2
*D8
  0
BLOCK_RECORD
  5
2E5
100
AcDbSymbolTableRecord
100
AcDbBlockTableRecord
  2
*D9
  0
BLOCK_RECORD
  5
2F5
100
AcDbSymbolTableRecord
100
AcDbBlockTableRecord
  2
*D10
  0
BLOCK_RECORD
  5
342
100
AcDbSymbolTableRecord
100
AcDbBlockTableRecord
  2
*D11
  0
BLOCK_RECORD
  5
34F
100
AcDbSymbolTableRecord
100
AcDbBlockTableRecord
  2
*D12
  0
BLOCK_RECORD
  5
35C
100
AcDbSymbolTableRecord
100
AcDbBlockTableRecord
  2
*D13
  0
ENDTAB
  0
ENDSEC
  0
SECTION
  2
BLOCKS
  0
BLOCK
  5
1A
100
AcDbEntity
  8
0
100
AcDbBlockBegin
  2
*MODEL_SPACE
 70
     0
 10
0.0
 20
0.0
 30
0.0
  3
*MODEL_SPACE
  1

  0
ENDBLK
  5
1B
100
AcDbEntity
  8
0
100
AcDbBlockEnd
  0
BLOCK
  5
17
100
AcDbEntity
 67
     1
  8
0
100
AcDbBlockBegin
  2
*PAPER_SPACE
 70
     0
 10
0.0
 20
0.0
 30
0.0
  3
*PAPER_SPACE
  1

  0
ENDBLK
  5
18
100
AcDbEntity
 67
     1
  8
0
100
AcDbBlockEnd
  0
BLOCK
  5
30A
100
AcDbEntity
  8
0
100
AcDbBlockBegin
  2
*D0
 70
    65
 10
0.0
 20
0.0
 30
0.0
  3
*D0
  1

  0
LINE
  5
30B
100
AcDbEntity
  8
0
  6
BYBLOCK
 62
     0
100
AcDbLine
 10
84.06272
 20
104.435741
 30
0.0
 11
84.06272
 21
79.222149
 31
0.0
  0
LINE
  5
30C
100
AcDbEntity
  8
0
  6
BYBLOCK
 62
     0
100
AcDbLine
 10
144.06272
 20
104.435741
 30
0.0
 11
144.06272
 21
79.222149
 31
0.0
  0
LINE
  5
30D
100
AcDbEntity
  8
0
  6
BYBLOCK
 62
     0
100
AcDbLine
 10
86.56272
 20
80.472149
 30
0.0
 11
141.56272
 21
80.472149
 31
0.0
  0
SOLID
  5
30E
100
AcDbEntity
  8
0
  6
BYBLOCK
 62
     0
100
AcDbTrace
 10
86.56272
 20
80.888815
 30
0.0
 11
86.56272
 21
80.055482
 31
0.0
 12
84.06272
 22
80.472149
 32
0.0
 13
84.06272
 23
80.472149
 33
0.0
  0
SOLID
  5
30F
100
AcDbEntity
  8
0
  6
BYBLOCK
 62
     0
100
AcDbTrace
 10
141.56272
 20
80.888815
 30
0.0
 11
141.56272
 21
80.055482
 31
0.0
 12
144.06272
 22
80.472149
 32
0.0
 13
144.06272
 23
80.472149
 33
0.0
  0
MTEXT
  5
310
100
AcDbEntity
  8
0
  6
BYBLOCK
 62
     0
100
AcDbMText
 10
114.06272
 20
83.837857
 30
0.0
 40
3.0
 41
0.0
 71
     5
 72
     1
  1
\A2;60{\H2.400000;\S+0.02^  0;}
  0
POINT
  5
311
100
AcDbEntity
  8
DEFPOINTS
  6
BYBLOCK
 62
     0
100
AcDbPoint
 10
84.06272
 20
105.060741
 30
0.0
  0
POINT
  5
312
100
AcDbEntity
  8
DEFPOINTS
  6
BYBLOCK
 62
     0
100
AcDbPoint
 10
144.06272
 20
105.060741
 30
0.0
  0
POINT
  5
313
100
AcDbEntity
  8
DEFPOINTS
  6
BYBLOCK
 62
     0
100
AcDbPoint
 10
144.06272
 20
80.472149
 30
0.0
  0
ENDBLK
  5
314
100
AcDbEntity
  8
0
100
AcDbBlockEnd
  0
BLOCK
  5
274
100
AcDbEntity
  8
0
100
AcDbBlockBegin
  2
*D1
 70
    65
 10
0.0
 20
0.0
 30
0.0
  3
*D1
  1

  0
LINE
  5
275
100
AcDbEntity
  8
0
  6
BYBLOCK
 62
     0
100
AcDbLine
 10
144.68772
 20
123.060741
 30
0.0
 11
168.084793
 21
123.060741
 31
0.0
  0
LINE
  5
276
100
AcDbEntity
  8
0
  6
BYBLOCK
 62
     0
100
AcDbLine
 10
144.68772
 20
105.060741
 30
0.0
 11
168.084793
 21
105.060741
 31
0.0
  0
LINE
  5
277
100
AcDbEntity
  8
0
  6
BYBLOCK
 62
     0
100
AcDbLine
 10
166.834793
 20
120.560741
 30
0.0
 11
166.834793
 21
107.560741
 31
0.0
  0
SOLID
  5
278
100
AcDbEntity
  8
0
  6
BYBLOCK
 62
     0
100
AcDbTrace
 10
166.418126
 20
120.560741
 30
0.0
 11
167.25146
 21
120.560741
 31
0.0
 12
166.834793
 22
123.060741
 32
0.0
 13
166.834793
 23
123.060741
 33
0.0
  0
SOLID
  5
279
100
AcDbEntity
  8
0
  6
BYBLOCK
 62
     0
100
AcDbTrace
 10
166.418126
 20
107.560741
 30
0.0
 11
167.25146
 21
107.560741
 31
0.0
 12
166.834793
 22
105.060741
 32
0.0
 13
166.834793
 23
105.060741
 33
0.0
  0
MTEXT
  5
27A
100
AcDbEntity
  8
0
  6
BYBLOCK
 62
     0
100
AcDbMText
 10
164.709793
 20
114.060741
 30
0.0
 40
3.0
 41
0.0
 71
     5
 72
     1
  1
\A1;18
 11
0.0
 21
1.0
 31
0.0
  0
POINT
  5
27B
100
AcDbEntity
  8
DEFPOINTS
  6
BYBLOCK
 62
     0
100
AcDbPoint
 10
144.06272
 20
123.060741
 30
0.0
  0
POINT
  5
27C
100
AcDbEntity
  8
DEFPOINTS
  6
BYBLOCK
 62
     0
100
AcDbPoint
 10
144.06272
 20
105.060741
 30
0.0
  0
POINT
  5
27D
100
AcDbEntity
  8
DEFPOINTS
  6
BYBLOCK
 62
     0
100
AcDbPoint
 10
166.834793
 20
105.060741
 30
0.0
  0
ENDBLK
  5
27E
100
AcDbEntity
  8
0
100
AcDbBlockEnd
  0
BLOCK
  5
281
100
AcDbEntity
  8
0
100
AcDbBlockBegin
  2
*D2
 70
    65
 10
0.0
 20
0.0
 30
0.0
  3
*D2
  1

  0
LINE
  5
282
100
AcDbEntity
  8
0
  6
BYBLOCK
 62
     0
100
AcDbLine
 10
144.68772
 20
123.060741
 30
0.0
 11
168.084793
 21
123.060741
 31
0.0
  0
LINE
  5
283
100
AcDbEntity
  8
0
  6
BYBLOCK
 62
     0
100
AcDbLine
 10
132.18772
 20
185.060741
 30
0.0
 11
168.084793
 21
185.060741
 31
0.0
  0
LINE
  5
284
100
AcDbEntity
  8
0
  6
BYBLOCK
 62
     0
100
AcDbLine
 10
166.834793
 20
125.560741
 30
0.0
 11
166.834793
 21
182.560741
 31
0.0
  0
SOLID
  5
285
100
AcDbEntity
  8
0
  6
BYBLOCK
 62
     0
100
AcDbTrace
 10
166.418126
 20
125.560741
 30
0.0
 11
167.25146
 21
125.560741
 31
0.0
 12
166.834793
 22
123.060741
 32
0.0
 13
166.834793
 23
123.060741
 33
0.0
  0
SOLID
  5
286
100
AcDbEntity
  8
0
  6
BYBLOCK
 62
     0
100
AcDbTrace
 10
166.418126
 20
182.560741
 30
0.0
 11
167.25146
 21
182.560741
 31
0.0
 12
166.834793
 22
185.060741
 32
0.0
 13
166.834793
 23
185.060741
 33
0.0
  0
MTEXT
  5
287
100
AcDbEntity
  8
0
  6
BYBLOCK
 62
     0
100
AcDbMText
 10
164.709498
 20
154.060741
 30
0.0
 40
3.0
 41
0.0
 71
     5
 72
     1
  1
\A1;62
 11
0.0
 21
1.0
 31
0.0
  0
POINT
  5
288
100
AcDbEntity
  8
DEFPOINTS
  6
BYBLOCK
 62
     0
100
AcDbPoint
 10
144.06272
 20
123.060741
 30
0.0
  0
POINT
  5
289
100
AcDbEntity
  8
DEFPOINTS
  6
BYBLOCK
 62
     0
100
AcDbPoint
 10
131.56272
 20
185.060741
 30
0.0
  0
POINT
  5
28A
100
AcDbEntity
  8
DEFPOINTS
  6
BYBLOCK
 62
     0
100
AcDbPoint
 10
166.834793
 20
185.060741
 30
0.0
  0
ENDBLK
  5
28B
100
AcDbEntity
  8
0
100
AcDbBlockEnd
  0
BLOCK
  5
315
100
AcDbEntity
  8
0
100
AcDbBlockBegin
  2
*D3
 70
    65
 10
0.0
 20
0.0
 30
0.0
  3
*D3
  1

  0
LINE
  5
316
100
AcDbEntity
  8
0
  6
BYBLOCK
 62
     0
100
AcDbLine
 10
96.56272
 20
185.685741
 30
0.0
 11
96.56272
 21
215.307184
 31
0.0
  0
LINE
  5
317
100
AcDbEntity
  8
0
  6
BYBLOCK
 62
     0
100
AcDbLine
 10
131.56272
 20
185.685741
 30
0.0
 11
131.56272
 21
215.307184
 31
0.0
  0
LINE
  5
318
100
AcDbEntity
  8
0
  6
BYBLOCK
 62
     0
100
AcDbLine
 10
99.06272
 20
214.057184
 30
0.0
 11
129.06272
 21
214.057184
 31
0.0
  0
SOLID
  5
319
100
AcDbEntity
  8
0
  6
BYBLOCK
 62
     0
100
AcDbTrace
 10
99.06272
 20
214.47385
 30
0.0
 11
99.06272
 21
213.640517
 31
0.0
 12
96.56272
 22
214.057184
 32
0.0
 13
96.56272
 23
214.057184
 33
0.0
  0
SOLID
  5
31A
100
AcDbEntity
  8
0
  6
BYBLOCK
 62
     0
100
AcDbTrace
 10
129.06272
 20
214.47385
 30
0.0
 11
129.06272
 21
213.640517
 31
0.0
 12
131.56272
 22
214.057184
 32
0.0
 13
131.56272
 23
214.057184
 33
0.0
  0
MTEXT
  5
31B
100
AcDbEntity
  8
0
  6
BYBLOCK
 62
     0
100
AcDbMText
 10
114.06272
 20
216.182184
 30
0.0
 40
3.0
 41
0.0
 71
     5
 72
     1
  1
\A2;35{\H2.400000;±0.05}
  0
POINT
  5
31C
100
AcDbEntity
  8
DEFPOINTS
  6
BYBLOCK
 62
     0
100
AcDbPoint
 10
96.56272
 20
185.060741
 30
0.0
  0
POINT
  5
31D
100
AcDbEntity
  8
DEFPOINTS
  6
BYBLOCK
 62
     0
100
AcDbPoint
 10
131.56272
 20
185.060741
 30
0.0
  0
POINT
  5
31E
100
AcDbEntity
  8
DEFPOINTS
  6
BYBLOCK
 62
     0
100
AcDbPoint
 10
131.56272
 20
214.057184
 30
0.0
  0
ENDBLK
  5
31F
100
AcDbEntity
  8
0
100
AcDbBlockEnd
  0
BLOCK
  5
29B
100
AcDbEntity
  8
0
100
AcDbBlockBegin
  2
*D4
 70
    65
 10
0.0
 20
0.0
 30
0.0
  3
*D4
  1

  0
LINE
  5
29C
100
AcDbEntity
  8
0
  6
BYBLOCK
 62
     0
100
AcDbLine
 10
113.874779
 20
152.74872
 30
0.0
 11
107.631536
 21
132.947685
 31
0.0
  0
LINE
  5
29D
100
AcDbEntity
  8
0
  6
BYBLOCK
 62
     0
100
AcDbLine
 10
114.250661
 20
152.74872
 30
0.0
 11
120.493903
 21
132.947685
 31
0.0
  0
ARC
  5
29E
100
AcDbEntity
  8
0
  6
BYBLOCK
 62
     0
100
AcDbCircle
 10
114.06272
 20
153.344793
 30
0.0
 40
20.136962
100
AcDbArc
 50
259.617836
 51
280.382164
  0
SOLID
  5
29F
100
AcDbEntity
  8
0
  6
BYBLOCK
 62
     0
100
AcDbTrace
 10
110.333394
 20
133.133128
 30
0.0
 11
110.534164
 21
133.941914
 31
0.0
 12
108.007419
 22
134.139831
 32
0.0
 13
108.007419
 23
134.139831
 33
0.0
  0
SOLID
  5
2A0
100
AcDbEntity
  8
0
  6
BYBLOCK
 62
     0
100
AcDbTrace
 10
117.591276
 20
133.941914
 30
0.0
 11
117.792046
 21
133.133128
 31
0.0
 12
120.118021
 22
134.139831
 32
0.0
 13
120.118021
 23
134.139831
 33
0.0
  0
MTEXT
  5
2A1
100
AcDbEntity
  8
0
  6
BYBLOCK
 62
     0
100
AcDbMText
 10
114.06272
 20
135.332831
 30
0.0
 40
3.0
 41
0.0
 71
     5
 72
     1
  1
\A1;35°
  0
POINT
  5
2A2
100
AcDbEntity
  8
DEFPOINTS
  6
BYBLOCK
 62
     0
100
AcDbPoint
 10
112.016098
 20
133.312105
 30
0.0
  0
POINT
  5
2A3
100
AcDbEntity
  8
DEFPOINTS
  6
BYBLOCK
 62
     0
100
AcDbPoint
 10
104.06272
 20
185.060741
 30
0.0
  0
POINT
  5
2A4
100
AcDbEntity
  8
DEFPOINTS
  6
BYBLOCK
 62
     0
100
AcDbPoint
 10
124.06272
 20
185.060741
 30
0.0
  0
POINT
  5
2A5
100
AcDbEntity
  8
DEFPOINTS
  6
BYBLOCK
 62
     0
100
AcDbPoint
 10
114.06272
 20
153.344793
 30
0.0
  0
POINT
  5
2A6
100
AcDbEntity
  8
DEFPOINTS
  6
BYBLOCK
 62
     0
100
AcDbPoint
 10
114.06272
 20
153.344793
 30
0.0
  0
ENDBLK
  5
2A7
100
AcDbEntity
  8
0
100
AcDbBlockEnd
  0
BLOCK
  5
2AA
100
AcDbEntity
  8
0
100
AcDbBlockBegin
  2
*D5
 70
    65
 10
0.0
 20
0.0
 30
0.0
  3
*D5
  1

  0
LINE
  5
2AB
100
AcDbEntity
  8
0
  6
BYBLOCK
 62
     0
100
AcDbLine
 10
104.06272
 20
185.685741
 30
0.0
 11
104.06272
 21
206.055266
 31
0.0
  0
LINE
  5
2AC
100
AcDbEntity
  8
0
  6
BYBLOCK
 62
     0
100
AcDbLine
 10
124.06272
 20
185.685741
 30
0.0
 11
124.06272
 21
206.055266
 31
0.0
  0
LINE
  5
2AD
100
AcDbEntity
  8
0
  6
BYBLOCK
 62
     0
100
AcDbLine
 10
106.56272
 20
204.805266
 30
0.0
 11
121.56272
 21
204.805266
 31
0.0
  0
SOLID
  5
2AE
100
AcDbEntity
  8
0
  6
BYBLOCK
 62
     0
100
AcDbTrace
 10
106.56272
 20
205.221933
 30
0.0
 11
106.56272
 21
204.3886
 31
0.0
 12
104.06272
 22
204.805266
 32
0.0
 13
104.06272
 23
204.805266
 33
0.0
  0
SOLID
  5
2AF
100
AcDbEntity
  8
0
  6
BYBLOCK
 62
     0
100
AcDbTrace
 10
121.56272
 20
205.221933
 30
0.0
 11
121.56272
 21
204.3886
 31
0.0
 12
124.06272
 22
204.805266
 32
0.0
 13
124.06272
 23
204.805266
 33
0.0
  0
MTEXT
  5
2B0
100
AcDbEntity
  8
0
  6
BYBLOCK
 62
     0
100
AcDbMText
 10
114.06272
 20
206.930266
 30
0.0
 40
3.0
 41
0.0
 71
     5
 72
     1
  1
\A1;20
  0
POINT
  5
2B1
100
AcDbEntity
  8
DEFPOINTS
  6
BYBLOCK
 62
     0
100
AcDbPoint
 10
104.06272
 20
185.060741
 30
0.0
  0
POINT
  5
2B2
100
AcDbEntity
  8
DEFPOINTS
  6
BYBLOCK
 62
     0
100
AcDbPoint
 10
124.06272
 20
185.060741
 30
0.0
  0
POINT
  5
2B3
100
AcDbEntity
  8
DEFPOINTS
  6
BYBLOCK
 62
     0
100
AcDbPoint
 10
124.06272
 20
204.805266
 30
0.0
  0
ENDBLK
  5
2B4
100
AcDbEntity
  8
0
100
AcDbBlockEnd
  0
BLOCK
  5
2FF
100
AcDbEntity
  8
0
100
AcDbBlockBegin
  2
*D6
 70
    65
 10
0.0
 20
0.0
 30
0.0
  3
*D6
  1

  0
LINE
  5
300
100
AcDbEntity
  8
0
  6
BYBLOCK
 62
     0
100
AcDbLine
 10
95.93772
 20
185.060741
 30
0.0
 11
43.077311
 21
185.060741
 31
0.0
  0
LINE
  5
301
100
AcDbEntity
  8
0
  6
BYBLOCK
 62
     0
100
AcDbLine
 10
83.43772
 20
105.060741
 30
0.0
 11
43.077311
 21
105.060741
 31
0.0
  0
LINE
  5
302
100
AcDbEntity
  8
0
  6
BYBLOCK
 62
     0
100
AcDbLine
 10
44.327311
 20
182.560741
 30
0.0
 11
44.327311
 21
107.560741
 31
0.0
  0
SOLID
  5
303
100
AcDbEntity
  8
0
  6
BYBLOCK
 62
     0
100
AcDbTrace
 10
43.910645
 20
182.560741
 30
0.0
 11
44.743978
 21
182.560741
 31
0.0
 12
44.327311
 22
185.060741
 32
0.0
 13
44.327311
 23
185.060741
 33
0.0
  0
SOLID
  5
304
100
AcDbEntity
  8
0
  6
BYBLOCK
 62
     0
100
AcDbTrace
 10
43.910645
 20
107.560741
 30
0.0
 11
44.743978
 21
107.560741
 31
0.0
 12
44.327311
 22
105.060741
 32
0.0
 13
44.327311
 23
105.060741
 33
0.0
  0
MTEXT
  5
305
100
AcDbEntity
  8
0
  6
BYBLOCK
 62
     0
100
AcDbMText
 10
40.961603
 20
145.060741
 30
0.0
 40
3.0
 41
0.0
 71
     5
 72
     1
  1
\A2;80{\H2.400000;\S+0.02^  0;}
 11
0.0
 21
1.0
 31
0.0
  0
POINT
  5
306
100
AcDbEntity
  8
DEFPOINTS
  6
BYBLOCK
 62
     0
100
AcDbPoint
 10
96.56272
 20
185.060741
 30
0.0
  0
POINT
  5
307
100
AcDbEntity
  8
DEFPOINTS
  6
BYBLOCK
 62
     0
100
AcDbPoint
 10
84.06272
 20
105.060741
 30
0.0
  0
POINT
  5
308
100
AcDbEntity
  8
DEFPOINTS
  6
BYBLOCK
 62
     0
100
AcDbPoint
 10
44.327311
 20
105.060741
 30
0.0
  0
ENDBLK
  5
309
100
AcDbEntity
  8
0
100
AcDbBlockEnd
  0
BLOCK
  5
2CC
100
AcDbEntity
  8
0
100
AcDbBlockBegin
  2
*D7
 70
    65
 10
0.0
 20
0.0
 30
0.0
  3
*D7
  1

  0
LINE
  5
2CD
100
AcDbEntity
  8
0
  6
BYBLOCK
 62
     0
100
AcDbLine
 10
121.90731
 20
185.419772
 30
0.0
 11
115.694013
 21
190.212005
 31
0.0
  0
SOLID
  5
2CE
100
AcDbEntity
  8
0
  6
BYBLOCK
 62
     0
100
AcDbTrace
 10
122.161782
 20
185.749704
 30
0.0
 11
121.652838
 21
185.08984
 31
0.0
 12
123.886901
 22
183.89294
 32
0.0
 13
123.886901
 23
183.89294
 33
0.0
  0
MTEXT
  5
2CF
100
AcDbEntity
  8
0
  6
BYBLOCK
 62
     0
100
AcDbMText
 10
119.108673
 20
190.261958
 30
0.0
 40
3.0
 41
0.0
 71
     5
 72
     1
  1
\A1;R3
 11
0.791837
 21
-0.610733
 31
0.0
  0
LINE
  5
2D0
100
AcDbEntity
  8
0
  6
BYBLOCK
 62
     0
100
AcDbLine
 10
123.762411
 20
182.060741
 30
0.0
 11
128.762411
 21
182.060741
 31
0.0
  0
LINE
  5
2D1
100
AcDbEntity
  8
0
  6
BYBLOCK
 62
     0
100
AcDbLine
 10
126.262411
 20
179.560741
 30
0.0
 11
126.262411
 21
184.560741
 31
0.0
  0
POINT
  5
2D2
100
AcDbEntity
  8
DEFPOINTS
  6
BYBLOCK
 62
     0
100
AcDbPoint
 10
123.886901
 20
183.89294
 30
0.0
  0
POINT
  5
2D3
100
AcDbEntity
  8
DEFPOINTS
  6
BYBLOCK
 62
     0
100
AcDbPoint
 10
126.262411
 20
182.060741
 30
0.0
  0
ENDBLK
  5
2D4
100
AcDbEntity
  8
0
100
AcDbBlockEnd
  0
BLOCK
  5
320
100
AcDbEntity
  8
0
100
AcDbBlockBegin
  2
*D8
 70
    65
 10
0.0
 20
0.0
 30
0.0
  3
*D8
  1

  0
LINE
  5
321
100
AcDbEntity
  8
0
  6
BYBLOCK
 62
     0
100
AcDbLine
 10
113.43772
 20
187.948869
 30
0.0
 11
33.76798
 21
187.948869
 31
0.0
  0
LINE
  5
322
100
AcDbEntity
  8
0
  6
BYBLOCK
 62
     0
100
AcDbLine
 10
83.43772
 20
105.060741
 30
0.0
 11
33.76798
 21
105.060741
 31
0.0
  0
LINE
  5
323
100
AcDbEntity
  8
0
  6
BYBLOCK
 62
     0
100
AcDbLine
 10
35.01798
 20
185.448869
 30
0.0
 11
35.01798
 21
107.560741
 31
0.0
  0
SOLID
  5
324
100
AcDbEntity
  8
0
  6
BYBLOCK
 62
     0
100
AcDbTrace
 10
34.601313
 20
185.448869
 30
0.0
 11
35.434647
 21
185.448869
 31
0.0
 12
35.01798
 22
187.948869
 32
0.0
 13
35.01798
 23
187.948869
 33
0.0
  0
SOLID
  5
325
100
AcDbEntity
  8
0
  6
BYBLOCK
 62
     0
100
AcDbTrace
 10
34.601313
 20
107.560741
 30
0.0
 11
35.434647
 21
107.560741
 31
0.0
 12
35.01798
 22
105.060741
 32
0.0
 13
35.01798
 23
105.060741
 33
0.0
  0
MTEXT
  5
326
100
AcDbEntity
  8
0
  6
BYBLOCK
 62
     0
100
AcDbMText
 10
31.652271
 20
146.504805
 30
0.0
 40
3.0
 41
0.0
 71
     5
 72
     1
  1
\A2;82.89{\H2.400000;\S+0.02^  0;}
 11
0.0
 21
1.0
 31
0.0
  0
POINT
  5
327
100
AcDbEntity
  8
DEFPOINTS
  6
BYBLOCK
 62
     0
100
AcDbPoint
 10
114.06272
 20
187.948869
 30
0.0
  0
POINT
  5
328
100
AcDbEntity
  8
DEFPOINTS
  6
BYBLOCK
 62
     0
100
AcDbPoint
 10
84.06272
 20
105.060741
 30
0.0
  0
POINT
  5
329
100
AcDbEntity
  8
DEFPOINTS
  6
BYBLOCK
 62
     0
100
AcDbPoint
 10
35.01798
 20
105.060741
 30
0.0
  0
ENDBLK
  5
32A
100
AcDbEntity
  8
0
100
AcDbBlockEnd
  0
BLOCK
  5
2E6
100
AcDbEntity
  8
0
100
AcDbBlockBegin
  2
*D9
 70
    65
 10
0.0
 20
0.0
 30
0.0
  3
*D9
  1

  0
LINE
  5
2E7
100
AcDbEntity
  8
0
  6
BYBLOCK
 62
     0
100
AcDbLine
 10
116.388454
 20
156.143415
 30
0.0
 11
120.518955
 21
149.301563
 31
0.0
  0
SOLID
  5
2E8
100
AcDbEntity
  8
0
  6
BYBLOCK
 62
     0
100
AcDbTrace
 10
116.745157
 20
156.358761
 30
0.0
 11
116.031751
 21
155.928069
 31
0.0
 12
115.09638
 22
158.283635
 32
0.0
 13
115.09638
 23
158.283635
 33
0.0
  0
MTEXT
  5
2E9
100
AcDbEntity
  8
0
  6
BYBLOCK
 62
     0
100
AcDbMText
 10
120.919182
 20
152.750795
 30
0.0
 40
3.0
 41
0.0
 71
     5
 72
     1
  1
\A1;R2
 11
0.51683
 21
-0.856088
 31
0.0
  0
LINE
  5
2EA
100
AcDbEntity
  8
0
  6
BYBLOCK
 62
     0
100
AcDbLine
 10
111.56272
 20
159.995812
 30
0.0
 11
116.56272
 21
159.995812
 31
0.0
  0
LINE
  5
2EB
100
AcDbEntity
  8
0
  6
BYBLOCK
 62
     0
100
AcDbLine
 10
114.06272
 20
157.495812
 30
0.0
 11
114.06272
 21
162.495812
 31
0.0
  0
POINT
  5
2EC
100
AcDbEntity
  8
DEFPOINTS
  6
BYBLOCK
 62
     0
100
AcDbPoint
 10
115.09638
 20
158.283635
 30
0.0
  0
POINT
  5
2ED
100
AcDbEntity
  8
DEFPOINTS
  6
BYBLOCK
 62
     0
100
AcDbPoint
 10
114.06272
 20
159.995812
 30
0.0
  0
ENDBLK
  5
2EE
100
AcDbEntity
  8
0
100
AcDbBlockEnd
  0
BLOCK
  5
2F6
100
AcDbEntity
  8
0
100
AcDbBlockBegin
  2
*D10
 70
    65
 10
0.0
 20
0.0
 30
0.0
  3
*D10
  1

  0
LINE
  5
2F7
100
AcDbEntity
  8
0
  6
BYBLOCK
 62
     0
100
AcDbLine
 10
118.897095
 20
177.326119
 30
0.0
 11
109.228345
 21
182.571619
 31
0.0
  0
SOLID
  5
2F8
100
AcDbEntity
  8
0
  6
BYBLOCK
 62
     0
100
AcDbTrace
 10
119.095788
 20
177.692359
 30
0.0
 11
118.698402
 21
176.959878
 31
0.0
 12
121.094538
 22
176.13396
 32
0.0
 13
121.094538
 23
176.13396
 33
0.0
  0
SOLID
  5
2F9
100
AcDbEntity
  8
0
  6
BYBLOCK
 62
     0
100
AcDbTrace
 10
109.427038
 20
182.93786
 30
0.0
 11
109.029652
 21
182.205379
 31
0.0
 12
107.030902
 22
183.763778
 32
0.0
 13
107.030902
 23
183.763778
 33
0.0
  0
MTEXT
  5
2FA
100
AcDbEntity
  8
0
  6
BYBLOCK
 62
     0
100
AcDbMText
 10
115.076055
 20
181.816696
 30
0.0
 40
3.0
 41
0.0
 71
     5
 72
     1
  1
\A1;\U+220516
 11
0.878977
 21
-0.476864
 31
0.0
  0
POINT
  5
2FB
100
AcDbEntity
  8
DEFPOINTS
  6
BYBLOCK
 62
     0
100
AcDbPoint
 10
107.030902
 20
183.763778
 30
0.0
  0
POINT
  5
2FC
100
AcDbEntity
  8
DEFPOINTS
  6
BYBLOCK
 62
     0
100
AcDbPoint
 10
121.094538
 20
176.13396
 30
0.0
  0
ENDBLK
  5
2FD
100
AcDbEntity
  8
0
100
AcDbBlockEnd
  0
BLOCK
  5
3C2
100
AcDbEntity
  8
0
100
AcDbBlockBegin
  2
*D11
 70
    65
 10
0.0
 20
0.0
 30
0.0
  3
*D11
  1

  0
LINE
  5
3C3
100
AcDbEntity
  8
0
  6
BYBLOCK
 62
     0
100
AcDbLine
 10
29.9434
 20
104.741081
 30
0.0
 11
29.9434
 21
114.040642
 31
0.0
  0
LINE
  5
3C4
100
AcDbEntity
  8
0
  6
BYBLOCK
 62
     0
100
AcDbLine
 10
37.9434
 20
93.741081
 30
0.0
 11
37.9434
 21
114.040642
 31
0.0
  0
LINE
  5
3C5
100
AcDbEntity
  8
0
  6
BYBLOCK
 62
     0
100
AcDbLine
 10
27.4434
 20
112.790642
 30
0.0
 11
24.9434
 21
112.790642
 31
0.0
  0
LINE
  5
3C6
100
AcDbEntity
  8
0
  6
BYBLOCK
 62
     0
100
AcDbLine
 10
40.4434
 20
112.790642
 30
0.0
 11
42.9434
 21
112.790642
 31
0.0
  0
SOLID
  5
3C7
100
AcDbEntity
  8
0
  6
BYBLOCK
 62
     0
100
AcDbTrace
 10
27.4434
 20
113.207308
 30
0.0
 11
27.4434
 21
112.373975
 31
0.0
 12
29.9434
 22
112.790642
 32
0.0
 13
29.9434
 23
112.790642
 33
0.0
  0
SOLID
  5
3C8
100
AcDbEntity
  8
0
  6
BYBLOCK
 62
     0
100
AcDbTrace
 10
40.4434
 20
113.207308
 30
0.0
 11
40.4434
 21
112.373975
 31
0.0
 12
37.9434
 22
112.790642
 32
0.0
 13
37.9434
 23
112.790642
 33
0.0
  0
MTEXT
  5
3C9
100
AcDbEntity
  8
0
  6
BYBLOCK
 62
     0
100
AcDbMText
 10
33.9434
 20
114.915642
 30
0.0
 40
3.0
 41
0.0
 71
     5
 72
     1
  1
\A1;{50}
  0
POINT
  5
3CA
100
AcDbEntity
  8
DEFPOINTS
  6
BYBLOCK
 62
     0
100
AcDbPoint
 10
29.9434
 20
104.116081
 30
0.0
  0
POINT
  5
3CB
100
AcDbEntity
  8
DEFPOINTS
  6
BYBLOCK
 62
     0
100
AcDbPoint
 10
37.9434
 20
93.116081
 30
0.0
  0
POINT
  5
3CC
100
AcDbEntity
  8
DEFPOINTS
  6
BYBLOCK
 62
     0
100
AcDbPoint
 10
37.9434
 20
112.790642
 30
0.0
  0
ENDBLK
  5
3CD
100
AcDbEntity
  8
0
100
AcDbBlockEnd
  0
BLOCK
  5
37F
100
AcDbEntity
  8
0
100
AcDbBlockBegin
  2
*D12
 70
    65
 10
0.0
 20
0.0
 30
0.0
  3
*D12
  1

  0
LINE
  5
380
100
AcDbEntity
  8
0
  6
BYBLOCK
 62
     0
100
AcDbLine
 10
48.5684
 20
93.116081
 30
0.0
 11
55.611203
 21
93.116081
 31
0.0
  0
LINE
  5
381
100
AcDbEntity
  8
0
  6
BYBLOCK
 62
     0
100
AcDbLine
 10
51.460091
 20
104.116081
 30
0.0
 11
55.611203
 21
104.116081
 31
0.0
  0
LINE
  5
382
100
AcDbEntity
  8
0
  6
BYBLOCK
 62
     0
100
AcDbLine
 10
54.361203
 20
95.616081
 30
0.0
 11
54.361203
 21
101.616081
 31
0.0
  0
SOLID
  5
383
100
AcDbEntity
  8
0
  6
BYBLOCK
 62
     0
100
AcDbTrace
 10
53.944536
 20
95.616081
 30
0.0
 11
54.777869
 21
95.616081
 31
0.0
 12
54.361203
 22
93.116081
 32
0.0
 13
54.361203
 23
93.116081
 33
0.0
  0
SOLID
  5
384
100
AcDbEntity
  8
0
  6
BYBLOCK
 62
     0
100
AcDbTrace
 10
53.944536
 20
101.616081
 30
0.0
 11
54.777869
 21
101.616081
 31
0.0
 12
54.361203
 22
104.116081
 32
0.0
 13
54.361203
 23
104.116081
 33
0.0
  0
MTEXT
  5
385
100
AcDbEntity
  8
0
  6
BYBLOCK
 62
     0
100
AcDbMText
 10
52.236203
 20
98.616081
 30
0.0
 40
3.0
 41
0.0
 71
     5
 72
     1
  1
\A1;{=}
 11
0.0
 21
1.0
 31
0.0
  0
POINT
  5
386
100
AcDbEntity
  8
DEFPOINTS
  6
BYBLOCK
 62
     0
100
AcDbPoint
 10
47.9434
 20
93.116081
 30
0.0
  0
POINT
  5
387
100
AcDbEntity
  8
DEFPOINTS
  6
BYBLOCK
 62
     0
100
AcDbPoint
 10
50.835091
 20
104.116081
 30
0.0
  0
POINT
  5
388
100
AcDbEntity
  8
DEFPOINTS
  6
BYBLOCK
 62
     0
100
AcDbPoint
 10
54.361203
 20
104.116081
 30
0.0
  0
ENDBLK
  5
389
100
AcDbEntity
  8
0
100
AcDbBlockEnd
  0
BLOCK
  5
3A0
100
AcDbEntity
  8
0
100
AcDbBlockBegin
  2
*D13
 70
    65
 10
0.0
 20
0.0
 30
0.0
  3
*D13
  1

  0
LINE
  5
3A1
100
AcDbEntity
  8
0
  6
BYBLOCK
 62
     0
100
AcDbLine
 10
48.5684
 20
85.116081
 30
0.0
 11
55.611203
 21
85.116081
 31
0.0
  0
LINE
  5
3A2
100
AcDbEntity
  8
0
  6
BYBLOCK
 62
     0
100
AcDbLine
 10
53.663911
 20
74.116081
 30
0.0
 11
55.611203
 21
74.116081
 31
0.0
  0
LINE
  5
3A3
100
AcDbEntity
  8
0
  6
BYBLOCK
 62
     0
100
AcDbLine
 10
54.361203
 20
82.616081
 30
0.0
 11
54.361203
 21
76.616081
 31
0.0
  0
SOLID
  5
3A4
100
AcDbEntity
  8
0
  6
BYBLOCK
 62
     0
100
AcDbTrace
 10
53.944536
 20
82.616081
 30
0.0
 11
54.777869
 21
82.616081
 31
0.0
 12
54.361203
 22
85.116081
 32
0.0
 13
54.361203
 23
85.116081
 33
0.0
  0
SOLID
  5
3A5
100
AcDbEntity
  8
0
  6
BYBLOCK
 62
     0
100
AcDbTrace
 10
53.944536
 20
76.616081
 30
0.0
 11
54.777869
 21
76.616081
 31
0.0
 12
54.361203
 22
74.116081
 32
0.0
 13
54.361203
 23
74.116081
 33
0.0
  0
MTEXT
  5
3A6
100
AcDbEntity
  8
0
  6
BYBLOCK
 62
     0
100
AcDbMText
 10
52.236203
 20
79.616081
 30
0.0
 40
3.0
 41
0.0
 71
     5
 72
     1
  1
\A1;{=}
 11
0.0
 21
1.0
 31
0.0
  0
POINT
  5
3A7
100
AcDbEntity
  8
DEFPOINTS
  6
BYBLOCK
 62
     0
100
AcDbPoint
 10
47.9434
 20
85.116081
 30
0.0
  0
POINT
  5
3A8
100
AcDbEntity
  8
DEFPOINTS
  6
BYBLOCK
 62
     0
100
AcDbPoint
 10
53.038911
 20
74.116081
 30
0.0
  0
POINT
  5
3A9
100
AcDbEntity
  8
DEFPOINTS
  6
BYBLOCK
 62
     0
100
AcDbPoint
 10
54.361203
 20
74.116081
 30
0.0
  0
ENDBLK
  5
3AA
100
AcDbEntity
  8
0
100
AcDbBlockEnd
  0
ENDSEC
  0
SECTION
  2
ENTITIES
  0
LINE
  5
258
100
AcDbEntity
  8
DISEGNO
100
AcDbLine
 10
114.06272
 20
154.404303
 30
0.0
 11
144.06272
 21
154.404303
 31
0.0
  0
LINE
  5
259
100
AcDbEntity
  8
DISEGNO
100
AcDbLine
 10
144.06272
 20
154.404303
 30
0.0
 11
144.06272
 21
172.404303
 31
0.0
  0
LINE
  5
25A
100
AcDbEntity
  8
DISEGNO
100
AcDbLine
 10
144.06272
 20
172.404303
 30
0.0
 11
125.06272
 21
172.404303
 31
0.0
  0
LINE
  5
25B
100
AcDbEntity
  8
DISEGNO
100
AcDbLine
 10
125.06272
 20
172.404303
 30
0.0
 11
125.06272
 21
274.404303
 31
0.0
  0
LINE
  5
25C
100
AcDbEntity
  8
DISEGNO
100
AcDbLine
 10
125.06272
 20
274.404303
 30
0.0
 11
121.235888
 21
274.404303
 31
0.0
  0
LINE
  5
25D
100
AcDbEntity
  8
DISEGNO
100
AcDbLine
 10
103.06272
 20
274.404303
 30
0.0
 11
103.06272
 21
172.404303
 31
0.0
  0
LINE
  5
25E
100
AcDbEntity
  8
DISEGNO
100
AcDbLine
 10
103.06272
 20
172.404303
 30
0.0
 11
84.06272
 21
172.404303
 31
0.0
  0
LINE
  5
25F
100
AcDbEntity
  8
DISEGNO
100
AcDbLine
 10
84.06272
 20
172.404303
 30
0.0
 11
84.06272
 21
154.404303
 31
0.0
  0
LINE
  5
260
100
AcDbEntity
  8
DISEGNO
100
AcDbLine
 10
84.06272
 20
154.404303
 30
0.0
 11
114.06272
 21
154.404303
 31
0.0
  0
LINE
  5
262
100
AcDbEntity
  8
DISEGNO
100
AcDbLine
 10
119.709941
 20
273.285432
 30
0.0
 11
114.825694
 21
257.794577
 31
0.0
  0
LINE
  5
263
100
AcDbEntity
  8
DISEGNO
100
AcDbLine
 10
108.415499
 20
273.285432
 30
0.0
 11
113.299746
 21
257.794577
 31
0.0
  0
LINE
  5
264
100
AcDbEntity
  8
DISEGNO
100
AcDbLine
 10
106.889551
 20
274.404303
 30
0.0
 11
103.06272
 21
274.404303
 31
0.0
  0
ARC
  5
3F0
100
AcDbEntity
  8
DISEGNO
100
AcDbCircle
 10
106.889551
 20
272.804303
 30
0.0
 40
1.6
100
AcDbArc
 50
17.5
 51
90.0
  0
ARC
  5
3F1
100
AcDbEntity
  8
DISEGNO
100
AcDbCircle
 10
121.235888
 20
272.804303
 30
0.0
 40
1.6
100
AcDbArc
 50
90.0
 51
162.5
  0
ARC
  5
3F2
100
AcDbEntity
  8
DISEGNO
100
AcDbCircle
 10
114.06272
 20
258.035141
 30
0.0
 40
0.8
100
AcDbArc
 50
197.5
 51
342.5
  0
ENDSEC
  0
SECTION
  2
OBJECTS
  0
DICTIONARY
  5
C
100
AcDbDictionary
  3
ACAD_GROUP
350
D
  3
ACAD_MLINESTYLE
350
E
  0
DICTIONARY
  5
D
102
{ACAD_REACTORS
330
C
102
}
100
AcDbDictionary
  0
DICTIONARY
  5
E
102
{ACAD_REACTORS
330
C
102
}
100
AcDbDictionary
  3
STANDARD
350
1C
  0
MLINESTYLE
  5
1C
102
{ACAD_REACTORS
330
E
102
}
100
AcDbMlineStyle
  2
STANDARD
 70
     0
  3

 62
     0
 51
90.0
 52
90.0
 71
     2
 49
0.5
 62
   256
  6
BYLAYER
 49
-0.5
 62
   256
  6
BYLAYER
  0
ENDSEC
  0
EOF
