  0
SECTION
  2
HEADER
  9
$ACADVER
  1
AC1012
  9
$DWGCODEPAGE
  3
iso8859-1
  9
$INSBASE
 10
0.0
 20
0.0
 30
0.0
  9
$EXTMIN
 10
7.0
 20
5.0
 30
0.0
  9
$EXTMAX
 10
368.333784
 20
288.0
 30
0.0
  9
$LIMMIN
 10
0.0
 20
0.0
  9
$LIMMAX
 10
210.0
 20
297.0
  9
$ORTHOMODE
 70
     1
  9
$REGENMODE
 70
     1
  9
$FILLMODE
 70
     1
  9
$QTEXTMODE
 70
     0
  9
$MIRRTEXT
 70
     1
  9
$DRAGMODE
 70
     2
  9
$LTSCALE
 40
1.0
  9
$OSMODE
 70
     0
  9
$ATTMODE
 70
     1
  9
$TEXTSIZE
 40
2.0
  9
$TRACEWID
 40
0.05
  9
$TEXTSTYLE
  7
STANDARD
  9
$CLAYER
  8
QUOTE
  9
$CELTYPE
  6
BYLAYER
  9
$CECOLOR
 62
   256
  9
$CELTSCALE
 40
1.0
  9
$DELOBJ
 70
     1
  9
$DISPSILH
 70
     0
  9
$DIMSCALE
 40
1.0
  9
$DIMASZ
 40
2.5
  9
$DIMEXO
 40
0.625
  9
$DIMDLI
 40
3.75
  9
$DIMRND
 40
0.0
  9
$DIMDLE
 40
0.0
  9
$DIMEXE
 40
1.25
  9
$DIMTP
 40
0.0
  9
$DIMTM
 40
0.0
  9
$DIMTXT
 40
3.0
  9
$DIMCEN
 40
2.5
  9
$DIMTSZ
 40
0.0
  9
$DIMTOL
 70
     0
  9
$DIMLIM
 70
     0
  9
$DIMTIH
 70
     0
  9
$DIMTOH
 70
     0
  9
$DIMSE1
 70
     0
  9
$DIMSE2
 70
     0
  9
$DIMTAD
 70
     1
  9
$DIMZIN
 70
     8
  9
$DIMBLK
  1

  9
$DIMASO
 70
     1
  9
$DIMSHO
 70
     1
  9
$DIMPOST
  1

  9
$DIMAPOST
  1

  9
$DIMALT
 70
     0
  9
$DIMALTD
 70
     2
  9
$DIMALTF
 40
0.03937
  9
$DIMLFAC
 40
1.0
  9
$DIMTOFL
 70
     0
  9
$DIMTVP
 40
0.0
  9
$DIMTIX
 70
     0
  9
$DIMSOXD
 70
     0
  9
$DIMSAH
 70
     0
  9
$DIMBLK1
  1

  9
$DIMBLK2
  1

  9
$DIMSTYLE
  2
STANDARD
  9
$DIMCLRD
 70
     0
  9
$DIMCLRE
 70
     0
  9
$DIMCLRT
 70
     0
  9
$DIMTFAC
 40
1.0
  9
$DIMGAP
 40
0.625
  9
$DIMJUST
 70
     0
  9
$DIMSD1
 70
     0
  9
$DIMSD2
 70
     0
  9
$DIMTOLJ
 70
     1
  9
$DIMTZIN
 70
     8
  9
$DIMALTZ
 70
     0
  9
$DIMALTTZ
 70
     0
  9
$DIMFIT
 70
     3
  9
$DIMUPT
 70
     0
  9
$DIMUNIT
 70
     2
  9
$DIMDEC
 70
     2
  9
$DIMTDEC
 70
     2
  9
$DIMALTU
 70
     2
  9
$DIMALTTD
 70
     2
  9
$DIMTXSTY
  7
STANDARD
  9
$DIMAUNIT
 70
     0
  9
$LUNITS
 70
     2
  9
$LUPREC
 70
     4
  9
$SKETCHINC
 40
0.1
  9
$FILLETRAD
 40
1.5
  9
$AUNITS
 70
     0
  9
$AUPREC
 70
     0
  9
$MENU
  1
acad
  9
$ELEVATION
 40
0.0
  9
$PELEVATION
 40
0.0
  9
$THICKNESS
 40
0.0
  9
$LIMCHECK
 70
     0
  9
$BLIPMODE
 70
     1
  9
$CHAMFERA
 40
0.5
  9
$CHAMFERB
 40
0.5
  9
$CHAMFERC
 40
20.0
  9
$CHAMFERD
 40
0.0
  9
$SKPOLY
 70
     0
  9
$TDCREATE
 40
2451631.715098032
  9
$TDUPDATE
 40
2452227.422115740
  9
$TDINDWG
 40
0.1012759259
  9
$TDUSRTIMER
 40
0.1012759259
  9
$USRTIMER
 70
     1
  9
$ANGBASE
 50
0.0
  9
$ANGDIR
 70
     0
  9
$PDMODE
 70
     0
  9
$PDSIZE
 40
0.0
  9
$PLINEWID
 40
0.0
  9
$COORDS
 70
     1
  9
$SPLFRAME
 70
     0
  9
$SPLINETYPE
 70
     6
  9
$SPLINESEGS
 70
     8
  9
$ATTDIA
 70
     0
  9
$ATTREQ
 70
     1
  9
$HANDLING
 70
     1
  9
$HANDSEED
  5
81C
  9
$SURFTAB1
 70
     6
  9
$SURFTAB2
 70
     6
  9
$SURFTYPE
 70
     6
  9
$SURFU
 70
     6
  9
$SURFV
 70
     6
  9
$UCSNAME
  2

  9
$UCSORG
 10
0.0
 20
0.0
 30
0.0
  9
$UCSXDIR
 10
1.0
 20
0.0
 30
0.0
  9
$UCSYDIR
 10
0.0
 20
1.0
 30
0.0
  9
$PUCSNAME
  2

  9
$PUCSORG
 10
0.0
 20
0.0
 30
0.0
  9
$PUCSXDIR
 10
1.0
 20
0.0
 30
0.0
  9
$PUCSYDIR
 10
0.0
 20
1.0
 30
0.0
  9
$USERI1
 70
     0
  9
$USERI2
 70
     0
  9
$USERI3
 70
     0
  9
$USERI4
 70
     0
  9
$USERI5
 70
     0
  9
$USERR1
 40
0.0
  9
$USERR2
 40
0.0
  9
$USERR3
 40
0.0
  9
$USERR4
 40
0.0
  9
$USERR5
 40
0.0
  9
$WORLDVIEW
 70
     1
  9
$SHADEDGE
 70
     3
  9
$SHADEDIF
 70
    70
  9
$TILEMODE
 70
     1
  9
$MAXACTVP
 70
    16
  9
$PINSBASE
 10
0.0
 20
0.0
 30
0.0
  9
$PLIMCHECK
 70
     0
  9
$PEXTMIN
 10
1.000000E+20
 20
1.000000E+20
 30
1.000000E+20
  9
$PEXTMAX
 10
-1.000000E+20
 20
-1.000000E+20
 30
-1.000000E+20
  9
$PLIMMIN
 10
0.0
 20
0.0
  9
$PLIMMAX
 10
12.0
 20
9.0
  9
$UNITMODE
 70
     0
  9
$VISRETAIN
 70
     0
  9
$PLINEGEN
 70
     0
  9
$PSLTSCALE
 70
     1
  9
$TREEDEPTH
 70
  3020
  9
$PICKSTYLE
 70
     1
  9
$CMLSTYLE
  2
STANDARD
  9
$CMLJUST
 70
     0
  9
$CMLSCALE
 40
20.0
  9
$SAVEIMAGES
 70
     0
  0
ENDSEC
  0
SECTION
  2
CLASSES
  0
ENDSEC
  0
SECTION
  2
TABLES
  0
TABLE
  2
VPORT
  5
8
100
AcDbSymbolTable
 70
     2
  0
VPORT
  5
81B
100
AcDbSymbolTableRecord
100
AcDbViewportTableRecord
  2
*ACTIVE
 70
     0
 10
0.0
 20
0.0
 11
1.0
 21
1.0
 12
102.583214
 22
162.6322
 13
0.0
 23
0.0
 14
10.0
 24
10.0
 15
10.0
 25
10.0
 16
0.0
 26
0.0
 36
1.0
 17
0.0
 27
0.0
 37
0.0
 40
264.879633
 41
1.873134
 42
50.0
 43
0.0
 44
0.0
 50
0.0
 51
0.0
 71
     0
 72
   100
 73
     1
 74
     0
 75
     0
 76
     0
 77
     0
 78
     0
  0
ENDTAB
  0
TABLE
  2
LTYPE
  5
5
100
AcDbSymbolTable
 70
     4
  0
LTYPE
  5
13
100
AcDbSymbolTableRecord
100
AcDbLinetypeTableRecord
  2
BYBLOCK
 70
     0
  3

 72
    65
 73
     0
 40
0.0
  0
LTYPE
  5
14
100
AcDbSymbolTableRecord
100
AcDbLinetypeTableRecord
  2
BYLAYER
 70
     0
  3

 72
    65
 73
     0
 40
0.0
  0
LTYPE
  5
15
100
AcDbSymbolTableRecord
100
AcDbLinetypeTableRecord
  2
CONTINUOUS
 70
    64
  3
Solid line
 72
    65
 73
     0
 40
0.0
  0
LTYPE
  5
94
100
AcDbSymbolTableRecord
100
AcDbLinetypeTableRecord
  2
ACAD_ISO04W100
 70
    64
  3
____ . ____ . ____ . ____ . ____ . ____ . ____ 
 72
    65
 73
     4
 40
30.5
 49
24.0
 74
     0
 49
-3.0
 74
     0
 49
0.5
 74
     0
 49
-3.0
 74
     0
  0
LTYPE
  5
225
100
AcDbSymbolTableRecord
100
AcDbLinetypeTableRecord
  2
TRATTEGGIATAX2
 70
    64
  3
____  ____  ____  ____  ____  ____  ____  ____ 
 72
    65
 73
     2
 40
1.5
 49
1.0
 74
     0
 49
-0.5
 74
     0
  0
LTYPE
  5
226
100
AcDbSymbolTableRecord
100
AcDbLinetypeTableRecord
  2
NASCOSTA
 70
    64
  3
__ __ __ __ __ __ __ __ __ __ __ __ __ __ __ __
 72
    65
 73
     2
 40
0.375
 49
0.25
 74
     0
 49
-0.125
 74
     0
  0
ENDTAB
  0
TABLE
  2
LAYER
  5
2
100
AcDbSymbolTable
 70
    10
  0
LAYER
  5
F
100
AcDbSymbolTableRecord
100
AcDbLayerTableRecord
  2
0
 70
     0
 62
     7
  6
CONTINUOUS
  0
LAYER
  5
95
100
AcDbSymbolTableRecord
100
AcDbLayerTableRecord
  2
DISEGNO
 70
    64
 62
     7
  6
CONTINUOUS
  0
LAYER
  5
96
100
AcDbSymbolTableRecord
100
AcDbLayerTableRecord
  2
ASSI
 70
    64
 62
     1
  6
ACAD_ISO04W100
  0
LAYER
  5
97
100
AcDbSymbolTableRecord
100
AcDbLayerTableRecord
  2
SEZIONE
 70
    64
 62
     3
  6
CONTINUOUS
  0
LAYER
  5
98
100
AcDbSymbolTableRecord
100
AcDbLayerTableRecord
  2
TEMPRA
 70
    64
 62
     2
  6
CONTINUOUS
  0
LAYER
  5
99
100
AcDbSymbolTableRecord
100
AcDbLayerTableRecord
  2
QUOTE
 70
    64
 62
     5
  6
CONTINUOUS
  0
LAYER
  5
9A
100
AcDbSymbolTableRecord
100
AcDbLayerTableRecord
  2
FOGLIO
 70
    64
 62
     8
  6
CONTINUOUS
  0
LAYER
  5
1A3
100
AcDbSymbolTableRecord
100
AcDbLayerTableRecord
  2
TRATTO
 70
    64
 62
     6
  6
NASCOSTA
  0
LAYER
  5
277
100
AcDbSymbolTableRecord
100
AcDbLayerTableRecord
  2
DEFPOINTS
 70
    64
 62
     7
  6
CONTINUOUS
  0
LAYER
  5
71D
100
AcDbSymbolTableRecord
100
AcDbLayerTableRecord
  2
TESTO
 70
    64
 62
     6
  6
CONTINUOUS
  0
ENDTAB
  0
TABLE
  2
STYLE
  5
3
100
AcDbSymbolTable
 70
     2
  0
STYLE
  5
10
100
AcDbSymbolTableRecord
100
AcDbTextStyleTableRecord
  2
STANDARD
 70
    64
 40
0.0
 41
1.1
 50
0.0
 71
     0
 42
2.0
  3
C:\Programmi\AutoCAD LT\isocp.shx
  4

  0
STYLE
  5
B0
100
AcDbSymbolTableRecord
100
AcDbTextStyleTableRecord
  2
STYLE3
 70
    64
 40
0.0
 41
1.5
 50
0.0
 71
     0
 42
4.0
  3
C:\Programmi\AutoCAD LT\isocp3.shx
  4

  0
ENDTAB
  0
TABLE
  2
VIEW
  5
6
100
AcDbSymbolTable
 70
     0
  0
ENDTAB
  0
TABLE
  2
UCS
  5
7
100
AcDbSymbolTable
 70
     0
  0
ENDTAB
  0
TABLE
  2
APPID
  5
9
100
AcDbSymbolTable
 70
     1
  0
APPID
  5
11
100
AcDbSymbolTableRecord
100
AcDbRegAppTableRecord
  2
ACAD
 70
     0
  0
ENDTAB
  0
TABLE
  2
DIMSTYLE
  5
A
100
AcDbSymbolTable
 70
    10
  0
DIMSTYLE
105
1D
100
AcDbSymbolTableRecord
100
AcDbDimStyleTableRecord
  2
STANDARD
 70
     0
  3

  4

  5

  6

  7

 40
1.0
 41
2.5
 42
0.625
 43
3.75
 44
1.25
 45
0.0
 46
0.0
 47
0.0
 48
0.0
140
3.0
141
2.5
142
0.0
143
0.03937
144
1.0
145
0.0
146
1.0
147
0.625
 71
     0
 72
     0
 73
     0
 74
     0
 75
     0
 76
     0
 77
     1
 78
     8
170
     0
171
     2
172
     0
173
     0
174
     0
175
     0
176
     0
177
     0
178
     0
270
     2
271
     2
272
     2
273
     2
274
     2
340
10
275
     0
280
     0
281
     0
282
     0
283
     1
284
     8
285
     0
286
     0
287
     3
288
     0
  0
DIMSTYLE
105
198
100
AcDbSymbolTableRecord
100
AcDbDimStyleTableRecord
  2
TOLL-06
 70
     0
  3

  4

  5

  6

  7

 40
1.0
 41
2.5
 42
0.625
 43
3.75
 44
1.25
 45
0.0
 46
0.0
 47
0.1
 48
0.1
140
3.0
141
2.5
142
0.0
143
0.03937
144
1.0
145
0.0
146
0.8
147
0.625
 71
     1
 72
     0
 73
     0
 74
     0
 75
     0
 76
     0
 77
     1
 78
     8
170
     0
171
     2
172
     0
173
     0
174
     0
175
     0
176
     0
177
     0
178
     0
270
     2
271
     2
272
     2
273
     2
274
     2
340
10
275
     0
280
     0
281
     0
282
     0
283
     2
284
     8
285
     0
286
     0
287
     3
288
     0
  0
DIMSTYLE
105
20B
100
AcDbSymbolTableRecord
100
AcDbDimStyleTableRecord
  2
TOLL-01
 70
     0
  3

  4

  5

  6

  7

 40
1.0
 41
2.5
 42
0.625
 43
3.75
 44
1.25
 45
0.0
 46
0.0
 47
0.02
 48
0.0
140
3.0
141
2.5
142
0.0
143
0.03937
144
1.0
145
0.0
146
0.8
147
0.625
 71
     1
 72
     0
 73
     0
 74
     0
 75
     0
 76
     0
 77
     1
 78
     8
170
     0
171
     2
172
     0
173
     0
174
     0
175
     0
176
     0
177
     0
178
     0
270
     2
271
     2
272
     2
273
     2
274
     2
340
10
275
     0
280
     0
281
     0
282
     0
283
     2
284
     8
285
     0
286
     0
287
     3
288
     0
  0
DIMSTYLE
105
232
100
AcDbSymbolTableRecord
100
AcDbDimStyleTableRecord
  2
TOLL-02
 70
     0
  3

  4

  5

  6

  7

 40
1.0
 41
2.5
 42
0.625
 43
3.75
 44
1.25
 45
0.0
 46
0.0
 47
0.0
 48
-0.02
140
3.0
141
2.5
142
0.0
143
0.03937
144
1.0
145
0.0
146
0.8
147
0.625
 71
     1
 72
     0
 73
     0
 74
     0
 75
     0
 76
     0
 77
     1
 78
     8
170
     0
171
     2
172
     0
173
     0
174
     0
175
     0
176
     0
177
     0
178
     0
270
     2
271
     2
272
     2
273
     2
274
     2
340
10
275
     0
280
     0
281
     0
282
     0
283
     2
284
     8
285
     0
286
     0
287
     3
288
     0
  0
DIMSTYLE
105
233
100
AcDbSymbolTableRecord
100
AcDbDimStyleTableRecord
  2
TOLL-03
 70
     0
  3

  4

  5

  6

  7

 40
1.0
 41
2.5
 42
0.625
 43
3.75
 44
1.25
 45
0.0
 46
0.0
 47
0.01
 48
0.01
140
3.0
141
2.5
142
0.0
143
0.03937
144
1.0
145
0.0
146
0.8
147
0.625
 71
     1
 72
     0
 73
     0
 74
     0
 75
     0
 76
     0
 77
     1
 78
     8
170
     0
171
     2
172
     0
173
     0
174
     0
175
     0
176
     0
177
     0
178
     0
270
     2
271
     2
272
     2
273
     2
274
     2
340
10
275
     0
280
     0
281
     0
282
     0
283
     2
284
     8
285
     0
286
     0
287
     3
288
     0
  0
DIMSTYLE
105
234
100
AcDbSymbolTableRecord
100
AcDbDimStyleTableRecord
  2
TOLL-04
 70
     0
  3

  4

  5

  6

  7

 40
1.0
 41
2.5
 42
0.625
 43
3.75
 44
1.25
 45
0.0
 46
0.0
 47
0.05
 48
0.05
140
3.0
141
2.5
142
0.0
143
0.03937
144
1.0
145
0.0
146
0.8
147
0.625
 71
     1
 72
     0
 73
     0
 74
     0
 75
     0
 76
     0
 77
     1
 78
     8
170
     0
171
     2
172
     0
173
     0
174
     0
175
     0
176
     0
177
     0
178
     0
270
     2
271
     2
272
     2
273
     2
274
     2
340
10
275
     0
280
     0
281
     0
282
     0
283
     2
284
     8
285
     0
286
     0
287
     3
288
     0
  0
DIMSTYLE
105
235
100
AcDbSymbolTableRecord
100
AcDbDimStyleTableRecord
  2
TOLL-05
 70
     0
  3

  4

  5

  6

  7

 40
1.0
 41
2.5
 42
0.625
 43
3.75
 44
1.25
 45
0.0
 46
0.0
 47
0.1
 48
0.0
140
3.0
141
2.5
142
0.0
143
0.03937
144
1.0
145
0.0
146
0.8
147
0.625
 71
     1
 72
     0
 73
     0
 74
     0
 75
     0
 76
     0
 77
     1
 78
     8
170
     0
171
     2
172
     0
173
     0
174
     0
175
     0
176
     0
177
     0
178
     0
270
     2
271
     2
272
     2
273
     2
274
     2
340
10
275
     0
280
     0
281
     0
282
     0
283
     2
284
     8
285
     0
286
     0
287
     3
288
     0
  0
DIMSTYLE
105
247
100
AcDbSymbolTableRecord
100
AcDbDimStyleTableRecord
  2
TOLL-07
 70
     0
  3

  4

  5

  6

  7

 40
1.0
 41
2.5
 42
0.625
 43
3.75
 44
1.25
 45
0.0
 46
0.0
 47
-0.1
 48
0.0
140
3.0
141
2.5
142
0.0
143
0.03937
144
1.0
145
0.0
146
1.0
147
0.625
 71
     1
 72
     0
 73
     0
 74
     0
 75
     0
 76
     0
 77
     1
 78
     8
170
     0
171
     2
172
     0
173
     0
174
     0
175
     0
176
     0
177
     0
178
     0
270
     2
271
     2
272
     2
273
     2
274
     2
340
10
275
     0
280
     0
281
     0
282
     0
283
     1
284
     8
285
     0
286
     0
287
     3
288
     0
  0
DIMSTYLE
105
251
100
AcDbSymbolTableRecord
100
AcDbDimStyleTableRecord
  2
TOLL-08
 70
     0
  3

  4

  5

  6

  7

 40
1.0
 41
2.5
 42
0.625
 43
3.75
 44
1.25
 45
0.0
 46
0.0
 47
0.05
 48
0.0
140
3.0
141
2.5
142
0.0
143
0.03937
144
1.0
145
0.0
146
1.0
147
0.625
 71
     1
 72
     0
 73
     0
 74
     0
 75
     0
 76
     0
 77
     1
 78
     8
170
     0
171
     2
172
     0
173
     0
174
     0
175
     0
176
     0
177
     0
178
     0
270
     2
271
     2
272
     2
273
     2
274
     2
340
10
275
     0
280
     0
281
     0
282
     0
283
     1
284
     8
285
     0
286
     0
287
     3
288
     0
  0
DIMSTYLE
105
71E
100
AcDbSymbolTableRecord
100
AcDbDimStyleTableRecord
  2
ISO-25
 70
     0
  3

  4

  5

  6

  7

 40
1.0
 41
2.5
 42
0.625
 43
3.75
 44
1.25
 45
0.0
 46
0.0
 47
0.0
 48
0.0
140
2.5
141
2.5
142
0.0
143
0.0394
144
1.0
145
1.0
146
1.0
147
0.625
 71
     0
 72
     0
 73
     1
 74
     0
 75
     0
 76
     0
 77
     1
 78
     8
170
     0
171
     2
172
     1
173
     0
174
     0
175
     0
176
     0
177
     0
178
     0
270
     2
271
     4
272
     4
273
     2
274
     2
340
10
275
     0
280
     0
281
     0
282
     0
283
     1
284
     0
285
     0
286
     0
287
     3
288
     0
  0
ENDTAB
  0
TABLE
  2
BLOCK_RECORD
  5
1
100
AcDbSymbolTable
 70
    18
  0
BLOCK_RECORD
  5
19
100
AcDbSymbolTableRecord
100
AcDbBlockTableRecord
  2
*MODEL_SPACE
  0
BLOCK_RECORD
  5
16
100
AcDbSymbolTableRecord
100
AcDbBlockTableRecord
  2
*PAPER_SPACE
  0
BLOCK_RECORD
  5
515
100
AcDbSymbolTableRecord
100
AcDbBlockTableRecord
  2
*D0
  0
BLOCK_RECORD
  5
522
100
AcDbSymbolTableRecord
100
AcDbBlockTableRecord
  2
*D1
  0
BLOCK_RECORD
  5
52F
100
AcDbSymbolTableRecord
100
AcDbBlockTableRecord
  2
*D2
  0
BLOCK_RECORD
  5
53C
100
AcDbSymbolTableRecord
100
AcDbBlockTableRecord
  2
*D3
  0
BLOCK_RECORD
  5
54A
100
AcDbSymbolTableRecord
100
AcDbBlockTableRecord
  2
*D4
  0
BLOCK_RECORD
  5
557
100
AcDbSymbolTableRecord
100
AcDbBlockTableRecord
  2
*D5
  0
BLOCK_RECORD
  5
572
100
AcDbSymbolTableRecord
100
AcDbBlockTableRecord
  2
*D6
  0
BLOCK_RECORD
  5
57D
100
AcDbSymbolTableRecord
100
AcDbBlockTableRecord
  2
*D7
  0
BLOCK_RECORD
  5
58C
100
AcDbSymbolTableRecord
100
AcDbBlockTableRecord
  2
*D8
  0
BLOCK_RECORD
  5
599
100
AcDbSymbolTableRecord
100
AcDbBlockTableRecord
  2
*D9
  0
BLOCK_RECORD
  5
5DD
100
AcDbSymbolTableRecord
100
AcDbBlockTableRecord
  2
*D10
  0
BLOCK_RECORD
  5
5F7
100
AcDbSymbolTableRecord
100
AcDbBlockTableRecord
  2
*D11
  0
BLOCK_RECORD
  5
687
100
AcDbSymbolTableRecord
100
AcDbBlockTableRecord
  2
*D12
  0
BLOCK_RECORD
  5
6A9
100
AcDbSymbolTableRecord
100
AcDbBlockTableRecord
  2
*X13
  0
BLOCK_RECORD
  5
71F
100
AcDbSymbolTableRecord
100
AcDbBlockTableRecord
  2
A$C11C2
  0
BLOCK_RECORD
  5
7C8
100
AcDbSymbolTableRecord
100
AcDbBlockTableRecord
  2
*D15
  0
BLOCK_RECORD
  5
7D5
100
AcDbSymbolTableRecord
100
AcDbBlockTableRecord
  2
*D16
  0
BLOCK_RECORD
  5
7FA
100
AcDbSymbolTableRecord
100
AcDbBlockTableRecord
  2
*D17
  0
ENDTAB
  0
ENDSEC
  0
SECTION
  2
BLOCKS
  0
BLOCK
  5
1A
100
AcDbEntity
  8
0
100
AcDbBlockBegin
  2
*MODEL_SPACE
 70
     0
 10
0.0
 20
0.0
 30
0.0
  3
*MODEL_SPACE
  1

  0
ENDBLK
  5
1B
100
AcDbEntity
  8
0
100
AcDbBlockEnd
  0
BLOCK
  5
17
100
AcDbEntity
 67
     1
  8
0
100
AcDbBlockBegin
  2
*PAPER_SPACE
 70
     0
 10
0.0
 20
0.0
 30
0.0
  3
*PAPER_SPACE
  1

  0
ENDBLK
  5
18
100
AcDbEntity
 67
     1
  8
0
100
AcDbBlockEnd
  0
BLOCK
  5
67C
100
AcDbEntity
  8
0
100
AcDbBlockBegin
  2
*D0
 70
    65
 10
0.0
 20
0.0
 30
0.0
  3
*D0
  1

  0
LINE
  5
67D
100
AcDbEntity
  8
0
  6
BYBLOCK
 62
     0
100
AcDbLine
 10
94.964091
 20
102.170436
 30
0.0
 11
144.535418
 21
102.170436
 31
0.0
  0
LINE
  5
67E
100
AcDbEntity
  8
0
  6
BYBLOCK
 62
     0
100
AcDbLine
 10
99.964091
 20
192.170436
 30
0.0
 11
144.535418
 21
192.170436
 31
0.0
  0
LINE
  5
67F
100
AcDbEntity
  8
0
  6
BYBLOCK
 62
     0
100
AcDbLine
 10
143.285418
 20
104.670436
 30
0.0
 11
143.285418
 21
189.670436
 31
0.0
  0
SOLID
  5
680
100
AcDbEntity
  8
0
  6
BYBLOCK
 62
     0
100
AcDbTrace
 10
142.868751
 20
104.670436
 30
0.0
 11
143.702085
 21
104.670436
 31
0.0
 12
143.285418
 22
102.170436
 32
0.0
 13
143.285418
 23
102.170436
 33
0.0
  0
SOLID
  5
681
100
AcDbEntity
  8
0
  6
BYBLOCK
 62
     0
100
AcDbTrace
 10
142.868751
 20
189.670436
 30
0.0
 11
143.702085
 21
189.670436
 31
0.0
 12
143.285418
 22
192.170436
 32
0.0
 13
143.285418
 23
192.170436
 33
0.0
  0
MTEXT
  5
682
100
AcDbEntity
  8
0
  6
BYBLOCK
 62
     0
100
AcDbMText
 10
139.919709
 20
154.9406
 30
0.0
 40
3.0
 41
0.0
 71
     5
 72
     1
  1
\A2;90{\H2.400000;\S+0.02^  0;}
 11
0.0
 21
1.0
 31
0.0
  0
POINT
  5
683
100
AcDbEntity
  8
DEFPOINTS
  6
BYBLOCK
 62
     0
100
AcDbPoint
 10
94.339091
 20
102.170436
 30
0.0
  0
POINT
  5
684
100
AcDbEntity
  8
DEFPOINTS
  6
BYBLOCK
 62
     0
100
AcDbPoint
 10
99.339091
 20
192.170436
 30
0.0
  0
POINT
  5
685
100
AcDbEntity
  8
DEFPOINTS
  6
BYBLOCK
 62
     0
100
AcDbPoint
 10
143.285418
 20
192.170436
 30
0.0
  0
ENDBLK
  5
686
100
AcDbEntity
  8
0
100
AcDbBlockEnd
  0
BLOCK
  5
5D2
100
AcDbEntity
  8
0
100
AcDbBlockBegin
  2
*D1
 70
    65
 10
0.0
 20
0.0
 30
0.0
  3
*D1
  1

  0
LINE
  5
5D3
100
AcDbEntity
  8
0
  6
BYBLOCK
 62
     0
100
AcDbLine
 10
86.964091
 20
222.170436
 30
0.0
 11
144.125881
 21
222.170436
 31
0.0
  0
LINE
  5
5D4
100
AcDbEntity
  8
0
  6
BYBLOCK
 62
     0
100
AcDbLine
 10
99.964091
 20
192.170436
 30
0.0
 11
144.125881
 21
192.170436
 31
0.0
  0
LINE
  5
5D5
100
AcDbEntity
  8
0
  6
BYBLOCK
 62
     0
100
AcDbLine
 10
142.875881
 20
219.670436
 30
0.0
 11
142.875881
 21
194.670436
 31
0.0
  0
SOLID
  5
5D6
100
AcDbEntity
  8
0
  6
BYBLOCK
 62
     0
100
AcDbTrace
 10
142.459215
 20
219.670436
 30
0.0
 11
143.292548
 21
219.670436
 31
0.0
 12
142.875881
 22
222.170436
 32
0.0
 13
142.875881
 23
222.170436
 33
0.0
  0
SOLID
  5
5D7
100
AcDbEntity
  8
0
  6
BYBLOCK
 62
     0
100
AcDbTrace
 10
142.459215
 20
194.670436
 30
0.0
 11
143.292548
 21
194.670436
 31
0.0
 12
142.875881
 22
192.170436
 32
0.0
 13
142.875881
 23
192.170436
 33
0.0
  0
MTEXT
  5
5D8
100
AcDbEntity
  8
0
  6
BYBLOCK
 62
     0
100
AcDbMText
 10
140.750881
 20
207.170436
 30
0.0
 40
3.0
 41
0.0
 71
     5
 72
     1
  1
\A1;30
 11
0.0
 21
1.0
 31
0.0
  0
POINT
  5
5D9
100
AcDbEntity
  8
DEFPOINTS
  6
BYBLOCK
 62
     0
100
AcDbPoint
 10
86.339091
 20
222.170436
 30
0.0
  0
POINT
  5
5DA
100
AcDbEntity
  8
DEFPOINTS
  6
BYBLOCK
 62
     0
100
AcDbPoint
 10
99.339091
 20
192.170436
 30
0.0
  0
POINT
  5
5DB
100
AcDbEntity
  8
DEFPOINTS
  6
BYBLOCK
 62
     0
100
AcDbPoint
 10
142.875881
 20
192.170436
 30
0.0
  0
ENDBLK
  5
5DC
100
AcDbEntity
  8
0
100
AcDbBlockEnd
  0
BLOCK
  5
658
100
AcDbEntity
  8
0
100
AcDbBlockBegin
  2
*D2
 70
    65
 10
0.0
 20
0.0
 30
0.0
  3
*D2
  1

  0
LINE
  5
659
100
AcDbEntity
  8
0
  6
BYBLOCK
 62
     0
100
AcDbLine
 10
74.339091
 20
221.795436
 30
0.0
 11
74.339091
 21
241.154524
 31
0.0
  0
LINE
  5
65A
100
AcDbEntity
  8
0
  6
BYBLOCK
 62
     0
100
AcDbLine
 10
87.339091
 20
221.795436
 30
0.0
 11
87.339091
 21
241.154524
 31
0.0
  0
LINE
  5
65B
100
AcDbEntity
  8
0
  6
BYBLOCK
 62
     0
100
AcDbLine
 10
84.839091
 20
239.904524
 30
0.0
 11
76.839091
 21
239.904524
 31
0.0
  0
LINE
  5
65C
100
AcDbEntity
  8
0
  6
BYBLOCK
 62
     0
100
AcDbLine
 10
74.339091
 20
239.904524
 30
0.0
 11
56.882305
 21
239.904524
 31
0.0
  0
SOLID
  5
65D
100
AcDbEntity
  8
0
  6
BYBLOCK
 62
     0
100
AcDbTrace
 10
84.839091
 20
240.321191
 30
0.0
 11
84.839091
 21
239.487857
 31
0.0
 12
87.339091
 22
239.904524
 32
0.0
 13
87.339091
 23
239.904524
 33
0.0
  0
SOLID
  5
65E
100
AcDbEntity
  8
0
  6
BYBLOCK
 62
     0
100
AcDbTrace
 10
76.839091
 20
240.321191
 30
0.0
 11
76.839091
 21
239.487857
 31
0.0
 12
74.339091
 22
239.904524
 32
0.0
 13
74.339091
 23
239.904524
 33
0.0
  0
MTEXT
  5
65F
100
AcDbEntity
  8
0
  6
BYBLOCK
 62
     0
100
AcDbMText
 10
63.579305
 20
243.270233
 30
0.0
 40
3.0
 41
0.0
 71
     5
 72
     1
  1
\A2;13{\H2.400000;\S+0.02^  0;}
  0
POINT
  5
660
100
AcDbEntity
  8
DEFPOINTS
  6
BYBLOCK
 62
     0
100
AcDbPoint
 10
74.339091
 20
221.170436
 30
0.0
  0
POINT
  5
661
100
AcDbEntity
  8
DEFPOINTS
  6
BYBLOCK
 62
     0
100
AcDbPoint
 10
87.339091
 20
221.170436
 30
0.0
  0
POINT
  5
662
100
AcDbEntity
  8
DEFPOINTS
  6
BYBLOCK
 62
     0
100
AcDbPoint
 10
87.339091
 20
239.904524
 30
0.0
  0
ENDBLK
  5
663
100
AcDbEntity
  8
0
100
AcDbBlockEnd
  0
BLOCK
  5
670
100
AcDbEntity
  8
0
100
AcDbBlockBegin
  2
*D3
 70
    65
 10
0.0
 20
0.0
 30
0.0
  3
*D3
  1

  0
LINE
  5
671
100
AcDbEntity
  8
0
  6
BYBLOCK
 62
     0
100
AcDbLine
 10
87.339091
 20
221.795436
 30
0.0
 11
87.339091
 21
241.154524
 31
0.0
  0
LINE
  5
672
100
AcDbEntity
  8
0
  6
BYBLOCK
 62
     0
100
AcDbLine
 10
94.339091
 20
238.986208
 30
0.0
 11
94.339091
 21
241.154524
 31
0.0
  0
LINE
  5
673
100
AcDbEntity
  8
0
  6
BYBLOCK
 62
     0
100
AcDbLine
 10
89.839091
 20
239.904524
 30
0.0
 11
91.839091
 21
239.904524
 31
0.0
  0
LINE
  5
674
100
AcDbEntity
  8
0
  6
BYBLOCK
 62
     0
100
AcDbLine
 10
94.339091
 20
239.904524
 30
0.0
 11
111.901069
 21
239.904524
 31
0.0
  0
SOLID
  5
675
100
AcDbEntity
  8
0
  6
BYBLOCK
 62
     0
100
AcDbTrace
 10
89.839091
 20
240.321191
 30
0.0
 11
89.839091
 21
239.487857
 31
0.0
 12
87.339091
 22
239.904524
 32
0.0
 13
87.339091
 23
239.904524
 33
0.0
  0
SOLID
  5
676
100
AcDbEntity
  8
0
  6
BYBLOCK
 62
     0
100
AcDbTrace
 10
91.839091
 20
240.321191
 30
0.0
 11
91.839091
 21
239.487857
 31
0.0
 12
94.339091
 22
239.904524
 32
0.0
 13
94.339091
 23
239.904524
 33
0.0
  0
MTEXT
  5
677
100
AcDbEntity
  8
0
  6
BYBLOCK
 62
     0
100
AcDbMText
 10
106.689069
 20
242.029524
 30
0.0
 40
3.0
 41
0.0
 71
     5
 72
     1
  1
\A2;7{\H2.400000;±0.01}
  0
POINT
  5
678
100
AcDbEntity
  8
DEFPOINTS
  6
BYBLOCK
 62
     0
100
AcDbPoint
 10
87.339091
 20
221.170436
 30
0.0
  0
POINT
  5
679
100
AcDbEntity
  8
DEFPOINTS
  6
BYBLOCK
 62
     0
100
AcDbPoint
 10
94.339091
 20
238.361208
 30
0.0
  0
POINT
  5
67A
100
AcDbEntity
  8
DEFPOINTS
  6
BYBLOCK
 62
     0
100
AcDbPoint
 10
94.339091
 20
239.904524
 30
0.0
  0
ENDBLK
  5
67B
100
AcDbEntity
  8
0
100
AcDbBlockEnd
  0
BLOCK
  5
641
100
AcDbEntity
  8
0
100
AcDbBlockBegin
  2
*D4
 70
    65
 10
0.0
 20
0.0
 30
0.0
  3
*D4
  1

  0
LINE
  5
642
100
AcDbEntity
  8
0
  6
BYBLOCK
 62
     0
100
AcDbLine
 10
74.339091
 20
221.795436
 30
0.0
 11
74.339091
 21
258.398463
 31
0.0
  0
LINE
  5
643
100
AcDbEntity
  8
0
  6
BYBLOCK
 62
     0
100
AcDbLine
 10
100.339091
 20
191.795436
 30
0.0
 11
100.339091
 21
258.398463
 31
0.0
  0
LINE
  5
644
100
AcDbEntity
  8
0
  6
BYBLOCK
 62
     0
100
AcDbLine
 10
76.839091
 20
257.148463
 30
0.0
 11
97.839091
 21
257.148463
 31
0.0
  0
SOLID
  5
645
100
AcDbEntity
  8
0
  6
BYBLOCK
 62
     0
100
AcDbTrace
 10
76.839091
 20
257.56513
 30
0.0
 11
76.839091
 21
256.731797
 31
0.0
 12
74.339091
 22
257.148463
 32
0.0
 13
74.339091
 23
257.148463
 33
0.0
  0
SOLID
  5
646
100
AcDbEntity
  8
0
  6
BYBLOCK
 62
     0
100
AcDbTrace
 10
97.839091
 20
257.56513
 30
0.0
 11
97.839091
 21
256.731797
 31
0.0
 12
100.339091
 22
257.148463
 32
0.0
 13
100.339091
 23
257.148463
 33
0.0
  0
MTEXT
  5
647
100
AcDbEntity
  8
0
  6
BYBLOCK
 62
     0
100
AcDbMText
 10
87.339091
 20
260.514172
 30
0.0
 40
3.0
 41
0.0
 71
     5
 72
     1
  1
\A2;26{\H2.400000;\S+0.02^  0;}
  0
POINT
  5
648
100
AcDbEntity
  8
DEFPOINTS
  6
BYBLOCK
 62
     0
100
AcDbPoint
 10
74.339091
 20
221.170436
 30
0.0
  0
POINT
  5
649
100
AcDbEntity
  8
DEFPOINTS
  6
BYBLOCK
 62
     0
100
AcDbPoint
 10
100.339091
 20
191.170436
 30
0.0
  0
POINT
  5
64A
100
AcDbEntity
  8
DEFPOINTS
  6
BYBLOCK
 62
     0
100
AcDbPoint
 10
100.339091
 20
257.148463
 30
0.0
  0
ENDBLK
  5
64B
100
AcDbEntity
  8
0
100
AcDbBlockEnd
  0
BLOCK
  5
558
100
AcDbEntity
  8
0
100
AcDbBlockBegin
  2
*D5
 70
    65
 10
0.0
 20
0.0
 30
0.0
  3
*D5
  1

  0
LINE
  5
559
100
AcDbEntity
  8
0
  6
BYBLOCK
 62
     0
100
AcDbLine
 10
74.714091
 20
222.170436
 30
0.0
 11
56.281538
 21
222.170436
 31
0.0
  0
LINE
  5
55A
100
AcDbEntity
  8
0
  6
BYBLOCK
 62
     0
100
AcDbLine
 10
73.714091
 20
205.170436
 30
0.0
 11
56.281538
 21
205.170436
 31
0.0
  0
LINE
  5
55B
100
AcDbEntity
  8
0
  6
BYBLOCK
 62
     0
100
AcDbLine
 10
57.531538
 20
219.670436
 30
0.0
 11
57.531538
 21
207.670436
 31
0.0
  0
SOLID
  5
55C
100
AcDbEntity
  8
0
  6
BYBLOCK
 62
     0
100
AcDbTrace
 10
57.114871
 20
219.670436
 30
0.0
 11
57.948204
 21
219.670436
 31
0.0
 12
57.531538
 22
222.170436
 32
0.0
 13
57.531538
 23
222.170436
 33
0.0
  0
SOLID
  5
55D
100
AcDbEntity
  8
0
  6
BYBLOCK
 62
     0
100
AcDbTrace
 10
57.114871
 20
207.670436
 30
0.0
 11
57.948204
 21
207.670436
 31
0.0
 12
57.531538
 22
205.170436
 32
0.0
 13
57.531538
 23
205.170436
 33
0.0
  0
MTEXT
  5
55E
100
AcDbEntity
  8
0
  6
BYBLOCK
 62
     0
100
AcDbMText
 10
55.406538
 20
213.670436
 30
0.0
 40
3.0
 41
0.0
 71
     5
 72
     1
  1
\A1;17
 11
0.0
 21
1.0
 31
0.0
  0
POINT
  5
55F
100
AcDbEntity
  8
DEFPOINTS
  6
BYBLOCK
 62
     0
100
AcDbPoint
 10
75.339091
 20
222.170436
 30
0.0
  0
POINT
  5
560
100
AcDbEntity
  8
DEFPOINTS
  6
BYBLOCK
 62
     0
100
AcDbPoint
 10
74.339091
 20
205.170436
 30
0.0
  0
POINT
  5
561
100
AcDbEntity
  8
DEFPOINTS
  6
BYBLOCK
 62
     0
100
AcDbPoint
 10
57.531538
 20
205.170436
 30
0.0
  0
ENDBLK
  5
562
100
AcDbEntity
  8
0
100
AcDbBlockEnd
  0
BLOCK
  5
573
100
AcDbEntity
  8
0
100
AcDbBlockBegin
  2
*D6
 70
    65
 10
0.0
 20
0.0
 30
0.0
  3
*D6
  1

  0
LINE
  5
574
100
AcDbEntity
  8
0
  6
BYBLOCK
 62
     0
100
AcDbLine
 10
93.124032
 20
99.859448
 30
0.0
 11
89.938545
 21
89.868284
 31
0.0
  0
SOLID
  5
575
100
AcDbEntity
  8
0
  6
BYBLOCK
 62
     0
100
AcDbTrace
 10
92.727054
 20
99.986017
 30
0.0
 11
93.52101
 21
99.732879
 31
0.0
 12
93.883444
 22
102.241316
 32
0.0
 13
93.883444
 23
102.241316
 33
0.0
  0
MTEXT
  5
576
100
AcDbEntity
  8
0
  6
BYBLOCK
 62
     0
100
AcDbMText
 10
89.126995
 20
94.318432
 30
0.0
 40
3.0
 41
0.0
 71
     5
 72
     1
  1
\A1;R1.5
 11
0.303765
 21
0.952747
 31
0.0
  0
LINE
  5
577
100
AcDbEntity
  8
0
  6
BYBLOCK
 62
     0
100
AcDbLine
 10
91.839091
 20
103.670436
 30
0.0
 11
96.839091
 21
103.670436
 31
0.0
  0
LINE
  5
578
100
AcDbEntity
  8
0
  6
BYBLOCK
 62
     0
100
AcDbLine
 10
94.339091
 20
101.170436
 30
0.0
 11
94.339091
 21
106.170436
 31
0.0
  0
POINT
  5
579
100
AcDbEntity
  8
DEFPOINTS
  6
BYBLOCK
 62
     0
100
AcDbPoint
 10
93.883444
 20
102.241316
 30
0.0
  0
POINT
  5
57A
100
AcDbEntity
  8
DEFPOINTS
  6
BYBLOCK
 62
     0
100
AcDbPoint
 10
94.339091
 20
103.670436
 30
0.0
  0
ENDBLK
  5
57B
100
AcDbEntity
  8
0
100
AcDbBlockEnd
  0
BLOCK
  5
57E
100
AcDbEntity
  8
0
100
AcDbBlockBegin
  2
*D7
 70
    65
 10
0.0
 20
0.0
 30
0.0
  3
*D7
  1

  0
LINE
  5
57F
100
AcDbEntity
  8
0
  6
BYBLOCK
 62
     0
100
AcDbLine
 10
94.15115
 20
98.086099
 30
0.0
 11
87.661106
 21
77.502311
 31
0.0
  0
LINE
  5
580
100
AcDbEntity
  8
0
  6
BYBLOCK
 62
     0
100
AcDbLine
 10
94.527032
 20
98.086099
 30
0.0
 11
101.017075
 21
77.502311
 31
0.0
  0
ARC
  5
581
100
AcDbEntity
  8
0
  6
BYBLOCK
 62
     0
100
AcDbCircle
 10
94.339091
 20
98.682172
 30
0.0
 40
20.957701
100
AcDbArc
 50
259.338752
 51
280.661248
  0
SOLID
  5
582
100
AcDbEntity
  8
0
  6
BYBLOCK
 62
     0
100
AcDbTrace
 10
90.360505
 20
77.682092
 30
0.0
 11
90.563244
 21
78.490387
 31
0.0
 12
88.036988
 22
78.694457
 32
0.0
 13
88.036988
 23
78.694457
 33
0.0
  0
SOLID
  5
583
100
AcDbEntity
  8
0
  6
BYBLOCK
 62
     0
100
AcDbTrace
 10
98.114937
 20
78.490387
 30
0.0
 11
98.317677
 21
77.682092
 31
0.0
 12
100.641193
 22
78.694457
 32
0.0
 13
100.641193
 23
78.694457
 33
0.0
  0
MTEXT
  5
584
100
AcDbEntity
  8
0
  6
BYBLOCK
 62
     0
100
AcDbMText
 10
94.339091
 20
79.849471
 30
0.0
 40
3.0
 41
0.0
 71
     5
 72
     1
  1
\A1;35°
  0
POINT
  5
585
100
AcDbEntity
  8
DEFPOINTS
  6
BYBLOCK
 62
     0
100
AcDbPoint
 10
92.209053
 20
77.832995
 30
0.0
  0
POINT
  5
586
100
AcDbEntity
  8
DEFPOINTS
  6
BYBLOCK
 62
     0
100
AcDbPoint
 10
92.908515
 20
103.219378
 30
0.0
  0
POINT
  5
587
100
AcDbEntity
  8
DEFPOINTS
  6
BYBLOCK
 62
     0
100
AcDbPoint
 10
95.769666
 20
103.219378
 30
0.0
  0
POINT
  5
588
100
AcDbEntity
  8
DEFPOINTS
  6
BYBLOCK
 62
     0
100
AcDbPoint
 10
100.588121
 20
118.501563
 30
0.0
  0
POINT
  5
589
100
AcDbEntity
  8
DEFPOINTS
  6
BYBLOCK
 62
     0
100
AcDbPoint
 10
87.078597
 20
121.709516
 30
0.0
  0
ENDBLK
  5
58A
100
AcDbEntity
  8
0
100
AcDbBlockEnd
  0
BLOCK
  5
58D
100
AcDbEntity
  8
0
100
AcDbBlockBegin
  2
*D8
 70
    65
 10
0.0
 20
0.0
 30
0.0
  3
*D8
  1

  0
LINE
  5
58E
100
AcDbEntity
  8
0
  6
BYBLOCK
 62
     0
100
AcDbLine
 10
101.171846
 20
118.278204
 30
0.0
 11
117.32637
 21
112.09675
 31
0.0
  0
LINE
  5
58F
100
AcDbEntity
  8
0
  6
BYBLOCK
 62
     0
100
AcDbLine
 10
94.922816
 20
101.947076
 30
0.0
 11
111.07734
 21
95.765623
 31
0.0
  0
LINE
  5
590
100
AcDbEntity
  8
0
  6
BYBLOCK
 62
     0
100
AcDbLine
 10
115.26548
 20
110.208568
 30
0.0
 11
110.803328
 21
98.547244
 31
0.0
  0
SOLID
  5
591
100
AcDbEntity
  8
0
  6
BYBLOCK
 62
     0
100
AcDbTrace
 10
114.876329
 20
110.357475
 30
0.0
 11
115.65463
 21
110.059661
 31
0.0
 12
116.158919
 22
112.54347
 32
0.0
 13
116.158919
 23
112.54347
 33
0.0
  0
SOLID
  5
592
100
AcDbEntity
  8
0
  6
BYBLOCK
 62
     0
100
AcDbTrace
 10
110.414178
 20
98.696151
 30
0.0
 11
111.192478
 21
98.398338
 31
0.0
 12
109.909889
 22
96.212343
 32
0.0
 13
109.909889
 23
96.212343
 33
0.0
  0
MTEXT
  5
593
100
AcDbEntity
  8
0
  6
BYBLOCK
 62
     0
100
AcDbMText
 10
111.049737
 20
105.13733
 30
0.0
 40
3.0
 41
0.0
 71
     5
 72
     1
  1
\A1;17.49
 11
0.357376
 21
0.933961
 31
0.0
  0
POINT
  5
594
100
AcDbEntity
  8
DEFPOINTS
  6
BYBLOCK
 62
     0
100
AcDbPoint
 10
100.588121
 20
118.501563
 30
0.0
  0
POINT
  5
595
100
AcDbEntity
  8
DEFPOINTS
  6
BYBLOCK
 62
     0
100
AcDbPoint
 10
94.339091
 20
102.170436
 30
0.0
  0
POINT
  5
596
100
AcDbEntity
  8
DEFPOINTS
  6
BYBLOCK
 62
     0
100
AcDbPoint
 10
109.909889
 20
96.212343
 30
0.0
  0
ENDBLK
  5
597
100
AcDbEntity
  8
0
100
AcDbBlockEnd
  0
BLOCK
  5
59A
100
AcDbEntity
  8
0
100
AcDbBlockBegin
  2
*D9
 70
    65
 10
0.0
 20
0.0
 30
0.0
  3
*D9
  1

  0
LINE
  5
59B
100
AcDbEntity
  8
0
  6
BYBLOCK
 62
     0
100
AcDbLine
 10
86.492737
 20
121.491817
 30
0.0
 11
74.982912
 21
117.2149
 31
0.0
  0
LINE
  5
59C
100
AcDbEntity
  8
0
  6
BYBLOCK
 62
     0
100
AcDbLine
 10
93.75323
 20
101.952737
 30
0.0
 11
82.243405
 21
97.675821
 31
0.0
  0
LINE
  5
59D
100
AcDbEntity
  8
0
  6
BYBLOCK
 62
     0
100
AcDbLine
 10
77.025427
 20
115.306857
 30
0.0
 11
82.54433
 21
100.454659
 31
0.0
  0
SOLID
  5
59E
100
AcDbEntity
  8
0
  6
BYBLOCK
 62
     0
100
AcDbTrace
 10
77.416001
 20
115.45199
 30
0.0
 11
76.634854
 21
115.161724
 31
0.0
 12
76.154632
 22
117.650298
 32
0.0
 13
76.154632
 23
117.650298
 33
0.0
  0
SOLID
  5
59F
100
AcDbEntity
  8
0
  6
BYBLOCK
 62
     0
100
AcDbTrace
 10
82.934904
 20
100.599792
 30
0.0
 11
82.153757
 21
100.309527
 31
0.0
 12
83.415126
 22
98.111218
 32
0.0
 13
83.415126
 23
98.111218
 33
0.0
  0
MTEXT
  5
5A0
100
AcDbEntity
  8
0
  6
BYBLOCK
 62
     0
100
AcDbMText
 10
81.776804
 20
108.620934
 30
0.0
 40
3.0
 41
0.0
 71
     5
 72
     1
  1
\A1;20.84
 11
0.348318
 21
-0.937376
 31
0.0
  0
POINT
  5
5A1
100
AcDbEntity
  8
DEFPOINTS
  6
BYBLOCK
 62
     0
100
AcDbPoint
 10
87.078597
 20
121.709516
 30
0.0
  0
POINT
  5
5A2
100
AcDbEntity
  8
DEFPOINTS
  6
BYBLOCK
 62
     0
100
AcDbPoint
 10
94.339091
 20
102.170436
 30
0.0
  0
POINT
  5
5A3
100
AcDbEntity
  8
DEFPOINTS
  6
BYBLOCK
 62
     0
100
AcDbPoint
 10
83.415126
 20
98.111218
 30
0.0
  0
ENDBLK
  5
5A4
100
AcDbEntity
  8
0
100
AcDbBlockEnd
  0
BLOCK
  5
5EB
100
AcDbEntity
  8
0
100
AcDbBlockBegin
  2
*D10
 70
    65
 10
0.0
 20
0.0
 30
0.0
  3
*D10
  1

  0
LINE
  5
5EC
100
AcDbEntity
  8
0
  6
BYBLOCK
 62
     0
100
AcDbLine
 10
86.890656
 20
122.305589
 30
0.0
 11
82.60079
 21
135.911304
 31
0.0
  0
LINE
  5
5ED
100
AcDbEntity
  8
0
  6
BYBLOCK
 62
     0
100
AcDbLine
 10
87.950303
 20
122.639694
 30
0.0
 11
83.660437
 21
136.245409
 31
0.0
  0
LINE
  5
5EE
100
AcDbEntity
  8
0
  6
BYBLOCK
 62
     0
100
AcDbLine
 10
86.420612
 20
135.805028
 30
0.0
 11
88.804904
 21
136.556792
 31
0.0
  0
LINE
  5
5EF
100
AcDbEntity
  8
0
  6
BYBLOCK
 62
     0
100
AcDbLine
 10
80.59238
 20
133.967393
 30
0.0
 11
74.083262
 21
131.915076
 31
0.0
  0
SOLID
  5
5F0
100
AcDbEntity
  8
0
  6
BYBLOCK
 62
     0
100
AcDbTrace
 10
86.295318
 20
136.20241
 30
0.0
 11
86.545906
 21
135.407646
 31
0.0
 12
84.036319
 22
135.053263
 32
0.0
 13
84.036319
 23
135.053263
 33
0.0
  0
SOLID
  5
5F1
100
AcDbEntity
  8
0
  6
BYBLOCK
 62
     0
100
AcDbTrace
 10
80.467086
 20
134.364775
 30
0.0
 11
80.717674
 21
133.570011
 31
0.0
 12
82.976673
 22
134.719158
 32
0.0
 13
82.976673
 23
134.719158
 33
0.0
  0
MTEXT
  5
5F2
100
AcDbEntity
  8
0
  6
BYBLOCK
 62
     0
100
AcDbMText
 10
76.400785
 20
134.873913
 30
0.0
 40
3.0
 41
0.0
 71
     5
 72
     1
  1
\A1;1.11
 11
0.953717
 21
0.300706
 31
0.0
  0
POINT
  5
5F3
100
AcDbEntity
  8
DEFPOINTS
  6
BYBLOCK
 62
     0
100
AcDbPoint
 10
87.078597
 20
121.709516
 30
0.0
  0
POINT
  5
5F4
100
AcDbEntity
  8
DEFPOINTS
  6
BYBLOCK
 62
     0
100
AcDbPoint
 10
88.138244
 20
122.043621
 30
0.0
  0
POINT
  5
5F5
100
AcDbEntity
  8
DEFPOINTS
  6
BYBLOCK
 62
     0
100
AcDbPoint
 10
84.036319
 20
135.053263
 30
0.0
  0
ENDBLK
  5
5F6
100
AcDbEntity
  8
0
100
AcDbBlockEnd
  0
BLOCK
  5
635
100
AcDbEntity
  8
0
100
AcDbBlockBegin
  2
*D11
 70
    65
 10
0.0
 20
0.0
 30
0.0
  3
*D11
  1

  0
LINE
  5
636
100
AcDbEntity
  8
0
  6
BYBLOCK
 62
     0
100
AcDbLine
 10
74.339091
 20
205.795436
 30
0.0
 11
74.339091
 21
208.780895
 31
0.0
  0
LINE
  5
637
100
AcDbEntity
  8
0
  6
BYBLOCK
 62
     0
100
AcDbLine
 10
77.589091
 20
205.795436
 30
0.0
 11
77.589091
 21
208.780895
 31
0.0
  0
LINE
  5
638
100
AcDbEntity
  8
0
  6
BYBLOCK
 62
     0
100
AcDbLine
 10
71.839091
 20
207.530895
 30
0.0
 11
69.339091
 21
207.530895
 31
0.0
  0
LINE
  5
639
100
AcDbEntity
  8
0
  6
BYBLOCK
 62
     0
100
AcDbLine
 10
80.089091
 20
207.530895
 30
0.0
 11
86.720781
 21
207.530895
 31
0.0
  0
SOLID
  5
63A
100
AcDbEntity
  8
0
  6
BYBLOCK
 62
     0
100
AcDbTrace
 10
71.839091
 20
207.947562
 30
0.0
 11
71.839091
 21
207.114228
 31
0.0
 12
74.339091
 22
207.530895
 32
0.0
 13
74.339091
 23
207.530895
 33
0.0
  0
SOLID
  5
63B
100
AcDbEntity
  8
0
  6
BYBLOCK
 62
     0
100
AcDbTrace
 10
80.089091
 20
207.947562
 30
0.0
 11
80.089091
 21
207.114228
 31
0.0
 12
77.589091
 22
207.530895
 32
0.0
 13
77.589091
 23
207.530895
 33
0.0
  0
MTEXT
  5
63C
100
AcDbEntity
  8
0
  6
BYBLOCK
 62
     0
100
AcDbMText
 10
83.717436
 20
209.655895
 30
0.0
 40
3.0
 41
0.0
 71
     5
 72
     1
  1
\A1;{3.5}
  0
POINT
  5
63D
100
AcDbEntity
  8
DEFPOINTS
  6
BYBLOCK
 62
     0
100
AcDbPoint
 10
74.339091
 20
205.170436
 30
0.0
  0
POINT
  5
63E
100
AcDbEntity
  8
DEFPOINTS
  6
BYBLOCK
 62
     0
100
AcDbPoint
 10
77.589091
 20
205.170436
 30
0.0
  0
POINT
  5
63F
100
AcDbEntity
  8
DEFPOINTS
  6
BYBLOCK
 62
     0
100
AcDbPoint
 10
77.589091
 20
207.530895
 30
0.0
  0
ENDBLK
  5
640
100
AcDbEntity
  8
0
100
AcDbBlockEnd
  0
BLOCK
  5
688
100
AcDbEntity
  8
0
100
AcDbBlockBegin
  2
*D12
 70
    65
 10
0.0
 20
0.0
 30
0.0
  3
*D12
  1

  0
LINE
  5
689
100
AcDbEntity
  8
0
  6
BYBLOCK
 62
     0
100
AcDbLine
 10
86.964091
 20
222.170436
 30
0.0
 11
171.327499
 21
222.170436
 31
0.0
  0
LINE
  5
68A
100
AcDbEntity
  8
0
  6
BYBLOCK
 62
     0
100
AcDbLine
 10
94.964091
 20
102.170436
 30
0.0
 11
171.327499
 21
102.170436
 31
0.0
  0
LINE
  5
68B
100
AcDbEntity
  8
0
  6
BYBLOCK
 62
     0
100
AcDbLine
 10
170.077499
 20
219.670436
 30
0.0
 11
170.077499
 21
104.670436
 31
0.0
  0
SOLID
  5
68C
100
AcDbEntity
  8
0
  6
BYBLOCK
 62
     0
100
AcDbTrace
 10
169.660832
 20
219.670436
 30
0.0
 11
170.494166
 21
219.670436
 31
0.0
 12
170.077499
 22
222.170436
 32
0.0
 13
170.077499
 23
222.170436
 33
0.0
  0
SOLID
  5
68D
100
AcDbEntity
  8
0
  6
BYBLOCK
 62
     0
100
AcDbTrace
 10
169.660832
 20
104.670436
 30
0.0
 11
170.494166
 21
104.670436
 31
0.0
 12
170.077499
 22
102.170436
 32
0.0
 13
170.077499
 23
102.170436
 33
0.0
  0
MTEXT
  5
68E
100
AcDbEntity
  8
0
  6
BYBLOCK
 62
     0
100
AcDbMText
 10
167.952499
 20
162.170436
 30
0.0
 40
3.0
 41
0.0
 71
     5
 72
     1
  1
\A1;120
 11
0.0
 21
1.0
 31
0.0
  0
POINT
  5
68F
100
AcDbEntity
  8
DEFPOINTS
  6
BYBLOCK
 62
     0
100
AcDbPoint
 10
86.339091
 20
222.170436
 30
0.0
  0
POINT
  5
690
100
AcDbEntity
  8
DEFPOINTS
  6
BYBLOCK
 62
     0
100
AcDbPoint
 10
94.339091
 20
102.170436
 30
0.0
  0
POINT
  5
691
100
AcDbEntity
  8
DEFPOINTS
  6
BYBLOCK
 62
     0
100
AcDbPoint
 10
170.077499
 20
102.170436
 30
0.0
  0
ENDBLK
  5
692
100
AcDbEntity
  8
0
100
AcDbBlockEnd
  0
BLOCK
  5
6AA
100
AcDbEntity
  8
0
100
AcDbBlockBegin
  2
*X13
 70
    65
 10
0.0
 20
0.0
 30
0.0
  3
*X13
  1

  0
LINE
  5
6AC
100
AcDbEntity
  8
0
 62
     0
100
AcDbLine
 10
92.474033
 20
104.597379
 30
0.0
 11
94.339091
 21
106.462436
 31
0.0
  0
LINE
  5
6AD
100
AcDbEntity
  8
0
 62
     0
100
AcDbLine
 10
97.714391
 20
109.837737
 30
0.0
 11
97.921833
 21
110.045179
 31
0.0
  0
LINE
  5
6AE
100
AcDbEntity
  8
0
 62
     0
100
AcDbLine
 10
94.339091
 20
106.462436
 30
0.0
 11
96.485564
 21
108.60891
 31
0.0
  0
LINE
  5
6AF
100
AcDbEntity
  8
0
 62
     0
100
AcDbLine
 10
92.420215
 20
104.768067
 30
0.0
 11
94.339091
 21
106.686943
 31
0.0
  0
LINE
  5
6B0
100
AcDbEntity
  8
0
 62
     0
100
AcDbLine
 10
97.980065
 20
110.327917
 30
0.0
 11
98.025216
 21
110.373068
 31
0.0
  0
LINE
  5
6B1
100
AcDbEntity
  8
0
 62
     0
100
AcDbLine
 10
94.339091
 20
106.686943
 30
0.0
 11
95.995384
 21
108.343236
 31
0.0
  0
LINE
  5
6B2
100
AcDbEntity
  8
0
 62
     0
100
AcDbLine
 10
92.366397
 20
104.938756
 30
0.0
 11
94.339091
 21
106.911449
 31
0.0
  0
LINE
  5
6B3
100
AcDbEntity
  8
0
 62
     0
100
AcDbLine
 10
98.12718
 20
110.699538
 30
0.0
 11
98.128599
 21
110.700958
 31
0.0
  0
LINE
  5
6B4
100
AcDbEntity
  8
0
 62
     0
100
AcDbLine
 10
94.339091
 20
106.911449
 30
0.0
 11
95.623762
 21
108.196121
 31
0.0
  0
LINE
  5
6B5
100
AcDbEntity
  8
0
 62
     0
100
AcDbLine
 10
92.312579
 20
105.109444
 30
0.0
 11
94.339091
 21
107.135956
 31
0.0
  0
LINE
  5
6B6
100
AcDbEntity
  8
0
 62
     0
100
AcDbLine
 10
94.339091
 20
107.135956
 30
0.0
 11
95.305958
 21
108.102823
 31
0.0
  0
LINE
  5
6B7
100
AcDbEntity
  8
0
 62
     0
100
AcDbLine
 10
92.258762
 20
105.280133
 30
0.0
 11
94.339091
 21
107.360462
 31
0.0
  0
LINE
  5
6B8
100
AcDbEntity
  8
0
 62
     0
100
AcDbLine
 10
94.339091
 20
107.360462
 30
0.0
 11
95.021474
 21
108.042846
 31
0.0
  0
LINE
  5
6B9
100
AcDbEntity
  8
0
 62
     0
100
AcDbLine
 10
92.204944
 20
105.450821
 30
0.0
 11
94.339091
 21
107.584968
 31
0.0
  0
LINE
  5
6BA
100
AcDbEntity
  8
0
 62
     0
100
AcDbLine
 10
94.339091
 20
107.584968
 30
0.0
 11
94.760603
 21
108.006481
 31
0.0
  0
LINE
  5
6BB
100
AcDbEntity
  8
0
 62
     0
100
AcDbLine
 10
92.151126
 20
105.62151
 30
0.0
 11
94.339091
 21
107.809475
 31
0.0
  0
LINE
  5
6BC
100
AcDbEntity
  8
0
 62
     0
100
AcDbLine
 10
94.339091
 20
107.809475
 30
0.0
 11
94.517821
 21
107.988205
 31
0.0
  0
LINE
  5
6BD
100
AcDbEntity
  8
0
 62
     0
100
AcDbLine
 10
92.097308
 20
105.792198
 30
0.0
 11
94.289625
 21
107.984516
 31
0.0
  0
LINE
  5
6BE
100
AcDbEntity
  8
0
 62
     0
100
AcDbLine
 10
92.04349
 20
105.962887
 30
0.0
 11
94.073631
 21
107.993028
 31
0.0
  0
LINE
  5
6BF
100
AcDbEntity
  8
0
 62
     0
100
AcDbLine
 10
91.989672
 20
106.133576
 30
0.0
 11
93.868129
 21
108.012032
 31
0.0
  0
LINE
  5
6C0
100
AcDbEntity
  8
0
 62
     0
100
AcDbLine
 10
91.935854
 20
106.304264
 30
0.0
 11
93.671845
 21
108.040255
 31
0.0
  0
LINE
  5
6C1
100
AcDbEntity
  8
0
 62
     0
100
AcDbLine
 10
91.882036
 20
106.474953
 30
0.0
 11
93.483803
 21
108.076719
 31
0.0
  0
LINE
  5
6C2
100
AcDbEntity
  8
0
 62
     0
100
AcDbLine
 10
91.828218
 20
106.645641
 30
0.0
 11
93.303239
 21
108.120661
 31
0.0
  0
LINE
  5
6C3
100
AcDbEntity
  8
0
 62
     0
100
AcDbLine
 10
91.774401
 20
106.81633
 30
0.0
 11
93.129541
 21
108.17147
 31
0.0
  0
LINE
  5
6C4
100
AcDbEntity
  8
0
 62
     0
100
AcDbLine
 10
91.720583
 20
106.987018
 30
0.0
 11
92.962216
 21
108.228652
 31
0.0
  0
LINE
  5
6C5
100
AcDbEntity
  8
0
 62
     0
100
AcDbLine
 10
91.666765
 20
107.157707
 30
0.0
 11
92.800863
 21
108.291805
 31
0.0
  0
LINE
  5
6C6
100
AcDbEntity
  8
0
 62
     0
100
AcDbLine
 10
91.612947
 20
107.328395
 30
0.0
 11
92.64515
 21
108.360598
 31
0.0
  0
LINE
  5
6C7
100
AcDbEntity
  8
0
 62
     0
100
AcDbLine
 10
91.559129
 20
107.499084
 30
0.0
 11
92.494804
 21
108.434759
 31
0.0
  0
LINE
  5
6C8
100
AcDbEntity
  8
0
 62
     0
100
AcDbLine
 10
91.505311
 20
107.669772
 30
0.0
 11
92.349601
 21
108.514062
 31
0.0
  0
LINE
  5
6C9
100
AcDbEntity
  8
0
 62
     0
100
AcDbLine
 10
91.451493
 20
107.840461
 30
0.0
 11
92.209356
 21
108.598323
 31
0.0
  0
LINE
  5
6CA
100
AcDbEntity
  8
0
 62
     0
100
AcDbLine
 10
91.397675
 20
108.011149
 30
0.0
 11
92.07392
 21
108.687393
 31
0.0
  0
LINE
  5
6CB
100
AcDbEntity
  8
0
 62
     0
100
AcDbLine
 10
91.343858
 20
108.181838
 30
0.0
 11
91.943173
 21
108.781153
 31
0.0
  0
LINE
  5
6CC
100
AcDbEntity
  8
0
 62
     0
100
AcDbLine
 10
91.29004
 20
108.352526
 30
0.0
 11
91.817022
 21
108.879509
 31
0.0
  0
LINE
  5
6CD
100
AcDbEntity
  8
0
 62
     0
100
AcDbLine
 10
91.236222
 20
108.523215
 30
0.0
 11
91.695401
 21
108.982394
 31
0.0
  0
LINE
  5
6CE
100
AcDbEntity
  8
0
 62
     0
100
AcDbLine
 10
91.182404
 20
108.693903
 30
0.0
 11
91.578263
 21
109.089762
 31
0.0
  0
LINE
  5
6CF
100
AcDbEntity
  8
0
 62
     0
100
AcDbLine
 10
91.128586
 20
108.864592
 30
0.0
 11
91.465585
 21
109.201591
 31
0.0
  0
LINE
  5
6D0
100
AcDbEntity
  8
0
 62
     0
100
AcDbLine
 10
91.074768
 20
109.03528
 30
0.0
 11
91.357367
 21
109.317879
 31
0.0
  0
LINE
  5
6D1
100
AcDbEntity
  8
0
 62
     0
100
AcDbLine
 10
91.02095
 20
109.205969
 30
0.0
 11
91.253626
 21
109.438644
 31
0.0
  0
LINE
  5
6D2
100
AcDbEntity
  8
0
 62
     0
100
AcDbLine
 10
90.967132
 20
109.376657
 30
0.0
 11
91.154403
 21
109.563928
 31
0.0
  0
LINE
  5
6D3
100
AcDbEntity
  8
0
 62
     0
100
AcDbLine
 10
90.913314
 20
109.547346
 30
0.0
 11
91.059762
 21
109.693794
 31
0.0
  0
LINE
  5
6D4
100
AcDbEntity
  8
0
 62
     0
100
AcDbLine
 10
90.859497
 20
109.718034
 30
0.0
 11
90.969791
 21
109.828329
 31
0.0
  0
LINE
  5
6D5
100
AcDbEntity
  8
0
 62
     0
100
AcDbLine
 10
90.805679
 20
109.888723
 30
0.0
 11
90.884604
 21
109.967648
 31
0.0
  0
LINE
  5
6D6
100
AcDbEntity
  8
0
 62
     0
100
AcDbLine
 10
90.751861
 20
110.059411
 30
0.0
 11
90.804344
 21
110.111895
 31
0.0
  0
LINE
  5
6D7
100
AcDbEntity
  8
0
 62
     0
100
AcDbLine
 10
90.698043
 20
110.2301
 30
0.0
 11
90.729189
 21
110.261246
 31
0.0
  0
LINE
  5
6D8
100
AcDbEntity
  8
0
 62
     0
100
AcDbLine
 10
90.644225
 20
110.400789
 30
0.0
 11
90.659354
 21
110.415918
 31
0.0
  0
LINE
  5
6D9
100
AcDbEntity
  8
0
 62
     0
100
AcDbLine
 10
90.590407
 20
110.571477
 30
0.0
 11
90.595104
 21
110.576174
 31
0.0
  0
LINE
  5
6DA
100
AcDbEntity
  8
0
 62
     0
100
AcDbLine
 10
90.536589
 20
110.742166
 30
0.0
 11
90.536757
 21
110.742333
 31
0.0
  0
LINE
  5
6DB
100
AcDbEntity
  8
0
 62
     0
100
AcDbLine
 10
92.527851
 20
104.42669
 30
0.0
 11
94.339091
 21
106.23793
 31
0.0
  0
LINE
  5
6DC
100
AcDbEntity
  8
0
 62
     0
100
AcDbLine
 10
94.339091
 20
106.23793
 30
0.0
 11
97.81845
 21
109.717289
 31
0.0
  0
LINE
  5
6DD
100
AcDbEntity
  8
0
 62
     0
100
AcDbLine
 10
92.581669
 20
104.256002
 30
0.0
 11
94.339091
 21
106.013424
 31
0.0
  0
LINE
  5
6DE
100
AcDbEntity
  8
0
 62
     0
100
AcDbLine
 10
94.339091
 20
106.013424
 30
0.0
 11
97.715067
 21
109.3894
 31
0.0
  0
LINE
  5
6DF
100
AcDbEntity
  8
0
 62
     0
100
AcDbLine
 10
92.635487
 20
104.085313
 30
0.0
 11
94.339091
 21
105.788917
 31
0.0
  0
LINE
  5
6E0
100
AcDbEntity
  8
0
 62
     0
100
AcDbLine
 10
94.339091
 20
105.788917
 30
0.0
 11
97.611683
 21
109.06151
 31
0.0
  0
LINE
  5
6E1
100
AcDbEntity
  8
0
 62
     0
100
AcDbLine
 10
92.689305
 20
103.914625
 30
0.0
 11
94.339091
 21
105.564411
 31
0.0
  0
LINE
  5
6E2
100
AcDbEntity
  8
0
 62
     0
100
AcDbLine
 10
94.339091
 20
105.564411
 30
0.0
 11
97.5083
 21
108.73362
 31
0.0
  0
LINE
  5
6E3
100
AcDbEntity
  8
0
 62
     0
100
AcDbLine
 10
92.743123
 20
103.743936
 30
0.0
 11
94.339091
 21
105.339904
 31
0.0
  0
LINE
  5
6E4
100
AcDbEntity
  8
0
 62
     0
100
AcDbLine
 10
94.339091
 20
105.339904
 30
0.0
 11
97.404917
 21
108.405731
 31
0.0
  0
LINE
  5
6E5
100
AcDbEntity
  8
0
 62
     0
100
AcDbLine
 10
92.79694
 20
103.573248
 30
0.0
 11
94.339091
 21
105.115398
 31
0.0
  0
LINE
  5
6E6
100
AcDbEntity
  8
0
 62
     0
100
AcDbLine
 10
94.339091
 20
105.115398
 30
0.0
 11
97.301534
 21
108.077841
 31
0.0
  0
LINE
  5
6E7
100
AcDbEntity
  8
0
 62
     0
100
AcDbLine
 10
92.850758
 20
103.402559
 30
0.0
 11
94.339091
 21
104.890892
 31
0.0
  0
LINE
  5
6E8
100
AcDbEntity
  8
0
 62
     0
100
AcDbLine
 10
94.339091
 20
104.890892
 30
0.0
 11
97.198151
 21
107.749952
 31
0.0
  0
LINE
  5
6E9
100
AcDbEntity
  8
0
 62
     0
100
AcDbLine
 10
92.904576
 20
103.231871
 30
0.0
 11
94.339091
 21
104.666385
 31
0.0
  0
LINE
  5
6EA
100
AcDbEntity
  8
0
 62
     0
100
AcDbLine
 10
94.339091
 20
104.666385
 30
0.0
 11
97.094767
 21
107.422062
 31
0.0
  0
LINE
  5
6EB
100
AcDbEntity
  8
0
 62
     0
100
AcDbLine
 10
92.965331
 20
103.06812
 30
0.0
 11
94.339091
 21
104.441879
 31
0.0
  0
LINE
  5
6EC
100
AcDbEntity
  8
0
 62
     0
100
AcDbLine
 10
94.339091
 20
104.441879
 30
0.0
 11
96.991384
 21
107.094172
 31
0.0
  0
LINE
  5
6ED
100
AcDbEntity
  8
0
 62
     0
100
AcDbLine
 10
93.040823
 20
102.919104
 30
0.0
 11
94.339091
 21
104.217372
 31
0.0
  0
LINE
  5
6EE
100
AcDbEntity
  8
0
 62
     0
100
AcDbLine
 10
94.339091
 20
104.217372
 30
0.0
 11
96.888001
 21
106.766283
 31
0.0
  0
LINE
  5
6EF
100
AcDbEntity
  8
0
 62
     0
100
AcDbLine
 10
93.129539
 20
102.783314
 30
0.0
 11
94.339091
 21
103.992866
 31
0.0
  0
LINE
  5
6F0
100
AcDbEntity
  8
0
 62
     0
100
AcDbLine
 10
94.339091
 20
103.992866
 30
0.0
 11
96.784618
 21
106.438393
 31
0.0
  0
LINE
  5
6F1
100
AcDbEntity
  8
0
 62
     0
100
AcDbLine
 10
93.230599
 20
102.659868
 30
0.0
 11
94.339091
 21
103.76836
 31
0.0
  0
LINE
  5
6F2
100
AcDbEntity
  8
0
 62
     0
100
AcDbLine
 10
94.339091
 20
103.76836
 30
0.0
 11
96.681235
 21
106.110504
 31
0.0
  0
LINE
  5
6F3
100
AcDbEntity
  8
0
 62
     0
100
AcDbLine
 10
93.343612
 20
102.548375
 30
0.0
 11
94.339091
 21
103.543853
 31
0.0
  0
LINE
  5
6F4
100
AcDbEntity
  8
0
 62
     0
100
AcDbLine
 10
94.339091
 20
103.543853
 30
0.0
 11
96.577851
 21
105.782614
 31
0.0
  0
LINE
  5
6F5
100
AcDbEntity
  8
0
 62
     0
100
AcDbLine
 10
93.468603
 20
102.448859
 30
0.0
 11
94.339091
 21
103.319347
 31
0.0
  0
LINE
  5
6F6
100
AcDbEntity
  8
0
 62
     0
100
AcDbLine
 10
94.339091
 20
103.319347
 30
0.0
 11
96.474468
 21
105.454724
 31
0.0
  0
LINE
  5
6F7
100
AcDbEntity
  8
0
 62
     0
100
AcDbLine
 10
93.60602
 20
102.36177
 30
0.0
 11
94.339091
 21
103.09484
 31
0.0
  0
LINE
  5
6F8
100
AcDbEntity
  8
0
 62
     0
100
AcDbLine
 10
94.339091
 20
103.09484
 30
0.0
 11
96.371085
 21
105.126835
 31
0.0
  0
LINE
  5
6F9
100
AcDbEntity
  8
0
 62
     0
100
AcDbLine
 10
93.756818
 20
102.288062
 30
0.0
 11
94.339091
 21
102.870334
 31
0.0
  0
LINE
  5
6FA
100
AcDbEntity
  8
0
 62
     0
100
AcDbLine
 10
94.339091
 20
102.870334
 30
0.0
 11
96.267702
 21
104.798945
 31
0.0
  0
LINE
  5
6FB
100
AcDbEntity
  8
0
 62
     0
100
AcDbLine
 10
93.922662
 20
102.229399
 30
0.0
 11
94.339091
 21
102.645828
 31
0.0
  0
LINE
  5
6FC
100
AcDbEntity
  8
0
 62
     0
100
AcDbLine
 10
94.339091
 20
102.645828
 30
0.0
 11
96.164319
 21
104.471056
 31
0.0
  0
LINE
  5
6FD
100
AcDbEntity
  8
0
 62
     0
100
AcDbLine
 10
94.106369
 20
102.188599
 30
0.0
 11
94.339091
 21
102.421321
 31
0.0
  0
LINE
  5
6FE
100
AcDbEntity
  8
0
 62
     0
100
AcDbLine
 10
94.339091
 20
102.421321
 30
0.0
 11
96.060935
 21
104.143166
 31
0.0
  0
LINE
  5
6FF
100
AcDbEntity
  8
0
 62
     0
100
AcDbLine
 10
94.31294
 20
102.170664
 30
0.0
 11
94.339091
 21
102.196815
 31
0.0
  0
LINE
  5
700
100
AcDbEntity
  8
0
 62
     0
100
AcDbLine
 10
94.339091
 20
102.196815
 30
0.0
 11
95.957552
 21
103.815276
 31
0.0
  0
LINE
  5
701
100
AcDbEntity
  8
0
 62
     0
100
AcDbLine
 10
94.552474
 20
102.185691
 30
0.0
 11
95.854169
 21
103.487387
 31
0.0
  0
LINE
  5
702
100
AcDbEntity
  8
0
 62
     0
100
AcDbLine
 10
94.852223
 20
102.260935
 30
0.0
 11
95.748592
 21
103.157304
 31
0.0
  0
ENDBLK
  5
703
100
AcDbEntity
  8
0
100
AcDbBlockEnd
  0
BLOCK
  5
729
100
AcDbEntity
  8
DISEGNO
100
AcDbBlockBegin
  2
A$C11C2
 70
     0
 10
0.0
 20
0.0
 30
0.0
  3
A$C11C2
  1

  0
POLYLINE
  5
720
100
AcDbEntity
  8
TESTO
100
AcDb2dPolyline
 66
     1
 10
0.0
 20
0.0
 30
0.0
 70
     1
  0
VERTEX
  5
721
100
AcDbEntity
  8
TESTO
100
AcDbVertex
100
AcDb2dVertex
 10
88.566654
 20
56.301732
 30
0.0
  0
VERTEX
  5
722
100
AcDbEntity
  8
TESTO
100
AcDbVertex
100
AcDb2dVertex
 10
88.566654
 20
43.587124
 30
0.0
  0
VERTEX
  5
723
100
AcDbEntity
  8
TESTO
100
AcDbVertex
100
AcDb2dVertex
 10
129.685694
 20
43.587124
 30
0.0
  0
VERTEX
  5
724
100
AcDbEntity
  8
TESTO
100
AcDbVertex
100
AcDb2dVertex
 10
129.685694
 20
56.301732
 30
0.0
  0
SEQEND
  5
725
100
AcDbEntity
  8
TESTO
  0
TOLERANCE
  5
726
100
AcDbEntity
  8
TESTO
  6
CONTINUOUS
100
AcDbFcf
  3
ISO-25
 10
107.922752
 20
47.90184
 30
0.0
  1
{\Fgdt;u}%%v0.02%%v%%v%%v%%v
1001
ACAD
1000
DSTYLE
1002
{
1070
   140
1040
2.6
1070
    47
1040
0.02
1070
    73
1070
     0
1070
   272
1070
     2
1070
   147
1040
0.53
1070
    42
1040
0.5261
1070
    44
1040
1.0522
1070
    43
1040
3.1566
1070
   271
1070
     2
1070
   141
1040
2.1044
1070
    41
1040
2.6
1002
}
  0
TEXT
  5
727
100
AcDbEntity
  8
TESTO
100
AcDbText
 10
89.160239
 20
51.837772
 30
0.0
 40
2.5
  1
TOLLERANZE AL METRO
 41
1.1
100
AcDbText
  0
TOLERANCE
  5
728
100
AcDbEntity
  8
TESTO
  6
CONTINUOUS
100
AcDbFcf
  3
ISO-25
 10
92.364794
 20
47.90184
 30
0.0
  1
{\Fgdt;b}%%v0.02%%v%%v%%v%%v
1001
ACAD
1000
DSTYLE
1002
{
1070
   140
1040
2.6
1070
    47
1040
0.02
1070
    73
1070
     0
1070
   272
1070
     2
1070
   147
1040
0.53
1070
    42
1040
0.5261
1070
    44
1040
1.0522
1070
    43
1040
3.1566
1070
   271
1070
     2
1070
   141
1040
2.1044
1070
    41
1040
2.6
1002
}
  0
ENDBLK
  5
72A
100
AcDbEntity
  8
DISEGNO
100
AcDbBlockEnd
  0
BLOCK
  5
7C9
100
AcDbEntity
  8
0
100
AcDbBlockBegin
  2
*D15
 70
    65
 10
0.0
 20
0.0
 30
0.0
  3
*D15
  1

  0
LINE
  5
7CA
100
AcDbEntity
  8
0
  6
BYBLOCK
 62
     0
100
AcDbLine
 10
323.598279
 20
164.807234
 30
0.0
 11
328.399539
 21
178.751107
 31
0.0
  0
LINE
  5
7CB
100
AcDbEntity
  8
0
  6
BYBLOCK
 62
     0
100
AcDbLine
 10
347.236243
 20
156.66803
 30
0.0
 11
352.037504
 21
170.611903
 31
0.0
  0
LINE
  5
7CC
100
AcDbEntity
  8
0
  6
BYBLOCK
 62
     0
100
AcDbLine
 10
330.356376
 20
176.755288
 30
0.0
 11
349.266747
 21
170.243925
 31
0.0
  0
SOLID
  5
7CD
100
AcDbEntity
  8
0
  6
BYBLOCK
 62
     0
100
AcDbTrace
 10
330.492029
 20
177.149254
 30
0.0
 11
330.220722
 21
176.361322
 31
0.0
 12
327.992579
 22
177.569208
 32
0.0
 13
327.992579
 23
177.569208
 33
0.0
  0
SOLID
  5
7CE
100
AcDbEntity
  8
0
  6
BYBLOCK
 62
     0
100
AcDbTrace
 10
349.4024
 20
170.637891
 30
0.0
 11
349.131094
 21
169.849959
 31
0.0
 12
351.630544
 22
169.430005
 32
0.0
 13
351.630544
 23
169.430005
 33
0.0
  0
MTEXT
  5
7CF
100
AcDbEntity
  8
0
  6
BYBLOCK
 62
     0
100
AcDbMText
 10
340.503394
 20
175.508833
 30
0.0
 40
3.0
 41
0.0
 71
     5
 72
     1
  1
\A1;25
 11
0.945519
 21
-0.325568
 31
0.0
  0
POINT
  5
7D0
100
AcDbEntity
  8
DEFPOINTS
  6
BYBLOCK
 62
     0
100
AcDbPoint
 10
323.394799
 20
164.216285
 30
0.0
  0
POINT
  5
7D1
100
AcDbEntity
  8
DEFPOINTS
  6
BYBLOCK
 62
     0
100
AcDbPoint
 10
347.032763
 20
156.077081
 30
0.0
  0
POINT
  5
7D2
100
AcDbEntity
  8
DEFPOINTS
  6
BYBLOCK
 62
     0
100
AcDbPoint
 10
351.630544
 20
169.430005
 30
0.0
  0
ENDBLK
  5
7D3
100
AcDbEntity
  8
0
100
AcDbBlockEnd
  0
BLOCK
  5
7D6
100
AcDbEntity
  8
0
100
AcDbBlockBegin
  2
*D16
 70
    65
 10
0.0
 20
0.0
 30
0.0
  3
*D16
  1

  0
LINE
  5
7D7
100
AcDbEntity
  8
0
  6
BYBLOCK
 62
     0
100
AcDbLine
 10
328.051757
 20
147.025539
 30
0.0
 11
330.499026
 21
154.132924
 31
0.0
  0
LINE
  5
7D8
100
AcDbEntity
  8
0
  6
BYBLOCK
 62
     0
100
AcDbLine
 10
342.234536
 20
142.142016
 30
0.0
 11
344.681805
 21
149.249402
 31
0.0
  0
LINE
  5
7D9
100
AcDbEntity
  8
0
  6
BYBLOCK
 62
     0
100
AcDbLine
 10
332.455862
 20
152.137105
 30
0.0
 11
341.911048
 21
148.881424
 31
0.0
  0
SOLID
  5
7DA
100
AcDbEntity
  8
0
  6
BYBLOCK
 62
     0
100
AcDbTrace
 10
332.591516
 20
152.531072
 30
0.0
 11
332.320209
 21
151.743139
 31
0.0
 12
330.092066
 22
152.951026
 32
0.0
 13
330.092066
 23
152.951026
 33
0.0
  0
SOLID
  5
7DB
100
AcDbEntity
  8
0
  6
BYBLOCK
 62
     0
100
AcDbTrace
 10
342.046702
 20
149.27539
 30
0.0
 11
341.775395
 21
148.487458
 31
0.0
 12
344.274845
 22
148.067504
 32
0.0
 13
344.274845
 23
148.067504
 33
0.0
  0
MTEXT
  5
7DC
100
AcDbEntity
  8
0
  6
BYBLOCK
 62
     0
100
AcDbMText
 10
337.875288
 20
152.518492
 30
0.0
 40
3.0
 41
0.0
 71
     5
 72
     1
  1
\A1;15
 11
0.945519
 21
-0.325568
 31
0.0
  0
POINT
  5
7DD
100
AcDbEntity
  8
DEFPOINTS
  6
BYBLOCK
 62
     0
100
AcDbPoint
 10
327.848277
 20
146.43459
 30
0.0
  0
POINT
  5
7DE
100
AcDbEntity
  8
DEFPOINTS
  6
BYBLOCK
 62
     0
100
AcDbPoint
 10
342.031056
 20
141.551067
 30
0.0
  0
POINT
  5
7DF
100
AcDbEntity
  8
DEFPOINTS
  6
BYBLOCK
 62
     0
100
AcDbPoint
 10
344.274845
 20
148.067504
 30
0.0
  0
ENDBLK
  5
7E0
100
AcDbEntity
  8
0
100
AcDbBlockEnd
  0
BLOCK
  5
7FB
100
AcDbEntity
  8
0
100
AcDbBlockBegin
  2
*D17
 70
    65
 10
0.0
 20
0.0
 30
0.0
  3
*D17
  1

  0
LINE
  5
7FC
100
AcDbEntity
  8
0
  6
BYBLOCK
 62
     0
100
AcDbLine
 10
74.214091
 20
205.170436
 30
0.0
 11
56.222047
 21
205.170436
 31
0.0
  0
LINE
  5
7FD
100
AcDbEntity
  8
0
  6
BYBLOCK
 62
     0
100
AcDbLine
 10
74.214091
 20
196.770436
 30
0.0
 11
56.222047
 21
196.770436
 31
0.0
  0
LINE
  5
7FE
100
AcDbEntity
  8
0
  6
BYBLOCK
 62
     0
100
AcDbLine
 10
57.472047
 20
207.670436
 30
0.0
 11
57.472047
 21
210.170436
 31
0.0
  0
LINE
  5
7FF
100
AcDbEntity
  8
0
  6
BYBLOCK
 62
     0
100
AcDbLine
 10
57.472047
 20
194.270436
 30
0.0
 11
57.472047
 21
191.770436
 31
0.0
  0
SOLID
  5
800
100
AcDbEntity
  8
0
  6
BYBLOCK
 62
     0
100
AcDbTrace
 10
57.05538
 20
207.670436
 30
0.0
 11
57.888713
 21
207.670436
 31
0.0
 12
57.472047
 22
205.170436
 32
0.0
 13
57.472047
 23
205.170436
 33
0.0
  0
SOLID
  5
801
100
AcDbEntity
  8
0
  6
BYBLOCK
 62
     0
100
AcDbTrace
 10
57.05538
 20
194.270436
 30
0.0
 11
57.888713
 21
194.270436
 31
0.0
 12
57.472047
 22
196.770436
 32
0.0
 13
57.472047
 23
196.770436
 33
0.0
  0
MTEXT
  5
802
100
AcDbEntity
  8
0
  6
BYBLOCK
 62
     0
100
AcDbMText
 10
55.347047
 20
200.970436
 30
0.0
 40
3.0
 41
0.0
 71
     5
 72
     1
  1
\A1;8.4
 11
0.0
 21
1.0
 31
0.0
  0
POINT
  5
803
100
AcDbEntity
  8
DEFPOINTS
  6
BYBLOCK
 62
     0
100
AcDbPoint
 10
74.839091
 20
205.170436
 30
0.0
  0
POINT
  5
804
100
AcDbEntity
  8
DEFPOINTS
  6
BYBLOCK
 62
     0
100
AcDbPoint
 10
74.839091
 20
196.770436
 30
0.0
  0
POINT
  5
805
100
AcDbEntity
  8
DEFPOINTS
  6
BYBLOCK
 62
     0
100
AcDbPoint
 10
57.472047
 20
196.770436
 30
0.0
  0
ENDBLK
  5
806
100
AcDbEntity
  8
0
100
AcDbBlockEnd
  0
ENDSEC
  0
SECTION
  2
ENTITIES
  0
LINE
  5
25B
100
AcDbEntity
  8
DISEGNO
100
AcDbLine
 10
86.339091
 20
222.170436
 30
0.0
 11
75.339091
 21
222.170436
 31
0.0
  0
LINE
  5
25C
100
AcDbEntity
  8
DISEGNO
100
AcDbLine
 10
86.339091
 20
222.170436
 30
0.0
 11
75.339091
 21
222.170436
 31
0.0
  0
LINE
  5
261
100
AcDbEntity
  8
DISEGNO
100
AcDbLine
 10
74.839091
 20
205.170436
 30
0.0
 11
77.589091
 21
205.170436
 31
0.0
  0
LINE
  5
262
100
AcDbEntity
  8
DISEGNO
100
AcDbLine
 10
77.589091
 20
205.170436
 30
0.0
 11
77.589091
 21
196.770436
 31
0.0
  0
LINE
  5
26A
100
AcDbEntity
  8
DISEGNO
100
AcDbLine
 10
87.804139
 20
123.103268
 30
0.0
 11
74.339091
 21
165.808944
 31
0.0
  0
LINE
  5
26B
100
AcDbEntity
  8
DISEGNO
100
AcDbLine
 10
87.078597
 20
121.709516
 30
0.0
 11
87.804139
 21
123.103268
 31
0.0
  0
ARC
  5
44B
100
AcDbEntity
  8
DISEGNO
100
AcDbCircle
 10
184.289091
 20
145.670436
 30
0.0
 40
88.0
100
AcDbArc
 50
162.549669
 51
197.983144
  0
LINE
  5
4FA
100
AcDbEntity
  8
DISEGNO
100
AcDbLine
 10
87.339091
 20
221.170436
 30
0.0
 11
87.339091
 21
192.170436
 31
0.0
  0
LINE
  5
4FB
100
AcDbEntity
  8
DISEGNO
100
AcDbLine
 10
74.339091
 20
221.170436
 30
0.0
 11
74.339091
 21
205.670436
 31
0.0
  0
LINE
  5
4FC
100
AcDbEntity
  8
DISEGNO
100
AcDbLine
 10
74.339091
 20
196.270436
 30
0.0
 11
74.339091
 21
165.808944
 31
0.0
  0
LINE
  5
4FD
100
AcDbEntity
  8
DISEGNO
100
AcDbLine
 10
100.339091
 20
191.170436
 30
0.0
 11
100.339091
 21
172.059781
 31
0.0
  0
LINE
  5
4FE
100
AcDbEntity
  8
DISEGNO
100
AcDbLine
 10
87.339091
 20
192.170436
 30
0.0
 11
99.339091
 21
192.170436
 31
0.0
  0
LINE
  5
50D
100
AcDbEntity
  8
DISEGNO
100
AcDbLine
 10
75.339091
 20
222.170436
 30
0.0
 11
74.339091
 21
221.170436
 31
0.0
  0
LINE
  5
50E
100
AcDbEntity
  8
DISEGNO
100
AcDbLine
 10
86.339091
 20
222.170436
 30
0.0
 11
87.339091
 21
221.170436
 31
0.0
  0
LINE
  5
50F
100
AcDbEntity
  8
DISEGNO
100
AcDbLine
 10
99.339091
 20
192.170436
 30
0.0
 11
100.339091
 21
191.170436
 31
0.0
  0
ARC
  5
512
100
AcDbEntity
  8
DISEGNO
100
AcDbCircle
 10
94.339091
 20
103.670436
 30
0.0
 40
1.5
100
AcDbArc
 50
197.5
 51
342.5
1001
ACAD
1000
ASC_BOUNDS
1002
{
1070
    19
1002
}
  0
LINE
  5
513
100
AcDbEntity
  8
DISEGNO
100
AcDbLine
 10
95.769666
 20
103.219378
 30
0.0
 11
100.588121
 21
118.501563
 31
0.0
1001
ACAD
1000
ASC_BOUNDS
1002
{
1070
    19
1002
}
  0
LINE
  5
514
100
AcDbEntity
  8
DISEGNO
100
AcDbLine
 10
92.908515
 20
103.219378
 30
0.0
 11
87.078597
 21
121.709516
 31
0.0
1001
ACAD
1000
ASC_BOUNDS
1002
{
1070
    19
1002
}
  0
LINE
  5
7F6
100
AcDbEntity
  8
DISEGNO
100
AcDbLine
 10
77.589091
 20
196.770436
 30
0.0
 11
74.839091
 21
196.770436
 31
0.0
  0
LINE
  5
7F7
100
AcDbEntity
  8
DISEGNO
100
AcDbLine
 10
74.339091
 20
205.670436
 30
0.0
 11
74.839091
 21
205.170436
 31
0.0
  0
LINE
  5
7F8
100
AcDbEntity
  8
DISEGNO
100
AcDbLine
 10
74.839091
 20
196.770436
 30
0.0
 11
74.339091
 21
196.270436
 31
0.0
  0
ENDSEC
  0
SECTION
  2
OBJECTS
  0
DICTIONARY
  5
C
100
AcDbDictionary
  3
ACAD_GROUP
350
D
  3
ACAD_MLINESTYLE
350
E
  0
DICTIONARY
  5
D
102
{ACAD_REACTORS
330
C
102
}
100
AcDbDictionary
  0
DICTIONARY
  5
E
102
{ACAD_REACTORS
330
C
102
}
100
AcDbDictionary
  3
STANDARD
350
1C
  0
MLINESTYLE
  5
1C
102
{ACAD_REACTORS
330
E
102
}
100
AcDbMlineStyle
  2
STANDARD
 70
     0
  3

 62
     0
 51
90.0
 52
90.0
 71
     2
 49
0.5
 62
   256
  6
BYLAYER
 49
-0.5
 62
   256
  6
BYLAYER
  0
ENDSEC
  0
EOF
