  0
SECTION
  2
HEADER
  9
$ACADVER
  1
AC1012
  9
$DWGCODEPAGE
  3
iso8859-1
  9
$INSBASE
 10
0.0
 20
0.0
 30
0.0
  9
$EXTMIN
 10
-3.083822
 20
25.819888
 30
0.0
  9
$EXTMAX
 10
158.357836
 20
217.760027
 30
0.0
  9
$LIMMIN
 10
0.0
 20
0.0
  9
$LIMMAX
 10
200.0
 20
250.0
  9
$ORTHOMODE
 70
     1
  9
$REGENMODE
 70
     1
  9
$FILLMODE
 70
     1
  9
$QTEXTMODE
 70
     0
  9
$MIRRTEXT
 70
     1
  9
$DRAGMODE
 70
     2
  9
$LTSCALE
 40
0.841751
  9
$OSMODE
 70
     0
  9
$ATTMODE
 70
     1
  9
$TEXTSIZE
 40
3.0
  9
$TRACEWID
 40
1.0
  9
$TEXTSTYLE
  7
STANDARD
  9
$CLAYER
  8
QUOTE
  9
$CELTYPE
  6
TRATTEGGIATA
  9
$CECOLOR
 62
   256
  9
$CELTSCALE
 40
1.0
  9
$DELOBJ
 70
     1
  9
$DISPSILH
 70
     0
  9
$DIMSCALE
 40
1.0
  9
$DIMASZ
 40
2.6
  9
$DIMEXO
 40
0.53
  9
$DIMDLI
 40
3.16
  9
$DIMRND
 40
0.0
  9
$DIMDLE
 40
0.0
  9
$DIMEXE
 40
1.05
  9
$DIMTP
 40
0.2
  9
$DIMTM
 40
0.0
  9
$DIMTXT
 40
2.6
  9
$DIMCEN
 40
2.1
  9
$DIMTSZ
 40
0.0
  9
$DIMTOL
 70
     1
  9
$DIMLIM
 70
     0
  9
$DIMTIH
 70
     0
  9
$DIMTOH
 70
     0
  9
$DIMSE1
 70
     0
  9
$DIMSE2
 70
     0
  9
$DIMTAD
 70
     1
  9
$DIMZIN
 70
     8
  9
$DIMBLK
  1

  9
$DIMASO
 70
     1
  9
$DIMSHO
 70
     1
  9
$DIMPOST
  1

  9
$DIMAPOST
  1

  9
$DIMALT
 70
     0
  9
$DIMALTD
 70
     2
  9
$DIMALTF
 40
0.0394
  9
$DIMLFAC
 40
1.0
  9
$DIMTOFL
 70
     1
  9
$DIMTVP
 40
1.0
  9
$DIMTIX
 70
     0
  9
$DIMSOXD
 70
     0
  9
$DIMSAH
 70
     0
  9
$DIMBLK1
  1

  9
$DIMBLK2
  1

  9
$DIMSTYLE
  2
ISO-25
  9
$DIMCLRD
 70
     0
  9
$DIMCLRE
 70
     0
  9
$DIMCLRT
 70
     0
  9
$DIMTFAC
 40
1.0
  9
$DIMGAP
 40
0.53
  9
$DIMJUST
 70
     0
  9
$DIMSD1
 70
     0
  9
$DIMSD2
 70
     0
  9
$DIMTOLJ
 70
     1
  9
$DIMTZIN
 70
     0
  9
$DIMALTZ
 70
     0
  9
$DIMALTTZ
 70
     0
  9
$DIMFIT
 70
     3
  9
$DIMUPT
 70
     0
  9
$DIMUNIT
 70
     2
  9
$DIMDEC
 70
     2
  9
$DIMTDEC
 70
     2
  9
$DIMALTU
 70
     2
  9
$DIMALTTD
 70
     2
  9
$DIMTXSTY
  7
STANDARD
  9
$DIMAUNIT
 70
     0
  9
$LUNITS
 70
     2
  9
$LUPREC
 70
     2
  9
$SKETCHINC
 40
1.0
  9
$FILLETRAD
 40
3.0
  9
$AUNITS
 70
     0
  9
$AUPREC
 70
     2
  9
$MENU
  1
.
  9
$ELEVATION
 40
0.0
  9
$PELEVATION
 40
0.0
  9
$THICKNESS
 40
0.0
  9
$LIMCHECK
 70
     0
  9
$BLIPMODE
 70
     1
  9
$CHAMFERA
 40
8.417508
  9
$CHAMFERB
 40
8.417508
  9
$CHAMFERC
 40
16.835017
  9
$CHAMFERD
 40
0.0
  9
$SKPOLY
 70
     0
  9
$TDCREATE
 40
2450962.329882870
  9
$TDUPDATE
 40
2450969.713470023
  9
$TDINDWG
 40
0.4753756944
  9
$TDUSRTIMER
 40
0.4753756944
  9
$USRTIMER
 70
     1
  9
$ANGBASE
 50
0.0
  9
$ANGDIR
 70
     0
  9
$PDMODE
 70
     0
  9
$PDSIZE
 40
0.0
  9
$PLINEWID
 40
0.0
  9
$COORDS
 70
     2
  9
$SPLFRAME
 70
     0
  9
$SPLINETYPE
 70
     6
  9
$SPLINESEGS
 70
     8
  9
$ATTDIA
 70
     0
  9
$ATTREQ
 70
     1
  9
$HANDLING
 70
     1
  9
$HANDSEED
  5
13E2
  9
$SURFTAB1
 70
     6
  9
$SURFTAB2
 70
     6
  9
$SURFTYPE
 70
     6
  9
$SURFU
 70
     6
  9
$SURFV
 70
     6
  9
$UCSNAME
  2

  9
$UCSORG
 10
0.0
 20
0.0
 30
0.0
  9
$UCSXDIR
 10
1.0
 20
0.0
 30
0.0
  9
$UCSYDIR
 10
0.0
 20
1.0
 30
0.0
  9
$PUCSNAME
  2

  9
$PUCSORG
 10
0.0
 20
0.0
 30
0.0
  9
$PUCSXDIR
 10
1.0
 20
0.0
 30
0.0
  9
$PUCSYDIR
 10
0.0
 20
1.0
 30
0.0
  9
$USERI1
 70
     0
  9
$USERI2
 70
     0
  9
$USERI3
 70
     0
  9
$USERI4
 70
     0
  9
$USERI5
 70
     0
  9
$USERR1
 40
0.0
  9
$USERR2
 40
0.0
  9
$USERR3
 40
0.0
  9
$USERR4
 40
0.0
  9
$USERR5
 40
0.0
  9
$WORLDVIEW
 70
     1
  9
$SHADEDGE
 70
     3
  9
$SHADEDIF
 70
    70
  9
$TILEMODE
 70
     1
  9
$MAXACTVP
 70
    16
  9
$PINSBASE
 10
0.0
 20
0.0
 30
0.0
  9
$PLIMCHECK
 70
     0
  9
$PEXTMIN
 10
1.000000E+20
 20
1.000000E+20
 30
1.000000E+20
  9
$PEXTMAX
 10
-1.000000E+20
 20
-1.000000E+20
 30
-1.000000E+20
  9
$PLIMMIN
 10
0.0
 20
0.0
  9
$PLIMMAX
 10
420.0
 20
297.0
  9
$UNITMODE
 70
     0
  9
$VISRETAIN
 70
     0
  9
$PLINEGEN
 70
     0
  9
$PSLTSCALE
 70
     1
  9
$TREEDEPTH
 70
  3020
  9
$PICKSTYLE
 70
     1
  9
$CMLSTYLE
  2
STANDARD
  9
$CMLJUST
 70
     0
  9
$CMLSCALE
 40
1.0
  9
$SAVEIMAGES
 70
     0
  0
ENDSEC
  0
SECTION
  2
CLASSES
  0
ENDSEC
  0
SECTION
  2
TABLES
  0
TABLE
  2
VPORT
  5
8
100
AcDbSymbolTable
 70
     2
  0
VPORT
  5
13E1
100
AcDbSymbolTableRecord
100
AcDbViewportTableRecord
  2
*ACTIVE
 70
     0
 10
0.0
 20
0.0
 11
1.0
 21
1.0
 12
111.34404
 22
135.883083
 13
0.0
 23
0.0
 14
5.0
 24
5.0
 15
5.0
 25
5.0
 16
0.0
 26
0.0
 36
1.0
 17
0.0
 27
0.0
 37
0.0
 40
124.999998
 41
1.873134
 42
50.0
 43
0.0
 44
0.0
 50
0.0
 51
0.0
 71
     0
 72
   100
 73
     1
 74
     0
 75
     0
 76
     0
 77
     0
 78
     2
  0
ENDTAB
  0
TABLE
  2
LTYPE
  5
5
100
AcDbSymbolTable
 70
     3
  0
LTYPE
  5
14
100
AcDbSymbolTableRecord
100
AcDbLinetypeTableRecord
  2
BYBLOCK
 70
     0
  3

 72
    65
 73
     0
 40
0.0
  0
LTYPE
  5
15
100
AcDbSymbolTableRecord
100
AcDbLinetypeTableRecord
  2
BYLAYER
 70
     0
  3

 72
    65
 73
     0
 40
0.0
  0
LTYPE
  5
16
100
AcDbSymbolTableRecord
100
AcDbLinetypeTableRecord
  2
CONTINUOUS
 70
    64
  3
Solid line
 72
    65
 73
     0
 40
0.0
  0
LTYPE
  5
62
100
AcDbSymbolTableRecord
100
AcDbLinetypeTableRecord
  2
LINEA-LINEETTEX2
 70
    64
  3
____________    ____    ____    ____________   
 72
    65
 73
     6
 40
5.0
 49
2.5
 74
     0
 49
-0.5
 74
     0
 49
0.5
 74
     0
 49
-0.5
 74
     0
 49
0.5
 74
     0
 49
-0.5
 74
     0
  0
LTYPE
  5
63
100
AcDbSymbolTableRecord
100
AcDbLinetypeTableRecord
  2
TRATTEGGIATA
 70
    64
  3
__ __ __ __ __ __ __ __ __ __ __ __ __ __ __ __
 72
    65
 73
     2
 40
0.75
 49
0.5
 74
     0
 49
-0.25
 74
     0
  0
ENDTAB
  0
TABLE
  2
LAYER
  5
2
100
AcDbSymbolTable
 70
     8
  0
LAYER
  5
F
100
AcDbSymbolTableRecord
100
AcDbLayerTableRecord
  2
0
 70
    64
 62
     7
  6
CONTINUOUS
  0
LAYER
  5
64
100
AcDbSymbolTableRecord
100
AcDbLayerTableRecord
  2
OGGETTO
 70
    64
 62
   250
  6
CONTINUOUS
  0
LAYER
  5
65
100
AcDbSymbolTableRecord
100
AcDbLayerTableRecord
  2
QUOTE
 70
    64
 62
     1
  6
CONTINUOUS
  0
LAYER
  5
66
100
AcDbSymbolTableRecord
100
AcDbLayerTableRecord
  2
CENTRO
 70
    64
 62
     3
  6
LINEA-LINEETTEX2
  0
LAYER
  5
67
100
AcDbSymbolTableRecord
100
AcDbLayerTableRecord
  2
NASCOSTA
 70
    64
 62
     5
  6
TRATTEGGIATA
  0
LAYER
  5
68
100
AcDbSymbolTableRecord
100
AcDbLayerTableRecord
  2
SEZIONE
 70
    64
 62
     8
  6
CONTINUOUS
  0
LAYER
  5
94
100
AcDbSymbolTableRecord
100
AcDbLayerTableRecord
  2
DEFPOINTS
 70
    64
 62
     7
  6
CONTINUOUS
  0
LAYER
  5
F74
100
AcDbSymbolTableRecord
100
AcDbLayerTableRecord
  2
TESTO
 70
    64
 62
     6
  6
CONTINUOUS
  0
ENDTAB
  0
TABLE
  2
STYLE
  5
3
100
AcDbSymbolTable
 70
     2
  0
STYLE
  5
10
100
AcDbSymbolTableRecord
100
AcDbTextStyleTableRecord
  2
STANDARD
 70
    64
 40
3.0
 41
1.0
 50
0.0
 71
     0
 42
3.0
  3
ISOCP
  4

  0
STYLE
  5
6A
100
AcDbSymbolTableRecord
100
AcDbTextStyleTableRecord
  2

 70
    65
 40
0.0
 41
1.0
 50
0.0
 71
     0
 42
2.104377
  3
ltypeshp.shx
  4

  0
ENDTAB
  0
TABLE
  2
VIEW
  5
6
100
AcDbSymbolTable
 70
     0
  0
ENDTAB
  0
TABLE
  2
UCS
  5
7
100
AcDbSymbolTable
 70
     0
  0
ENDTAB
  0
TABLE
  2
APPID
  5
9
100
AcDbSymbolTable
 70
     1
  0
APPID
  5
11
100
AcDbSymbolTableRecord
100
AcDbRegAppTableRecord
  2
ACAD
 70
     0
  0
ENDTAB
  0
TABLE
  2
DIMSTYLE
  5
A
100
AcDbSymbolTable
 70
     8
  0
DIMSTYLE
105
1D
100
AcDbSymbolTableRecord
100
AcDbDimStyleTableRecord
  2
STANDARD
 70
     0
  3

  4

  5

  6

  7

 40
1.0
 41
0.18
 42
0.0625
 43
0.38
 44
0.18
 45
0.0
 46
0.0
 47
0.0
 48
0.0
140
0.18
141
0.09
142
0.0
143
25.4
144
1.0
145
0.0
146
1.0
147
0.09
 71
     0
 72
     0
 73
     1
 74
     1
 75
     0
 76
     0
 77
     0
 78
     0
170
     0
171
     2
172
     0
173
     0
174
     0
175
     0
176
     0
177
     0
178
     0
270
     2
271
     4
272
     4
273
     2
274
     2
340
10
275
     0
280
     0
281
     0
282
     0
283
     1
284
     0
285
     0
286
     0
287
     3
288
     0
  0
DIMSTYLE
105
24
100
AcDbSymbolTableRecord
100
AcDbDimStyleTableRecord
  2
ISO-25
 70
     0
  3

  4

  5

  6

  7

 40
1.0
 41
2.5
 42
0.625
 43
3.75
 44
1.25
 45
0.0
 46
0.0
 47
0.0
 48
0.0
140
2.5
141
2.5
142
0.0
143
0.0394
144
1.0
145
1.0
146
1.0
147
0.625
 71
     0
 72
     0
 73
     1
 74
     0
 75
     0
 76
     0
 77
     1
 78
     8
170
     0
171
     2
172
     1
173
     0
174
     0
175
     0
176
     0
177
     0
178
     0
270
     2
271
     4
272
     4
273
     2
274
     2
340
10
275
     0
280
     0
281
     0
282
     0
283
     1
284
     0
285
     0
286
     0
287
     3
288
     0
  0
DIMSTYLE
105
25
100
AcDbSymbolTableRecord
100
AcDbDimStyleTableRecord
  2
ISO-35
 70
     0
  3

  4

  5

  6

  7

 40
1.0
 41
3.5
 42
0.875
 43
5.25
 44
1.75
 45
0.0
 46
0.0
 47
0.0
 48
0.0
140
3.5
141
3.5
142
0.0
143
0.0394
144
1.0
145
1.4
146
1.0
147
0.875
 71
     0
 72
     0
 73
     1
 74
     0
 75
     0
 76
     0
 77
     1
 78
     8
170
     0
171
     2
172
     1
173
     0
174
     0
175
     0
176
     0
177
     0
178
     0
270
     2
271
     4
272
     4
273
     2
274
     2
340
10
275
     0
280
     0
281
     0
282
     0
283
     1
284
     0
285
     0
286
     0
287
     3
288
     0
  0
DIMSTYLE
105
26
100
AcDbSymbolTableRecord
100
AcDbDimStyleTableRecord
  2
ISO-5
 70
     0
  3

  4

  5

  6

  7

 40
1.0
 41
5.0
 42
1.25
 43
7.5
 44
2.5
 45
0.0
 46
0.0
 47
0.0
 48
0.0
140
5.0
141
5.0
142
0.0
143
0.0394
144
1.0
145
2.0
146
1.0
147
1.25
 71
     0
 72
     0
 73
     1
 74
     0
 75
     0
 76
     0
 77
     1
 78
     8
170
     0
171
     2
172
     1
173
     0
174
     0
175
     0
176
     0
177
     0
178
     0
270
     2
271
     4
272
     4
273
     2
274
     2
340
10
275
     0
280
     0
281
     0
282
     0
283
     1
284
     0
285
     0
286
     0
287
     3
288
     0
  0
DIMSTYLE
105
27
100
AcDbSymbolTableRecord
100
AcDbDimStyleTableRecord
  2
ISO-7
 70
     0
  3

  4

  5

  6

  7

 40
1.0
 41
7.0
 42
1.75
 43
10.5
 44
3.5
 45
0.0
 46
0.0
 47
0.0
 48
0.0
140
7.0
141
7.0
142
0.0
143
0.0394
144
1.0
145
2.8
146
1.0
147
1.75
 71
     0
 72
     0
 73
     1
 74
     0
 75
     0
 76
     0
 77
     1
 78
     8
170
     0
171
     2
172
     1
173
     0
174
     0
175
     0
176
     0
177
     0
178
     0
270
     2
271
     4
272
     4
273
     2
274
     2
340
10
275
     0
280
     0
281
     0
282
     0
283
     1
284
     0
285
     0
286
     0
287
     3
288
     0
  0
DIMSTYLE
105
28
100
AcDbSymbolTableRecord
100
AcDbDimStyleTableRecord
  2
ISO1
 70
     0
  3

  4

  5

  6

  7

 40
1.0
 41
10.0
 42
2.5
 43
15.0
 44
5.0
 45
0.0
 46
0.0
 47
0.0
 48
0.0
140
10.0
141
10.0
142
0.0
143
0.0394
144
1.0
145
4.0
146
1.0
147
2.5
 71
     0
 72
     0
 73
     1
 74
     0
 75
     0
 76
     0
 77
     1
 78
     8
170
     0
171
     2
172
     1
173
     0
174
     0
175
     0
176
     0
177
     0
178
     0
270
     2
271
     4
272
     4
273
     2
274
     2
340
10
275
     0
280
     0
281
     0
282
     0
283
     1
284
     0
285
     0
286
     0
287
     3
288
     0
  0
DIMSTYLE
105
29
100
AcDbSymbolTableRecord
100
AcDbDimStyleTableRecord
  2
ISO1-4
 70
     0
  3

  4

  5

  6

  7

 40
1.0
 41
14.0
 42
3.5
 43
21.0
 44
7.0
 45
0.0
 46
0.0
 47
0.0
 48
0.0
140
14.0
141
14.0
142
0.0
143
0.0394
144
1.0
145
5.6
146
1.0
147
3.5
 71
     0
 72
     0
 73
     1
 74
     0
 75
     0
 76
     0
 77
     1
 78
     8
170
     0
171
     2
172
     1
173
     0
174
     0
175
     0
176
     0
177
     0
178
     0
270
     2
271
     4
272
     4
273
     2
274
     2
340
10
275
     0
280
     0
281
     0
282
     0
283
     1
284
     0
285
     0
286
     0
287
     3
288
     0
  0
DIMSTYLE
105
2A
100
AcDbSymbolTableRecord
100
AcDbDimStyleTableRecord
  2
ISO2
 70
     0
  3

  4

  5

  6

  7

 40
1.0
 41
20.0
 42
5.0
 43
30.0
 44
10.0
 45
0.0
 46
0.0
 47
0.0
 48
0.0
140
20.0
141
20.0
142
0.0
143
0.0394
144
1.0
145
8.0
146
1.0
147
5.0
 71
     0
 72
     0
 73
     1
 74
     0
 75
     0
 76
     0
 77
     1
 78
     8
170
     0
171
     2
172
     1
173
     0
174
     0
175
     0
176
     0
177
     0
178
     0
270
     2
271
     4
272
     4
273
     2
274
     2
340
10
275
     0
280
     0
281
     0
282
     0
283
     1
284
     0
285
     0
286
     0
287
     3
288
     0
  0
ENDTAB
  0
TABLE
  2
BLOCK_RECORD
  5
1
100
AcDbSymbolTable
 70
    21
  0
BLOCK_RECORD
  5
1A
100
AcDbSymbolTableRecord
100
AcDbBlockTableRecord
  2
*MODEL_SPACE
  0
BLOCK_RECORD
  5
17
100
AcDbSymbolTableRecord
100
AcDbBlockTableRecord
  2
*PAPER_SPACE
  0
BLOCK_RECORD
  5
D0C
100
AcDbSymbolTableRecord
100
AcDbBlockTableRecord
  2
*D0
  0
BLOCK_RECORD
  5
D1B
100
AcDbSymbolTableRecord
100
AcDbBlockTableRecord
  2
*D1
  0
BLOCK_RECORD
  5
DAC
100
AcDbSymbolTableRecord
100
AcDbBlockTableRecord
  2
*D2
  0
BLOCK_RECORD
  5
DD0
100
AcDbSymbolTableRecord
100
AcDbBlockTableRecord
  2
*D3
  0
BLOCK_RECORD
  5
DE8
100
AcDbSymbolTableRecord
100
AcDbBlockTableRecord
  2
*D4
  0
BLOCK_RECORD
  5
DF6
100
AcDbSymbolTableRecord
100
AcDbBlockTableRecord
  2
*D5
  0
BLOCK_RECORD
  5
E6D
100
AcDbSymbolTableRecord
100
AcDbBlockTableRecord
  2
*D6
  0
BLOCK_RECORD
  5
EFC
100
AcDbSymbolTableRecord
100
AcDbBlockTableRecord
  2
*D7
  0
BLOCK_RECORD
  5
125D
100
AcDbSymbolTableRecord
100
AcDbBlockTableRecord
  2
*D8
  0
BLOCK_RECORD
  5
126A
100
AcDbSymbolTableRecord
100
AcDbBlockTableRecord
  2
*D9
  0
BLOCK_RECORD
  5
1277
100
AcDbSymbolTableRecord
100
AcDbBlockTableRecord
  2
*D10
  0
BLOCK_RECORD
  5
1284
100
AcDbSymbolTableRecord
100
AcDbBlockTableRecord
  2
*D11
  0
BLOCK_RECORD
  5
12A3
100
AcDbSymbolTableRecord
100
AcDbBlockTableRecord
  2
*D12
  0
BLOCK_RECORD
  5
12B2
100
AcDbSymbolTableRecord
100
AcDbBlockTableRecord
  2
*D13
  0
BLOCK_RECORD
  5
12D0
100
AcDbSymbolTableRecord
100
AcDbBlockTableRecord
  2
*D14
  0
BLOCK_RECORD
  5
1302
100
AcDbSymbolTableRecord
100
AcDbBlockTableRecord
  2
*D15
  0
BLOCK_RECORD
  5
1316
100
AcDbSymbolTableRecord
100
AcDbBlockTableRecord
  2
*D16
  0
BLOCK_RECORD
  5
1329
100
AcDbSymbolTableRecord
100
AcDbBlockTableRecord
  2
*D17
  0
BLOCK_RECORD
  5
133F
100
AcDbSymbolTableRecord
100
AcDbBlockTableRecord
  2
*D18
  0
BLOCK_RECORD
  5
13A3
100
AcDbSymbolTableRecord
100
AcDbBlockTableRecord
  2
*D19
  0
BLOCK_RECORD
  5
13B2
100
AcDbSymbolTableRecord
100
AcDbBlockTableRecord
  2
*X20
  0
ENDTAB
  0
ENDSEC
  0
SECTION
  2
BLOCKS
  0
BLOCK
  5
1B
100
AcDbEntity
  8
0
100
AcDbBlockBegin
  2
*MODEL_SPACE
 70
     0
 10
0.0
 20
0.0
 30
0.0
  3
*MODEL_SPACE
  1

  0
ENDBLK
  5
1C
100
AcDbEntity
  8
0
100
AcDbBlockEnd
  0
BLOCK
  5
18
100
AcDbEntity
 67
     1
  8
0
100
AcDbBlockBegin
  2
*PAPER_SPACE
 70
     0
 10
0.0
 20
0.0
 30
0.0
  3
*PAPER_SPACE
  1

  0
ENDBLK
  5
19
100
AcDbEntity
 67
     1
  8
0
100
AcDbBlockEnd
  0
BLOCK
  5
D0D
100
AcDbEntity
  8
0
100
AcDbBlockBegin
  2
*D0
 70
    65
 10
0.0
 20
0.0
 30
0.0
  3
*D0
  1

  0
LINE
  5
D0E
100
AcDbEntity
  8
0
  6
BYBLOCK
 62
     0
100
AcDbLine
 10
93.53
 20
165.0
 30
0.0
 11
120.543306
 21
165.0
 31
0.0
  0
LINE
  5
D0F
100
AcDbEntity
  8
0
  6
BYBLOCK
 62
     0
100
AcDbLine
 10
107.53
 20
160.0
 30
0.0
 11
120.543306
 21
160.0
 31
0.0
  0
LINE
  5
D10
100
AcDbEntity
  8
0
  6
BYBLOCK
 62
     0
100
AcDbLine
 10
119.493306
 20
167.6
 30
0.0
 11
119.493306
 21
170.2
 31
0.0
  0
LINE
  5
D11
100
AcDbEntity
  8
0
  6
BYBLOCK
 62
     0
100
AcDbLine
 10
119.493306
 20
157.4
 30
0.0
 11
119.493306
 21
154.8
 31
0.0
  0
LINE
  5
D12
100
AcDbEntity
  8
0
  6
BYBLOCK
 62
     0
100
AcDbLine
 10
119.493306
 20
165.0
 30
0.0
 11
119.493306
 21
160.0
 31
0.0
  0
SOLID
  5
D13
100
AcDbEntity
  8
0
  6
BYBLOCK
 62
     0
100
AcDbTrace
 10
119.059973
 20
167.6
 30
0.0
 11
119.926639
 21
167.6
 31
0.0
 12
119.493306
 22
165.0
 32
0.0
 13
119.493306
 23
165.0
 33
0.0
  0
SOLID
  5
D14
100
AcDbEntity
  8
0
  6
BYBLOCK
 62
     0
100
AcDbTrace
 10
119.059973
 20
157.4
 30
0.0
 11
119.926639
 21
157.4
 31
0.0
 12
119.493306
 22
160.0
 32
0.0
 13
119.493306
 23
160.0
 33
0.0
  0
MTEXT
  5
D15
100
AcDbEntity
  8
0
  6
BYBLOCK
 62
     0
100
AcDbMText
 10
117.463306
 20
162.5
 30
0.0
 40
3.0
 41
0.0
 71
     5
 72
     1
  1
\A1;5
 11
0.0
 21
1.0
 31
0.0
  0
POINT
  5
D16
100
AcDbEntity
  8
DEFPOINTS
  6
BYBLOCK
 62
     0
100
AcDbPoint
 10
93.0
 20
165.0
 30
0.0
  0
POINT
  5
D17
100
AcDbEntity
  8
DEFPOINTS
  6
BYBLOCK
 62
     0
100
AcDbPoint
 10
107.0
 20
160.0
 30
0.0
  0
POINT
  5
D18
100
AcDbEntity
  8
DEFPOINTS
  6
BYBLOCK
 62
     0
100
AcDbPoint
 10
119.493306
 20
160.0
 30
0.0
  0
ENDBLK
  5
D19
100
AcDbEntity
  8
0
100
AcDbBlockEnd
  0
BLOCK
  5
DDD
100
AcDbEntity
  8
0
100
AcDbBlockBegin
  2
*D1
 70
    65
 10
0.0
 20
0.0
 30
0.0
  3
*D1
  1

  0
LINE
  5
DDE
100
AcDbEntity
  8
0
  6
BYBLOCK
 62
     0
100
AcDbLine
 10
93.53
 20
190.0
 30
0.0
 11
133.438844
 21
190.0
 31
0.0
  0
LINE
  5
DDF
100
AcDbEntity
  8
0
  6
BYBLOCK
 62
     0
100
AcDbLine
 10
107.53
 20
160.0
 30
0.0
 11
133.438844
 21
160.0
 31
0.0
  0
LINE
  5
DE0
100
AcDbEntity
  8
0
  6
BYBLOCK
 62
     0
100
AcDbLine
 10
132.388844
 20
187.4
 30
0.0
 11
132.388844
 21
162.6
 31
0.0
  0
SOLID
  5
DE1
100
AcDbEntity
  8
0
  6
BYBLOCK
 62
     0
100
AcDbTrace
 10
131.955511
 20
187.4
 30
0.0
 11
132.822178
 21
187.4
 31
0.0
 12
132.388844
 22
190.0
 32
0.0
 13
132.388844
 23
190.0
 33
0.0
  0
SOLID
  5
DE2
100
AcDbEntity
  8
0
  6
BYBLOCK
 62
     0
100
AcDbTrace
 10
131.955511
 20
162.6
 30
0.0
 11
132.822178
 21
162.6
 31
0.0
 12
132.388844
 22
160.0
 32
0.0
 13
132.388844
 23
160.0
 33
0.0
  0
MTEXT
  5
DE3
100
AcDbEntity
  8
0
  6
BYBLOCK
 62
     0
100
AcDbMText
 10
130.358844
 20
175.0
 30
0.0
 40
3.0
 41
0.0
 71
     5
 72
     1
  1
\A1;30
 11
0.0
 21
1.0
 31
0.0
  0
POINT
  5
DE4
100
AcDbEntity
  8
DEFPOINTS
  6
BYBLOCK
 62
     0
100
AcDbPoint
 10
93.0
 20
190.0
 30
0.0
  0
POINT
  5
DE5
100
AcDbEntity
  8
DEFPOINTS
  6
BYBLOCK
 62
     0
100
AcDbPoint
 10
107.0
 20
160.0
 30
0.0
  0
POINT
  5
DE6
100
AcDbEntity
  8
DEFPOINTS
  6
BYBLOCK
 62
     0
100
AcDbPoint
 10
132.388844
 20
160.0
 30
0.0
  0
ENDBLK
  5
DE7
100
AcDbEntity
  8
0
100
AcDbBlockEnd
  0
BLOCK
  5
ED7
100
AcDbEntity
  8
0
100
AcDbBlockBegin
  2
*D2
 70
    65
 10
0.0
 20
0.0
 30
0.0
  3
*D2
  1

  0
LINE
  5
ED8
100
AcDbEntity
  8
0
  6
BYBLOCK
 62
     0
100
AcDbLine
 10
93.0
 20
190.53
 30
0.0
 11
93.0
 21
211.502961
 31
0.0
  0
LINE
  5
ED9
100
AcDbEntity
  8
0
  6
BYBLOCK
 62
     0
100
AcDbLine
 10
80.0
 20
190.53
 30
0.0
 11
80.0
 21
211.502961
 31
0.0
  0
LINE
  5
EDA
100
AcDbEntity
  8
0
  6
BYBLOCK
 62
     0
100
AcDbLine
 10
90.4
 20
210.452961
 30
0.0
 11
82.6
 21
210.452961
 31
0.0
  0
LINE
  5
EDB
100
AcDbEntity
  8
0
  6
BYBLOCK
 62
     0
100
AcDbLine
 10
80.0
 20
210.452961
 30
0.0
 11
63.44
 21
210.452961
 31
0.0
  0
SOLID
  5
EDC
100
AcDbEntity
  8
0
  6
BYBLOCK
 62
     0
100
AcDbTrace
 10
90.4
 20
210.886294
 30
0.0
 11
90.4
 21
210.019627
 31
0.0
 12
93.0
 22
210.452961
 32
0.0
 13
93.0
 23
210.452961
 33
0.0
  0
SOLID
  5
EDD
100
AcDbEntity
  8
0
  6
BYBLOCK
 62
     0
100
AcDbTrace
 10
82.6
 20
210.886294
 30
0.0
 11
82.6
 21
210.019627
 31
0.0
 12
80.0
 22
210.452961
 32
0.0
 13
80.0
 23
210.452961
 33
0.0
  0
MTEXT
  5
EDE
100
AcDbEntity
  8
0
  6
BYBLOCK
 62
     0
100
AcDbMText
 10
70.42
 20
214.408846
 30
0.0
 40
3.0
 41
0.0
 71
     5
 72
     1
  1
\A1;13\S+0.02^  0.00;
  0
POINT
  5
EDF
100
AcDbEntity
  8
DEFPOINTS
  6
BYBLOCK
 62
     0
100
AcDbPoint
 10
93.0
 20
190.0
 30
0.0
  0
POINT
  5
EE0
100
AcDbEntity
  8
DEFPOINTS
  6
BYBLOCK
 62
     0
100
AcDbPoint
 10
80.0
 20
190.0
 30
0.0
  0
POINT
  5
EE1
100
AcDbEntity
  8
DEFPOINTS
  6
BYBLOCK
 62
     0
100
AcDbPoint
 10
80.0
 20
210.452961
 30
0.0
  0
ENDBLK
  5
EE2
100
AcDbEntity
  8
0
100
AcDbBlockEnd
  0
BLOCK
  5
1236
100
AcDbEntity
  8
0
100
AcDbBlockBegin
  2
*D3
 70
    65
 10
0.0
 20
0.0
 30
0.0
  3
*D3
  1

  0
LINE
  5
1237
100
AcDbEntity
  8
0
  6
BYBLOCK
 62
     0
100
AcDbLine
 10
106.53
 20
160.03
 30
0.0
 11
133.438844
 21
160.03
 31
0.0
  0
LINE
  5
1238
100
AcDbEntity
  8
0
  6
BYBLOCK
 62
     0
100
AcDbLine
 10
100.53
 20
93.029458
 30
0.0
 11
133.438844
 21
93.029458
 31
0.0
  0
LINE
  5
1239
100
AcDbEntity
  8
0
  6
BYBLOCK
 62
     0
100
AcDbLine
 10
132.388844
 20
157.43
 30
0.0
 11
132.388844
 21
95.629458
 31
0.0
  0
SOLID
  5
123A
100
AcDbEntity
  8
0
  6
BYBLOCK
 62
     0
100
AcDbTrace
 10
131.955511
 20
157.43
 30
0.0
 11
132.822178
 21
157.43
 31
0.0
 12
132.388844
 22
160.03
 32
0.0
 13
132.388844
 23
160.03
 33
0.0
  0
SOLID
  5
123B
100
AcDbEntity
  8
0
  6
BYBLOCK
 62
     0
100
AcDbTrace
 10
131.955511
 20
95.629458
 30
0.0
 11
132.822178
 21
95.629458
 31
0.0
 12
132.388844
 22
93.029458
 32
0.0
 13
132.388844
 23
93.029458
 33
0.0
  0
MTEXT
  5
123C
100
AcDbEntity
  8
0
  6
BYBLOCK
 62
     0
100
AcDbMText
 10
128.432958
 20
126.529729
 30
0.0
 40
3.0
 41
0.0
 71
     5
 72
     1
  1
\A1;67\S+0.02^  0.00;
 11
0.0
 21
1.0
 31
0.0
  0
POINT
  5
123D
100
AcDbEntity
  8
DEFPOINTS
  6
BYBLOCK
 62
     0
100
AcDbPoint
 10
106.0
 20
160.03
 30
0.0
  0
POINT
  5
123E
100
AcDbEntity
  8
DEFPOINTS
  6
BYBLOCK
 62
     0
100
AcDbPoint
 10
100.0
 20
93.029458
 30
0.0
  0
POINT
  5
123F
100
AcDbEntity
  8
DEFPOINTS
  6
BYBLOCK
 62
     0
100
AcDbPoint
 10
132.388844
 20
93.029458
 30
0.0
  0
ENDBLK
  5
1240
100
AcDbEntity
  8
0
100
AcDbBlockEnd
  0
BLOCK
  5
EE3
100
AcDbEntity
  8
0
100
AcDbBlockBegin
  2
*D4
 70
    65
 10
0.0
 20
0.0
 30
0.0
  3
*D4
  1

  0
LINE
  5
EE4
100
AcDbEntity
  8
0
  6
BYBLOCK
 62
     0
100
AcDbLine
 10
93.0
 20
190.53
 30
0.0
 11
93.0
 21
211.502961
 31
0.0
  0
LINE
  5
EE5
100
AcDbEntity
  8
0
  6
BYBLOCK
 62
     0
100
AcDbLine
 10
100.0
 20
190.53
 30
0.0
 11
100.0
 21
211.502961
 31
0.0
  0
LINE
  5
EE6
100
AcDbEntity
  8
0
  6
BYBLOCK
 62
     0
100
AcDbLine
 10
95.6
 20
210.452961
 30
0.0
 11
97.4
 21
210.452961
 31
0.0
  0
LINE
  5
EE7
100
AcDbEntity
  8
0
  6
BYBLOCK
 62
     0
100
AcDbLine
 10
100.0
 20
210.452961
 30
0.0
 11
114.284264
 21
210.452961
 31
0.0
  0
SOLID
  5
EE8
100
AcDbEntity
  8
0
  6
BYBLOCK
 62
     0
100
AcDbTrace
 10
95.6
 20
210.886294
 30
0.0
 11
95.6
 21
210.019627
 31
0.0
 12
93.0
 22
210.452961
 32
0.0
 13
93.0
 23
210.452961
 33
0.0
  0
SOLID
  5
EE9
100
AcDbEntity
  8
0
  6
BYBLOCK
 62
     0
100
AcDbTrace
 10
97.4
 20
210.886294
 30
0.0
 11
97.4
 21
210.019627
 31
0.0
 12
100.0
 22
210.452961
 32
0.0
 13
100.0
 23
210.452961
 33
0.0
  0
MTEXT
  5
EEA
100
AcDbEntity
  8
0
  6
BYBLOCK
 62
     0
100
AcDbMText
 10
108.442132
 20
212.482961
 30
0.0
 40
3.0
 41
0.0
 71
     5
 72
     1
  1
\A1;7±0.05
  0
POINT
  5
EEB
100
AcDbEntity
  8
DEFPOINTS
  6
BYBLOCK
 62
     0
100
AcDbPoint
 10
93.0
 20
190.0
 30
0.0
  0
POINT
  5
EEC
100
AcDbEntity
  8
DEFPOINTS
  6
BYBLOCK
 62
     0
100
AcDbPoint
 10
100.0
 20
190.0
 30
0.0
  0
POINT
  5
EED
100
AcDbEntity
  8
DEFPOINTS
  6
BYBLOCK
 62
     0
100
AcDbPoint
 10
100.0
 20
210.452961
 30
0.0
  0
ENDBLK
  5
EEE
100
AcDbEntity
  8
0
100
AcDbBlockEnd
  0
BLOCK
  5
1244
100
AcDbEntity
  8
0
100
AcDbBlockBegin
  2
*D5
 70
    65
 10
0.0
 20
0.0
 30
0.0
  3
*D5
  1

  0
LINE
  5
1245
100
AcDbEntity
  8
0
  6
BYBLOCK
 62
     0
100
AcDbLine
 10
79.47
 20
173.0
 30
0.0
 11
64.120061
 21
173.0
 31
0.0
  0
LINE
  5
1246
100
AcDbEntity
  8
0
  6
BYBLOCK
 62
     0
100
AcDbLine
 10
79.47
 20
164.6
 30
0.0
 11
64.120061
 21
164.6
 31
0.0
  0
LINE
  5
1247
100
AcDbEntity
  8
0
  6
BYBLOCK
 62
     0
100
AcDbLine
 10
65.170061
 20
175.6
 30
0.0
 11
65.170061
 21
178.2
 31
0.0
  0
LINE
  5
1248
100
AcDbEntity
  8
0
  6
BYBLOCK
 62
     0
100
AcDbLine
 10
65.170061
 20
162.0
 30
0.0
 11
65.170061
 21
159.4
 31
0.0
  0
LINE
  5
1249
100
AcDbEntity
  8
0
  6
BYBLOCK
 62
     0
100
AcDbLine
 10
65.170061
 20
173.0
 30
0.0
 11
65.170061
 21
164.6
 31
0.0
  0
SOLID
  5
124A
100
AcDbEntity
  8
0
  6
BYBLOCK
 62
     0
100
AcDbTrace
 10
64.736728
 20
175.6
 30
0.0
 11
65.603394
 21
175.6
 31
0.0
 12
65.170061
 22
173.0
 32
0.0
 13
65.170061
 23
173.0
 33
0.0
  0
SOLID
  5
124B
100
AcDbEntity
  8
0
  6
BYBLOCK
 62
     0
100
AcDbTrace
 10
64.736728
 20
162.0
 30
0.0
 11
65.603394
 21
162.0
 31
0.0
 12
65.170061
 22
164.6
 32
0.0
 13
65.170061
 23
164.6
 33
0.0
  0
MTEXT
  5
124C
100
AcDbEntity
  8
0
  6
BYBLOCK
 62
     0
100
AcDbMText
 10
63.140061
 20
168.8
 30
0.0
 40
3.0
 41
0.0
 71
     5
 72
     1
  1
\A1;8.4
 11
0.0
 21
1.0
 31
0.0
  0
POINT
  5
124D
100
AcDbEntity
  8
DEFPOINTS
  6
BYBLOCK
 62
     0
100
AcDbPoint
 10
80.0
 20
173.0
 30
0.0
  0
POINT
  5
124E
100
AcDbEntity
  8
DEFPOINTS
  6
BYBLOCK
 62
     0
100
AcDbPoint
 10
80.0
 20
164.6
 30
0.0
  0
POINT
  5
124F
100
AcDbEntity
  8
DEFPOINTS
  6
BYBLOCK
 62
     0
100
AcDbPoint
 10
65.170061
 20
164.6
 30
0.0
  0
ENDBLK
  5
1250
100
AcDbEntity
  8
0
100
AcDbBlockEnd
  0
BLOCK
  5
E6E
100
AcDbEntity
  8
0
100
AcDbBlockBegin
  2
*D6
 70
    65
 10
0.0
 20
0.0
 30
0.0
  3
*D6
  1

  0
LINE
  5
E6F
100
AcDbEntity
  8
0
  6
BYBLOCK
 62
     0
100
AcDbLine
 10
93.046193
 20
165.527983
 30
0.0
 11
94.433853
 21
181.389014
 31
0.0
  0
ARC
  5
E70
100
AcDbEntity
  8
0
  6
BYBLOCK
 62
     0
100
AcDbCircle
 10
93.0
 20
165.0
 30
0.0
 40
15.401618
100
AcDbArc
 50
65.632361
 51
75.316181
  0
ARC
  5
E71
100
AcDbEntity
  8
0
  6
BYBLOCK
 62
     0
100
AcDbCircle
 10
93.0
 20
165.0
 30
0.0
 40
15.401618
100
AcDbArc
 50
99.683819
 51
109.367639
  0
ARC
  5
E72
100
AcDbEntity
  8
0
  6
BYBLOCK
 62
     0
100
AcDbCircle
 10
93.0
 20
165.0
 30
0.0
 40
15.401618
100
AcDbArc
 50
85.0
 51
90.0
  0
SOLID
  5
E73
100
AcDbEntity
  8
0
  6
BYBLOCK
 62
     0
100
AcDbTrace
 10
96.830006
 20
179.471635
 30
0.0
 11
96.978145
 21
180.325547
 31
0.0
 12
94.342339
 22
180.34301
 32
0.0
 13
94.342339
 23
180.34301
 33
0.0
  0
SOLID
  5
E74
100
AcDbEntity
  8
0
  6
BYBLOCK
 62
     0
100
AcDbTrace
 10
90.372702
 20
180.613947
 30
0.0
 11
90.445855
 21
179.750373
 31
0.0
 12
93.0
 22
180.401618
 32
0.0
 13
93.0
 23
180.401618
 33
0.0
  0
MTEXT
  5
E75
100
AcDbEntity
  8
0
  6
BYBLOCK
 62
     0
100
AcDbMText
 10
100.949048
 20
180.513669
 30
0.0
 40
3.0
 41
0.0
 71
     5
 72
     1
  1
\A1;5°
 11
0.889973
 21
-0.456013
 31
0.0
  0
POINT
  5
E76
100
AcDbEntity
  8
DEFPOINTS
  6
BYBLOCK
 62
     0
100
AcDbPoint
 10
93.447952
 20
180.395102
 30
0.0
  0
POINT
  5
E77
100
AcDbEntity
  8
DEFPOINTS
  6
BYBLOCK
 62
     0
100
AcDbPoint
 10
93.0
 20
165.0
 30
0.0
  0
POINT
  5
E78
100
AcDbEntity
  8
DEFPOINTS
  6
BYBLOCK
 62
     0
100
AcDbPoint
 10
93.0
 20
190.0
 30
0.0
  0
POINT
  5
E79
100
AcDbEntity
  8
DEFPOINTS
  6
BYBLOCK
 62
     0
100
AcDbPoint
 10
93.0
 20
165.0
 30
0.0
  0
POINT
  5
E7A
100
AcDbEntity
  8
DEFPOINTS
  6
BYBLOCK
 62
     0
100
AcDbPoint
 10
92.562557
 20
160.0
 30
0.0
  0
ENDBLK
  5
E7B
100
AcDbEntity
  8
0
100
AcDbBlockEnd
  0
BLOCK
  5
EFD
100
AcDbEntity
  8
0
100
AcDbBlockBegin
  2
*D7
 70
    65
 10
0.0
 20
0.0
 30
0.0
  3
*D7
  1

  0
LINE
  5
EFE
100
AcDbEntity
  8
0
  6
BYBLOCK
 62
     0
100
AcDbLine
 10
83.5
 20
173.53
 30
0.0
 11
83.5
 21
202.977985
 31
0.0
  0
LINE
  5
EFF
100
AcDbEntity
  8
0
  6
BYBLOCK
 62
     0
100
AcDbLine
 10
80.0
 20
190.53
 30
0.0
 11
80.0
 21
202.977985
 31
0.0
  0
LINE
  5
F00
100
AcDbEntity
  8
0
  6
BYBLOCK
 62
     0
100
AcDbLine
 10
86.1
 20
201.927985
 30
0.0
 11
88.7
 21
201.927985
 31
0.0
  0
LINE
  5
F01
100
AcDbEntity
  8
0
  6
BYBLOCK
 62
     0
100
AcDbLine
 10
77.4
 20
201.927985
 30
0.0
 11
69.415736
 21
201.927985
 31
0.0
  0
LINE
  5
F02
100
AcDbEntity
  8
0
  6
BYBLOCK
 62
     0
100
AcDbLine
 10
83.5
 20
201.927985
 30
0.0
 11
80.0
 21
201.927985
 31
0.0
  0
SOLID
  5
F03
100
AcDbEntity
  8
0
  6
BYBLOCK
 62
     0
100
AcDbTrace
 10
86.1
 20
202.361318
 30
0.0
 11
86.1
 21
201.494652
 31
0.0
 12
83.5
 22
201.927985
 32
0.0
 13
83.5
 23
201.927985
 33
0.0
  0
SOLID
  5
F04
100
AcDbEntity
  8
0
  6
BYBLOCK
 62
     0
100
AcDbTrace
 10
77.4
 20
202.361318
 30
0.0
 11
77.4
 21
201.494652
 31
0.0
 12
80.0
 22
201.927985
 32
0.0
 13
80.0
 23
201.927985
 33
0.0
  0
MTEXT
  5
F05
100
AcDbEntity
  8
0
  6
BYBLOCK
 62
     0
100
AcDbMText
 10
72.107868
 20
203.957985
 30
0.0
 40
3.0
 41
0.0
 71
     5
 72
     1
  1
\A1;3.5
  0
POINT
  5
F06
100
AcDbEntity
  8
DEFPOINTS
  6
BYBLOCK
 62
     0
100
AcDbPoint
 10
83.5
 20
173.0
 30
0.0
  0
POINT
  5
F07
100
AcDbEntity
  8
DEFPOINTS
  6
BYBLOCK
 62
     0
100
AcDbPoint
 10
80.0
 20
190.0
 30
0.0
  0
POINT
  5
F08
100
AcDbEntity
  8
DEFPOINTS
  6
BYBLOCK
 62
     0
100
AcDbPoint
 10
80.0
 20
201.927985
 30
0.0
  0
ENDBLK
  5
F09
100
AcDbEntity
  8
0
100
AcDbBlockEnd
  0
BLOCK
  5
125E
100
AcDbEntity
  8
0
100
AcDbBlockBegin
  2
*D8
 70
    65
 10
0.0
 20
0.0
 30
0.0
  3
*D8
  1

  0
LINE
  5
125F
100
AcDbEntity
  8
0
  6
BYBLOCK
 62
     0
100
AcDbLine
 10
79.47
 20
190.03
 30
0.0
 11
41.912269
 21
190.03
 31
0.0
  0
LINE
  5
1260
100
AcDbEntity
  8
0
  6
BYBLOCK
 62
     0
100
AcDbLine
 10
99.47
 20
93.029458
 30
0.0
 11
41.912269
 21
93.029458
 31
0.0
  0
LINE
  5
1261
100
AcDbEntity
  8
0
  6
BYBLOCK
 62
     0
100
AcDbLine
 10
42.962269
 20
187.43
 30
0.0
 11
42.962269
 21
95.629458
 31
0.0
  0
SOLID
  5
1262
100
AcDbEntity
  8
0
  6
BYBLOCK
 62
     0
100
AcDbTrace
 10
42.528936
 20
187.43
 30
0.0
 11
43.395603
 21
187.43
 31
0.0
 12
42.962269
 22
190.03
 32
0.0
 13
42.962269
 23
190.03
 33
0.0
  0
SOLID
  5
1263
100
AcDbEntity
  8
0
  6
BYBLOCK
 62
     0
100
AcDbTrace
 10
42.528936
 20
95.629458
 30
0.0
 11
43.395603
 21
95.629458
 31
0.0
 12
42.962269
 22
93.029458
 32
0.0
 13
42.962269
 23
93.029458
 33
0.0
  0
MTEXT
  5
1264
100
AcDbEntity
  8
0
  6
BYBLOCK
 62
     0
100
AcDbMText
 10
40.932269
 20
141.529729
 30
0.0
 40
3.0
 41
0.0
 71
     5
 72
     1
  1
\A1;97
 11
0.0
 21
1.0
 31
0.0
  0
POINT
  5
1265
100
AcDbEntity
  8
DEFPOINTS
  6
BYBLOCK
 62
     0
100
AcDbPoint
 10
80.0
 20
190.03
 30
0.0
  0
POINT
  5
1266
100
AcDbEntity
  8
DEFPOINTS
  6
BYBLOCK
 62
     0
100
AcDbPoint
 10
100.0
 20
93.029458
 30
0.0
  0
POINT
  5
1267
100
AcDbEntity
  8
DEFPOINTS
  6
BYBLOCK
 62
     0
100
AcDbPoint
 10
42.962269
 20
93.029458
 30
0.0
  0
ENDBLK
  5
1268
100
AcDbEntity
  8
0
100
AcDbBlockEnd
  0
BLOCK
  5
1298
100
AcDbEntity
  8
0
100
AcDbBlockBegin
  2
*D9
 70
    65
 10
0.0
 20
0.0
 30
0.0
  3
*D9
  1

  0
LINE
  5
1299
100
AcDbEntity
  8
0
  6
BYBLOCK
 62
     0
100
AcDbLine
 10
100.0
 20
92.499458
 30
0.0
 11
100.0
 21
78.18047
 31
0.0
  0
LINE
  5
129A
100
AcDbEntity
  8
0
  6
BYBLOCK
 62
     0
100
AcDbLine
 10
125.75
 20
114.499458
 30
0.0
 11
125.75
 21
78.18047
 31
0.0
  0
LINE
  5
129B
100
AcDbEntity
  8
0
  6
BYBLOCK
 62
     0
100
AcDbLine
 10
102.6
 20
79.23047
 30
0.0
 11
123.15
 21
79.23047
 31
0.0
  0
SOLID
  5
129C
100
AcDbEntity
  8
0
  6
BYBLOCK
 62
     0
100
AcDbTrace
 10
102.6
 20
79.663803
 30
0.0
 11
102.6
 21
78.797137
 31
0.0
 12
100.0
 22
79.23047
 32
0.0
 13
100.0
 23
79.23047
 33
0.0
  0
SOLID
  5
129D
100
AcDbEntity
  8
0
  6
BYBLOCK
 62
     0
100
AcDbTrace
 10
123.15
 20
79.663803
 30
0.0
 11
123.15
 21
78.797137
 31
0.0
 12
125.75
 22
79.23047
 32
0.0
 13
125.75
 23
79.23047
 33
0.0
  0
MTEXT
  5
129E
100
AcDbEntity
  8
0
  6
BYBLOCK
 62
     0
100
AcDbMText
 10
112.875
 20
81.26047
 30
0.0
 40
3.0
 41
0.0
 71
     5
 72
     1
  1
\A1;25.75
  0
POINT
  5
129F
100
AcDbEntity
  8
DEFPOINTS
  6
BYBLOCK
 62
     0
100
AcDbPoint
 10
100.0
 20
93.029458
 30
0.0
  0
POINT
  5
12A0
100
AcDbEntity
  8
DEFPOINTS
  6
BYBLOCK
 62
     0
100
AcDbPoint
 10
125.75
 20
115.029458
 30
0.0
  0
POINT
  5
12A1
100
AcDbEntity
  8
DEFPOINTS
  6
BYBLOCK
 62
     0
100
AcDbPoint
 10
125.75
 20
79.23047
 30
0.0
  0
ENDBLK
  5
12A2
100
AcDbEntity
  8
0
100
AcDbBlockEnd
  0
BLOCK
  5
1278
100
AcDbEntity
  8
0
100
AcDbBlockBegin
  2
*D10
 70
    65
 10
0.0
 20
0.0
 30
0.0
  3
*D10
  1

  0
LINE
  5
1279
100
AcDbEntity
  8
0
  6
BYBLOCK
 62
     0
100
AcDbLine
 10
125.22
 20
115.029458
 30
0.0
 11
124.687526
 21
115.029458
 31
0.0
  0
LINE
  5
127A
100
AcDbEntity
  8
0
  6
BYBLOCK
 62
     0
100
AcDbLine
 10
100.53
 20
93.029458
 30
0.0
 11
126.787526
 21
93.029458
 31
0.0
  0
LINE
  5
127B
100
AcDbEntity
  8
0
  6
BYBLOCK
 62
     0
100
AcDbLine
 10
125.737526
 20
112.429458
 30
0.0
 11
125.737526
 21
95.629458
 31
0.0
  0
SOLID
  5
127C
100
AcDbEntity
  8
0
  6
BYBLOCK
 62
     0
100
AcDbTrace
 10
125.304193
 20
112.429458
 30
0.0
 11
126.170859
 21
112.429458
 31
0.0
 12
125.737526
 22
115.029458
 32
0.0
 13
125.737526
 23
115.029458
 33
0.0
  0
SOLID
  5
127D
100
AcDbEntity
  8
0
  6
BYBLOCK
 62
     0
100
AcDbTrace
 10
125.304193
 20
95.629458
 30
0.0
 11
126.170859
 21
95.629458
 31
0.0
 12
125.737526
 22
93.029458
 32
0.0
 13
125.737526
 23
93.029458
 33
0.0
  0
MTEXT
  5
127E
100
AcDbEntity
  8
0
  6
BYBLOCK
 62
     0
100
AcDbMText
 10
123.707231
 20
104.029458
 30
0.0
 40
3.0
 41
0.0
 71
     5
 72
     1
  1
\A1;22
 11
0.0
 21
1.0
 31
0.0
  0
POINT
  5
127F
100
AcDbEntity
  8
DEFPOINTS
  6
BYBLOCK
 62
     0
100
AcDbPoint
 10
125.75
 20
115.029458
 30
0.0
  0
POINT
  5
1280
100
AcDbEntity
  8
DEFPOINTS
  6
BYBLOCK
 62
     0
100
AcDbPoint
 10
100.0
 20
93.029458
 30
0.0
  0
POINT
  5
1281
100
AcDbEntity
  8
DEFPOINTS
  6
BYBLOCK
 62
     0
100
AcDbPoint
 10
125.737526
 20
93.029458
 30
0.0
  0
ENDBLK
  5
1282
100
AcDbEntity
  8
0
100
AcDbBlockEnd
  0
BLOCK
  5
1285
100
AcDbEntity
  8
0
100
AcDbBlockBegin
  2
*D11
 70
    65
 10
0.0
 20
0.0
 30
0.0
  3
*D11
  1

  0
LINE
  5
1286
100
AcDbEntity
  8
0
  6
BYBLOCK
 62
     0
100
AcDbLine
 10
125.75
 20
115.029458
 30
0.0
 11
100.172446
 21
124.855381
 31
0.0
  0
SOLID
  5
1287
100
AcDbEntity
  8
0
  6
BYBLOCK
 62
     0
100
AcDbTrace
 10
100.327844
 20
125.259892
 30
0.0
 11
100.017049
 21
124.450869
 31
0.0
 12
97.745379
 22
125.787767
 32
0.0
 13
97.745379
 23
125.787767
 33
0.0
  0
MTEXT
  5
1288
100
AcDbEntity
  8
0
  6
BYBLOCK
 62
     0
100
AcDbMText
 10
112.475669
 20
122.303592
 30
0.0
 40
3.0
 41
0.0
 71
     5
 72
     1
  1
\A1;R30
 11
0.933487
 21
-0.35861
 31
0.0
  0
POINT
  5
1289
100
AcDbEntity
  8
DEFPOINTS
  6
BYBLOCK
 62
     0
100
AcDbPoint
 10
97.745379
 20
125.787767
 30
0.0
  0
POINT
  5
128A
100
AcDbEntity
  8
DEFPOINTS
  6
BYBLOCK
 62
     0
100
AcDbPoint
 10
125.75
 20
115.029458
 30
0.0
  0
ENDBLK
  5
128B
100
AcDbEntity
  8
0
100
AcDbBlockEnd
  0
BLOCK
  5
12A4
100
AcDbEntity
  8
0
100
AcDbBlockBegin
  2
*D12
 70
    65
 10
0.0
 20
0.0
 30
0.0
  3
*D12
  1

  0
LINE
  5
12A5
100
AcDbEntity
  8
0
  6
BYBLOCK
 62
     0
100
AcDbLine
 10
99.876853
 20
92.78167
 30
0.0
 11
106.095519
 21
84.092605
 31
0.0
  0
LINE
  5
12A6
100
AcDbEntity
  8
0
  6
BYBLOCK
 62
     0
100
AcDbLine
 10
103.204931
 20
95.163539
 30
0.0
 11
109.423598
 21
86.474473
 31
0.0
  0
LINE
  5
12A7
100
AcDbEntity
  8
0
  6
BYBLOCK
 62
     0
100
AcDbLine
 10
103.370123
 20
83.433275
 30
0.0
 11
101.25582
 21
81.920092
 31
0.0
  0
LINE
  5
12A8
100
AcDbEntity
  8
0
  6
BYBLOCK
 62
     0
100
AcDbLine
 10
110.926808
 20
88.841509
 30
0.0
 11
113.041111
 21
90.354692
 31
0.0
  0
LINE
  5
12A9
100
AcDbEntity
  8
0
  6
BYBLOCK
 62
     0
100
AcDbLine
 10
105.484426
 20
84.946458
 30
0.0
 11
108.812505
 21
87.328326
 31
0.0
  0
SOLID
  5
12AA
100
AcDbEntity
  8
0
  6
BYBLOCK
 62
     0
100
AcDbTrace
 10
103.117926
 20
83.785659
 30
0.0
 11
103.62232
 21
83.080891
 31
0.0
 12
105.484426
 22
84.946458
 32
0.0
 13
105.484426
 23
84.946458
 33
0.0
  0
SOLID
  5
12AB
100
AcDbEntity
  8
0
  6
BYBLOCK
 62
     0
100
AcDbTrace
 10
110.674611
 20
89.193893
 30
0.0
 11
111.179005
 21
88.489125
 31
0.0
 12
108.812505
 22
87.328326
 32
0.0
 13
108.812505
 23
87.328326
 33
0.0
  0
MTEXT
  5
12AC
100
AcDbEntity
  8
0
  6
BYBLOCK
 62
     0
100
AcDbMText
 10
105.967019
 20
87.788175
 30
0.0
 40
3.0
 41
0.0
 71
     5
 72
     1
  1
\A1;{4}
 11
0.813194
 21
0.581993
 31
0.0
  0
POINT
  5
12AD
100
AcDbEntity
  8
DEFPOINTS
  6
BYBLOCK
 62
     0
100
AcDbPoint
 10
99.568396
 20
93.212663
 30
0.0
  0
POINT
  5
12AE
100
AcDbEntity
  8
DEFPOINTS
  6
BYBLOCK
 62
     0
100
AcDbPoint
 10
102.896475
 20
95.594531
 30
0.0
  0
POINT
  5
12AF
100
AcDbEntity
  8
DEFPOINTS
  6
BYBLOCK
 62
     0
100
AcDbPoint
 10
108.812505
 20
87.328326
 30
0.0
  0
ENDBLK
  5
12B0
100
AcDbEntity
  8
0
100
AcDbBlockEnd
  0
BLOCK
  5
12B3
100
AcDbEntity
  8
0
100
AcDbBlockBegin
  2
*D13
 70
    65
 10
0.0
 20
0.0
 30
0.0
  3
*D13
  1

  0
LINE
  5
12B4
100
AcDbEntity
  8
0
  6
BYBLOCK
 62
     0
100
AcDbLine
 10
96.882456
 20
95.239501
 30
0.0
 11
90.501873
 21
86.91641
 31
0.0
  0
LINE
  5
12B5
100
AcDbEntity
  8
0
  6
BYBLOCK
 62
     0
100
AcDbLine
 10
100.094341
 20
92.777232
 30
0.0
 11
93.713757
 21
84.45414
 31
0.0
  0
LINE
  5
12B6
100
AcDbEntity
  8
0
  6
BYBLOCK
 62
     0
100
AcDbLine
 10
89.077267
 20
89.33157
 30
0.0
 11
87.013836
 21
90.913421
 31
0.0
  0
LINE
  5
12B7
100
AcDbEntity
  8
0
  6
BYBLOCK
 62
     0
100
AcDbLine
 10
96.416013
 20
83.705598
 30
0.0
 11
98.479444
 21
82.123746
 31
0.0
  0
LINE
  5
12B8
100
AcDbEntity
  8
0
  6
BYBLOCK
 62
     0
100
AcDbLine
 10
91.140698
 20
87.749718
 30
0.0
 11
94.352582
 21
85.287449
 31
0.0
  0
SOLID
  5
12B9
100
AcDbEntity
  8
0
  6
BYBLOCK
 62
     0
100
AcDbTrace
 10
89.340909
 20
89.675475
 30
0.0
 11
88.813625
 21
88.987664
 31
0.0
 12
91.140698
 22
87.749718
 32
0.0
 13
91.140698
 23
87.749718
 33
0.0
  0
SOLID
  5
12BA
100
AcDbEntity
  8
0
  6
BYBLOCK
 62
     0
100
AcDbTrace
 10
96.679655
 20
84.049503
 30
0.0
 11
96.152371
 21
83.361692
 31
0.0
 12
94.352582
 22
85.287449
 32
0.0
 13
94.352582
 23
85.287449
 33
0.0
  0
MTEXT
  5
12BB
100
AcDbEntity
  8
0
  6
BYBLOCK
 62
     0
100
AcDbMText
 10
93.981701
 20
88.129647
 30
0.0
 40
3.0
 41
0.0
 71
     5
 72
     1
  1
\A1;{4}
 11
0.793627
 21
-0.608404
 31
0.0
  0
POINT
  5
12BC
100
AcDbEntity
  8
DEFPOINTS
  6
BYBLOCK
 62
     0
100
AcDbPoint
 10
97.204911
 20
95.660124
 30
0.0
  0
POINT
  5
12BD
100
AcDbEntity
  8
DEFPOINTS
  6
BYBLOCK
 62
     0
100
AcDbPoint
 10
100.416795
 20
93.197854
 30
0.0
  0
POINT
  5
12BE
100
AcDbEntity
  8
DEFPOINTS
  6
BYBLOCK
 62
     0
100
AcDbPoint
 10
94.352582
 20
85.287449
 30
0.0
  0
ENDBLK
  5
12BF
100
AcDbEntity
  8
0
100
AcDbBlockEnd
  0
BLOCK
  5
12D1
100
AcDbEntity
  8
0
100
AcDbBlockBegin
  2
*D14
 70
    65
 10
0.0
 20
0.0
 30
0.0
  3
*D14
  1

  0
LINE
  5
12D2
100
AcDbEntity
  8
0
  6
BYBLOCK
 62
     0
100
AcDbLine
 10
96.836742
 20
96.041374
 30
0.0
 11
91.482621
 21
101.585728
 31
0.0
  0
LINE
  5
12D3
100
AcDbEntity
  8
0
  6
BYBLOCK
 62
     0
100
AcDbLine
 10
97.196412
 20
96.388703
 30
0.0
 11
91.842291
 21
101.933057
 31
0.0
  0
LINE
  5
12D4
100
AcDbEntity
  8
0
  6
BYBLOCK
 62
     0
100
AcDbLine
 10
90.341729
 20
99.024309
 30
0.0
 11
88.471446
 21
97.218197
 31
0.0
  0
LINE
  5
12D5
100
AcDbEntity
  8
0
  6
BYBLOCK
 62
     0
100
AcDbLine
 10
94.441966
 20
102.983862
 30
0.0
 11
100.185365
 21
108.530198
 31
0.0
  0
LINE
  5
12D6
100
AcDbEntity
  8
0
  6
BYBLOCK
 62
     0
100
AcDbLine
 10
92.212013
 20
100.830421
 30
0.0
 11
92.571683
 21
101.17775
 31
0.0
  0
SOLID
  5
12D7
100
AcDbEntity
  8
0
  6
BYBLOCK
 62
     0
100
AcDbTrace
 10
90.040711
 20
99.336023
 30
0.0
 11
90.642748
 21
98.712595
 31
0.0
 12
92.212013
 22
100.830421
 32
0.0
 13
92.212013
 23
100.830421
 33
0.0
  0
SOLID
  5
12D8
100
AcDbEntity
  8
0
  6
BYBLOCK
 62
     0
100
AcDbTrace
 10
94.140947
 20
103.295576
 30
0.0
 11
94.742985
 21
102.672148
 31
0.0
 12
92.571683
 22
101.17775
 32
0.0
 13
92.571683
 23
101.17775
 33
0.0
  0
MTEXT
  5
12D9
100
AcDbEntity
  8
0
  6
BYBLOCK
 62
     0
100
AcDbMText
 10
96.838651
 20
108.120346
 30
0.0
 40
3.0
 41
0.0
 71
     5
 72
     1
  1
\A1;{0.5}
 11
0.71934
 21
0.694658
 31
0.0
  0
POINT
  5
12DA
100
AcDbEntity
  8
DEFPOINTS
  6
BYBLOCK
 62
     0
100
AcDbPoint
 10
97.204911
 20
95.660124
 30
0.0
  0
POINT
  5
12DB
100
AcDbEntity
  8
DEFPOINTS
  6
BYBLOCK
 62
     0
100
AcDbPoint
 10
97.564581
 20
96.007453
 30
0.0
  0
POINT
  5
12DC
100
AcDbEntity
  8
DEFPOINTS
  6
BYBLOCK
 62
     0
100
AcDbPoint
 10
92.571683
 20
101.17775
 30
0.0
  0
ENDBLK
  5
12DD
100
AcDbEntity
  8
0
100
AcDbBlockEnd
  0
BLOCK
  5
1303
100
AcDbEntity
  8
0
100
AcDbBlockBegin
  2
*D15
 70
    65
 10
0.0
 20
0.0
 30
0.0
  3
*D15
  1

  0
LINE
  5
1304
100
AcDbEntity
  8
0
  6
BYBLOCK
 62
     0
100
AcDbLine
 10
80.0
 20
148.940028
 30
0.0
 11
80.0
 21
149.815266
 31
0.0
  0
LINE
  5
1305
100
AcDbEntity
  8
0
  6
BYBLOCK
 62
     0
100
AcDbLine
 10
106.0
 20
148.940028
 30
0.0
 11
106.0
 21
149.815266
 31
0.0
  0
LINE
  5
1306
100
AcDbEntity
  8
0
  6
BYBLOCK
 62
     0
100
AcDbLine
 10
82.6
 20
148.765266
 30
0.0
 11
103.4
 21
148.765266
 31
0.0
  0
SOLID
  5
1307
100
AcDbEntity
  8
0
  6
BYBLOCK
 62
     0
100
AcDbTrace
 10
82.6
 20
149.1986
 30
0.0
 11
82.6
 21
148.331933
 31
0.0
 12
80.0
 22
148.765266
 32
0.0
 13
80.0
 23
148.765266
 33
0.0
  0
SOLID
  5
1308
100
AcDbEntity
  8
0
  6
BYBLOCK
 62
     0
100
AcDbTrace
 10
103.4
 20
149.1986
 30
0.0
 11
103.4
 21
148.331933
 31
0.0
 12
106.0
 22
148.765266
 32
0.0
 13
106.0
 23
148.765266
 33
0.0
  0
MTEXT
  5
1309
100
AcDbEntity
  8
0
  6
BYBLOCK
 62
     0
100
AcDbMText
 10
93.0
 20
150.795266
 30
0.0
 40
3.0
 41
0.0
 71
     5
 72
     1
  1
\A1;26
  0
POINT
  5
130A
100
AcDbEntity
  8
DEFPOINTS
  6
BYBLOCK
 62
     0
100
AcDbPoint
 10
80.0
 20
148.410028
 30
0.0
  0
POINT
  5
130B
100
AcDbEntity
  8
DEFPOINTS
  6
BYBLOCK
 62
     0
100
AcDbPoint
 10
106.0
 20
148.410028
 30
0.0
  0
POINT
  5
130C
100
AcDbEntity
  8
DEFPOINTS
  6
BYBLOCK
 62
     0
100
AcDbPoint
 10
106.0
 20
148.765266
 30
0.0
  0
ENDBLK
  5
130D
100
AcDbEntity
  8
0
100
AcDbBlockEnd
  0
BLOCK
  5
1317
100
AcDbEntity
  8
0
100
AcDbBlockBegin
  2
*D16
 70
    65
 10
0.0
 20
0.0
 30
0.0
  3
*D16
  1

  0
LINE
  5
1318
100
AcDbEntity
  8
0
  6
BYBLOCK
 62
     0
100
AcDbLine
 10
80.0
 20
113.666109
 30
0.0
 11
80.0
 21
104.066268
 31
0.0
  0
ARC
  5
1319
100
AcDbEntity
  8
0
  6
BYBLOCK
 62
     0
100
AcDbCircle
 10
80.0
 20
114.196109
 30
0.0
 40
9.079841
100
AcDbArc
 50
250.191965
 51
270.0
  0
ARC
  5
131A
100
AcDbEntity
  8
0
  6
BYBLOCK
 62
     0
100
AcDbCircle
 10
80.0
 20
114.196109
 30
0.0
 40
9.079841
100
AcDbArc
 50
286.463144
 51
297.536856
  0
SOLID
  5
131B
100
AcDbEntity
  8
0
  6
BYBLOCK
 62
     0
100
AcDbTrace
 10
82.635256
 20
105.059652
 30
0.0
 11
82.511171
 21
105.91739
 31
0.0
 12
80.0
 22
105.116268
 32
0.0
 13
80.0
 23
105.116268
 33
0.0
  0
SOLID
  5
131C
100
AcDbEntity
  8
0
  6
BYBLOCK
 62
     0
100
AcDbTrace
 10
83.944496
 20
106.49649
 30
0.0
 11
84.451072
 21
105.793289
 31
0.0
 12
86.307388
 22
107.664618
 32
0.0
 13
86.307388
 23
107.664618
 33
0.0
  0
MTEXT
  5
131D
100
AcDbEntity
  8
0
  6
BYBLOCK
 62
     0
100
AcDbMText
 10
74.431005
 20
108.708764
 30
0.0
 40
3.0
 41
0.0
 71
     5
 72
     1
  1
\A1;44°
 11
0.940833
 21
-0.33887
 31
0.0
  0
POINT
  5
131E
100
AcDbEntity
  8
DEFPOINTS
  6
BYBLOCK
 62
     0
100
AcDbPoint
 10
84.448121
 20
106.280445
 30
0.0
  0
POINT
  5
131F
100
AcDbEntity
  8
DEFPOINTS
  6
BYBLOCK
 62
     0
100
AcDbPoint
 10
80.0
 20
160.0
 30
0.0
  0
POINT
  5
1320
100
AcDbEntity
  8
DEFPOINTS
  6
BYBLOCK
 62
     0
100
AcDbPoint
 10
97.217251
 20
96.367123
 30
0.0
  0
POINT
  5
1321
100
AcDbEntity
  8
DEFPOINTS
  6
BYBLOCK
 62
     0
100
AcDbPoint
 10
80.0
 20
114.196109
 30
0.0
  0
POINT
  5
1322
100
AcDbEntity
  8
DEFPOINTS
  6
BYBLOCK
 62
     0
100
AcDbPoint
 10
80.0
 20
114.196109
 30
0.0
  0
ENDBLK
  5
1323
100
AcDbEntity
  8
0
100
AcDbBlockEnd
  0
BLOCK
  5
1335
100
AcDbEntity
  8
0
100
AcDbBlockBegin
  2
*D17
 70
    65
 10
0.0
 20
0.0
 30
0.0
  3
*D17
  1

  0
LINE
  5
1336
100
AcDbEntity
  8
0
  6
BYBLOCK
 62
     0
100
AcDbLine
 10
45.47491
 20
30.771667
 30
0.0
 11
34.804498
 21
20.481924
 31
0.0
  0
LINE
  5
1337
100
AcDbEntity
  8
0
  6
BYBLOCK
 62
     0
100
AcDbLine
 10
49.505959
 20
34.658908
 30
0.0
 11
47.346469
 21
32.576458
 31
0.0
  0
SOLID
  5
1338
100
AcDbEntity
  8
0
  6
BYBLOCK
 62
     0
100
AcDbTrace
 10
45.174112
 20
31.083594
 30
0.0
 11
45.775709
 21
30.459741
 31
0.0
 12
47.346469
 22
32.576458
 32
0.0
 13
47.346469
 23
32.576458
 33
0.0
  0
MTEXT
  5
1339
100
AcDbEntity
  8
0
  6
BYBLOCK
 62
     0
100
AcDbMText
 10
36.2705
 20
24.715735
 30
0.0
 40
3.0
 41
0.0
 71
     5
 72
     1
  1
\A1;{R0.6}
 11
0.71983
 21
0.69415
 31
0.0
  0
LINE
  5
133A
100
AcDbEntity
  8
0
  6
BYBLOCK
 62
     0
100
AcDbLine
 10
47.405959
 20
34.658908
 30
0.0
 11
51.605959
 21
34.658908
 31
0.0
  0
LINE
  5
133B
100
AcDbEntity
  8
0
  6
BYBLOCK
 62
     0
100
AcDbLine
 10
49.505959
 20
32.558908
 30
0.0
 11
49.505959
 21
36.758908
 31
0.0
  0
POINT
  5
133C
100
AcDbEntity
  8
DEFPOINTS
  6
BYBLOCK
 62
     0
100
AcDbPoint
 10
47.346469
 20
32.576458
 30
0.0
  0
POINT
  5
133D
100
AcDbEntity
  8
DEFPOINTS
  6
BYBLOCK
 62
     0
100
AcDbPoint
 10
49.505959
 20
34.658908
 30
0.0
  0
ENDBLK
  5
133E
100
AcDbEntity
  8
0
100
AcDbBlockEnd
  0
BLOCK
  5
1340
100
AcDbEntity
  8
0
100
AcDbBlockBegin
  2
*D18
 70
    65
 10
0.0
 20
0.0
 30
0.0
  3
*D18
  1

  0
LINE
  5
1341
100
AcDbEntity
  8
0
  6
BYBLOCK
 62
     0
100
AcDbLine
 10
49.13779
 20
29.958989
 30
0.0
 11
39.897442
 21
20.390328
 31
0.0
  0
LINE
  5
1342
100
AcDbEntity
  8
0
  6
BYBLOCK
 62
     0
100
AcDbLine
 10
49.874128
 20
29.958989
 30
0.0
 11
59.114476
 21
20.390328
 31
0.0
  0
ARC
  5
1343
100
AcDbEntity
  8
0
  6
BYBLOCK
 62
     0
100
AcDbCircle
 10
49.505959
 20
30.340239
 30
0.0
 40
12.782003
100
AcDbArc
 50
237.674778
 51
302.325222
  0
SOLID
  5
1344
100
AcDbEntity
  8
0
  6
BYBLOCK
 62
     0
100
AcDbTrace
 10
42.403356
 20
19.198394
 30
0.0
 11
42.938865
 21
19.87982
 31
0.0
 12
40.626834
 22
21.145635
 32
0.0
 13
40.626834
 23
21.145635
 33
0.0
  0
SOLID
  5
1345
100
AcDbEntity
  8
0
  6
BYBLOCK
 62
     0
100
AcDbTrace
 10
56.073053
 20
19.87982
 30
0.0
 11
56.608563
 21
19.198394
 31
0.0
 12
58.385085
 22
21.145635
 32
0.0
 13
58.385085
 23
21.145635
 33
0.0
  0
MTEXT
  5
1346
100
AcDbEntity
  8
0
  6
BYBLOCK
 62
     0
100
AcDbMText
 10
49.505959
 20
19.588236
 30
0.0
 40
3.0
 41
0.0
 71
     5
 72
     1
  1
\A1;88°
  0
POINT
  5
1347
100
AcDbEntity
  8
DEFPOINTS
  6
BYBLOCK
 62
     0
100
AcDbPoint
 10
46.269618
 20
17.974734
 30
0.0
  0
POINT
  5
1348
100
AcDbEntity
  8
DEFPOINTS
  6
BYBLOCK
 62
     0
100
AcDbPoint
 10
47.34794
 20
32.574933
 30
0.0
  0
POINT
  5
1349
100
AcDbEntity
  8
DEFPOINTS
  6
BYBLOCK
 62
     0
100
AcDbPoint
 10
51.663979
 20
32.574933
 30
0.0
  0
POINT
  5
134A
100
AcDbEntity
  8
DEFPOINTS
  6
BYBLOCK
 62
     0
100
AcDbPoint
 10
63.399127
 20
44.727035
 30
0.0
  0
POINT
  5
134B
100
AcDbEntity
  8
DEFPOINTS
  6
BYBLOCK
 62
     0
100
AcDbPoint
 10
35.612792
 20
44.727035
 30
0.0
  0
ENDBLK
  5
134C
100
AcDbEntity
  8
0
100
AcDbBlockEnd
  0
BLOCK
  5
13A4
100
AcDbEntity
  8
0
100
AcDbBlockBegin
  2
*D19
 70
    65
 10
0.0
 20
0.0
 30
0.0
  3
*D19
  1

  0
LINE
  5
13A5
100
AcDbEntity
  8
0
  6
BYBLOCK
 62
     0
100
AcDbLine
 10
79.47
 20
173.0
 30
0.0
 11
54.689206
 21
173.0
 31
0.0
  0
LINE
  5
13A6
100
AcDbEntity
  8
0
  6
BYBLOCK
 62
     0
100
AcDbLine
 10
92.035181
 20
160.03
 30
0.0
 11
54.689206
 21
160.03
 31
0.0
  0
LINE
  5
13A7
100
AcDbEntity
  8
0
  6
BYBLOCK
 62
     0
100
AcDbLine
 10
55.739206
 20
170.4
 30
0.0
 11
55.739206
 21
162.63
 31
0.0
  0
SOLID
  5
13A8
100
AcDbEntity
  8
0
  6
BYBLOCK
 62
     0
100
AcDbTrace
 10
55.305873
 20
170.4
 30
0.0
 11
56.17254
 21
170.4
 31
0.0
 12
55.739206
 22
173.0
 32
0.0
 13
55.739206
 23
173.0
 33
0.0
  0
SOLID
  5
13A9
100
AcDbEntity
  8
0
  6
BYBLOCK
 62
     0
100
AcDbTrace
 10
55.305873
 20
162.63
 30
0.0
 11
56.17254
 21
162.63
 31
0.0
 12
55.739206
 22
160.03
 32
0.0
 13
55.739206
 23
160.03
 33
0.0
  0
MTEXT
  5
13AA
100
AcDbEntity
  8
0
  6
BYBLOCK
 62
     0
100
AcDbMText
 10
53.709206
 20
166.515
 30
0.0
 40
3.0
 41
0.0
 71
     5
 72
     1
  1
\A1;{13}
 11
0.0
 21
1.0
 31
0.0
  0
POINT
  5
13AB
100
AcDbEntity
  8
DEFPOINTS
  6
BYBLOCK
 62
     0
100
AcDbPoint
 10
80.0
 20
173.0
 30
0.0
  0
POINT
  5
13AC
100
AcDbEntity
  8
DEFPOINTS
  6
BYBLOCK
 62
     0
100
AcDbPoint
 10
92.565181
 20
160.03
 30
0.0
  0
POINT
  5
13AD
100
AcDbEntity
  8
DEFPOINTS
  6
BYBLOCK
 62
     0
100
AcDbPoint
 10
55.739206
 20
160.03
 30
0.0
  0
ENDBLK
  5
13AE
100
AcDbEntity
  8
0
100
AcDbBlockEnd
  0
BLOCK
  5
13B3
100
AcDbEntity
  8
0
100
AcDbBlockBegin
  2
*X20
 70
    65
 10
0.0
 20
0.0
 30
0.0
  3
*X20
  1

  0
LINE
  5
13B5
100
AcDbEntity
  8
0
  6
CONTINUOUS
 62
     0
100
AcDbLine
 10
99.093051
 20
93.704897
 30
0.0
 11
100.457796
 21
95.069643
 31
0.0
  0
LINE
  5
13B6
100
AcDbEntity
  8
0
  6
CONTINUOUS
 62
     0
100
AcDbLine
 10
98.982757
 20
93.81911
 30
0.0
 11
100.221298
 21
95.057651
 31
0.0
  0
LINE
  5
13B7
100
AcDbEntity
  8
0
  6
CONTINUOUS
 62
     0
100
AcDbLine
 10
98.872463
 20
93.933322
 30
0.0
 11
99.993142
 21
95.054002
 31
0.0
  0
LINE
  5
13B8
100
AcDbEntity
  8
0
  6
CONTINUOUS
 62
     0
100
AcDbLine
 10
98.762169
 20
94.047535
 30
0.0
 11
99.772493
 21
95.057858
 31
0.0
  0
LINE
  5
13B9
100
AcDbEntity
  8
0
  6
CONTINUOUS
 62
     0
100
AcDbLine
 10
98.651876
 20
94.161748
 30
0.0
 11
99.558665
 21
95.068537
 31
0.0
  0
LINE
  5
13BA
100
AcDbEntity
  8
0
  6
CONTINUOUS
 62
     0
100
AcDbLine
 10
98.541582
 20
94.27596
 30
0.0
 11
99.35109
 21
95.085468
 31
0.0
  0
LINE
  5
13BB
100
AcDbEntity
  8
0
  6
CONTINUOUS
 62
     0
100
AcDbLine
 10
98.431288
 20
94.390173
 30
0.0
 11
99.149292
 21
95.108177
 31
0.0
  0
LINE
  5
13BC
100
AcDbEntity
  8
0
  6
CONTINUOUS
 62
     0
100
AcDbLine
 10
98.320994
 20
94.504385
 30
0.0
 11
98.952867
 21
95.136258
 31
0.0
  0
LINE
  5
13BD
100
AcDbEntity
  8
0
  6
CONTINUOUS
 62
     0
100
AcDbLine
 10
98.2107
 20
94.618598
 30
0.0
 11
98.761467
 21
95.169365
 31
0.0
  0
LINE
  5
13BE
100
AcDbEntity
  8
0
  6
CONTINUOUS
 62
     0
100
AcDbLine
 10
98.100407
 20
94.732811
 30
0.0
 11
98.574794
 21
95.207198
 31
0.0
  0
LINE
  5
13BF
100
AcDbEntity
  8
0
  6
CONTINUOUS
 62
     0
100
AcDbLine
 10
97.990113
 20
94.847023
 30
0.0
 11
98.392587
 21
95.249497
 31
0.0
  0
LINE
  5
13C0
100
AcDbEntity
  8
0
  6
CONTINUOUS
 62
     0
100
AcDbLine
 10
97.879819
 20
94.961236
 30
0.0
 11
98.214619
 21
95.296036
 31
0.0
  0
LINE
  5
13C1
100
AcDbEntity
  8
0
  6
CONTINUOUS
 62
     0
100
AcDbLine
 10
97.769525
 20
95.075448
 30
0.0
 11
98.040691
 21
95.346614
 31
0.0
  0
LINE
  5
13C2
100
AcDbEntity
  8
0
  6
CONTINUOUS
 62
     0
100
AcDbLine
 10
97.659231
 20
95.189661
 30
0.0
 11
97.870627
 21
95.401056
 31
0.0
  0
LINE
  5
13C3
100
AcDbEntity
  8
0
  6
CONTINUOUS
 62
     0
100
AcDbLine
 10
97.548938
 20
95.303873
 30
0.0
 11
97.70427
 21
95.459206
 31
0.0
  0
LINE
  5
13C4
100
AcDbEntity
  8
0
  6
CONTINUOUS
 62
     0
100
AcDbLine
 10
97.438644
 20
95.418086
 30
0.0
 11
97.541482
 21
95.520925
 31
0.0
  0
LINE
  5
13C5
100
AcDbEntity
  8
0
  6
CONTINUOUS
 62
     0
100
AcDbLine
 10
97.32835
 20
95.532299
 30
0.0
 11
97.382141
 21
95.58609
 31
0.0
  0
LINE
  5
13C6
100
AcDbEntity
  8
0
  6
CONTINUOUS
 62
     0
100
AcDbLine
 10
97.218056
 20
95.646511
 30
0.0
 11
97.226136
 21
95.654591
 31
0.0
  0
LINE
  5
13C7
100
AcDbEntity
  8
0
  6
CONTINUOUS
 62
     0
100
AcDbLine
 10
99.203345
 20
93.590685
 30
0.0
 11
100.703681
 21
95.09102
 31
0.0
  0
LINE
  5
13C8
100
AcDbEntity
  8
0
  6
CONTINUOUS
 62
     0
100
AcDbLine
 10
99.313639
 20
93.476472
 30
0.0
 11
100.960276
 21
95.123109
 31
0.0
  0
LINE
  5
13C9
100
AcDbEntity
  8
0
  6
CONTINUOUS
 62
     0
100
AcDbLine
 10
99.423932
 20
93.362259
 30
0.0
 11
101.229311
 21
95.167638
 31
0.0
  0
LINE
  5
13CA
100
AcDbEntity
  8
0
  6
CONTINUOUS
 62
     0
100
AcDbLine
 10
99.534226
 20
93.248047
 30
0.0
 11
101.513117
 21
95.226938
 31
0.0
  0
ENDBLK
  5
13CB
100
AcDbEntity
  8
0
100
AcDbBlockEnd
  0
ENDSEC
  0
SECTION
  2
ENTITIES
  0
LINE
  5
7B
100
AcDbEntity
  8
OGGETTO
  6
CONTINUOUS
 48
2.0
100
AcDbLine
 10
80.0
 20
190.03
 30
0.0
 11
80.0
 21
173.0
 31
0.0
  0
LINE
  5
7C
100
AcDbEntity
  8
OGGETTO
  6
CONTINUOUS
 48
2.0
100
AcDbLine
 10
80.0
 20
173.0
 30
0.0
 11
83.5
 21
173.0
 31
0.0
  0
LINE
  5
7D
100
AcDbEntity
  8
OGGETTO
  6
CONTINUOUS
 48
2.0
100
AcDbLine
 10
83.5
 20
173.0
 30
0.0
 11
83.5
 21
164.6
 31
0.0
  0
LINE
  5
7E
100
AcDbEntity
  8
OGGETTO
  6
CONTINUOUS
 48
2.0
100
AcDbLine
 10
83.5
 20
164.6
 30
0.0
 11
80.0
 21
164.6
 31
0.0
  0
LINE
  5
81
100
AcDbEntity
  8
OGGETTO
  6
CONTINUOUS
 48
2.0
100
AcDbLine
 10
93.0
 20
190.03
 30
0.0
 11
93.0
 21
160.03
 31
0.0
  0
LINE
  5
C02
100
AcDbEntity
  8
OGGETTO
  6
CONTINUOUS
100
AcDbLine
 10
80.0
 20
164.6
 30
0.0
 11
80.0
 21
160.0
 31
0.0
  0
MTEXT
  5
F7E
100
AcDbEntity
  8
TESTO
  6
CONTINUOUS
100
AcDbMText
 10
138.285367
 20
36.885825
 30
0.0
 40
2.6
 41
0.0
 71
     7
 72
     1
  1

  0
MTEXT
  5
1095
100
AcDbEntity
  8
TESTO
  6
CONTINUOUS
100
AcDbMText
 10
126.076483
 20
23.185707
 30
0.0
 40
2.6
 41
0.0
 71
     7
 72
     1
  1

  0
LINE
  5
11EE
100
AcDbEntity
  8
OGGETTO
  6
CONTINUOUS
100
AcDbLine
 10
99.568396
 20
93.212663
 30
0.0
 11
97.204911
 21
95.660124
 31
0.0
1001
ACAD
1000
ASC_BOUNDS
1002
{
1070
    19
1002
}
  0
ARC
  5
11EF
100
AcDbEntity
  8
OGGETTO
  6
CONTINUOUS
100
AcDbCircle
 10
100.0
 20
93.629458
 30
0.0
 40
0.6
100
AcDbArc
 50
224.0
 51
314.0
  0
LINE
  5
1206
100
AcDbEntity
  8
OGGETTO
  6
CONTINUOUS
100
AcDbLine
 10
106.0
 20
160.03
 30
0.0
 11
106.0
 21
137.611254
 31
0.0
  0
LINE
  5
121C
100
AcDbEntity
  8
OGGETTO
  6
CONTINUOUS
100
AcDbLine
 10
97.204911
 20
95.660124
 30
0.0
 11
97.217251
 21
96.367123
 31
0.0
  0
LINE
  5
121E
100
AcDbEntity
  8
OGGETTO
  6
CONTINUOUS
100
AcDbLine
 10
80.0
 20
160.0
 30
0.0
 11
80.0
 21
114.196109
 31
0.0
  0
ARC
  5
1226
100
AcDbEntity
  8
OGGETTO
  6
CONTINUOUS
100
AcDbCircle
 10
125.75
 20
115.029458
 30
0.0
 40
30.0
100
AcDbArc
 50
131.172887
 51
220.15011
  0
LINE
  5
1234
100
AcDbEntity
  8
OGGETTO
  6
CONTINUOUS
 48
2.0
100
AcDbLine
 10
93.0
 20
190.03
 30
0.0
 11
80.0
 21
190.03
 31
0.0
  0
LINE
  5
1235
100
AcDbEntity
  8
OGGETTO
  6
CONTINUOUS
 48
2.0
100
AcDbLine
 10
106.0
 20
160.03
 30
0.0
 11
93.0
 21
160.03
 31
0.0
  0
LINE
  5
1310
100
AcDbEntity
  8
OGGETTO
  6
CONTINUOUS
100
AcDbLine
 10
100.416795
 20
93.197854
 30
0.0
 11
102.819267
 21
95.685687
 31
0.0
1001
ACAD
1000
ASC_BOUNDS
1002
{
1070
    19
1002
}
  0
LINE
  5
1315
100
AcDbEntity
  8
OGGETTO
  6
CONTINUOUS
100
AcDbLine
 10
97.217251
 20
96.367123
 30
0.0
 11
80.0
 21
114.196109
 31
0.0
  0
VIEWPORT
  5
22
100
AcDbEntity
 67
     1
  8
0
100
AcDbViewport
 10
261.517699
 20
154.724298
 30
0.0
 40
523.035398
 41
309.448596
 68
    -1
 69
     1
1001
ACAD
1000
MVIEW
1002
{
1070
    16
1010
0.0
1020
0.0
1030
0.0
1010
0.0
1020
0.0
1030
1.0
1040
0.0
1040
309.448596
1040
261.517699
1040
154.724298
1040
50.0
1040
0.0
1040
0.0
1070
     0
1070
   100
1070
     1
1070
     0
1070
     0
1070
     0
1070
     0
1070
     0
1040
0.0
1040
0.0
1040
0.0
1040
1.0
1040
1.0
1040
10.0
1040
10.0
1070
     0
1002
{
1002
}
1002
}
  0
ENDSEC
  0
SECTION
  2
OBJECTS
  0
DICTIONARY
  5
C
100
AcDbDictionary
  3
ACAD_GROUP
350
D
  3
ACAD_MLINESTYLE
350
E
  0
DICTIONARY
  5
D
102
{ACAD_REACTORS
330
C
102
}
100
AcDbDictionary
  0
DICTIONARY
  5
E
102
{ACAD_REACTORS
330
C
102
}
100
AcDbDictionary
  3
STANDARD
350
13
  0
MLINESTYLE
  5
13
102
{ACAD_REACTORS
330
E
102
}
100
AcDbMlineStyle
  2
STANDARD
 70
     0
  3

 62
     0
 51
90.0
 52
90.0
 71
     2
 49
0.5
 62
   256
  6
BYLAYER
 49
-0.5
 62
   256
  6
BYLAYER
  0
ENDSEC
  0
EOF
