  0
SECTION
  2
HEADER
  9
$ACADVER
  1
AC1012
  9
$DWGCODEPAGE
  3
iso8859-1
  9
$INSBASE
 10
0.0
 20
0.0
 30
0.0
  9
$EXTMIN
 10
22.549528
 20
70.589959
 30
0.0
  9
$EXTMAX
 10
182.841997
 20
156.812912
 30
0.0
  9
$LIMMIN
 10
0.0
 20
0.0
  9
$LIMMAX
 10
200.0
 20
250.0
  9
$ORTHOMODE
 70
     0
  9
$REGENMODE
 70
     1
  9
$FILLMODE
 70
     1
  9
$QTEXTMODE
 70
     0
  9
$MIRRTEXT
 70
     1
  9
$DRAGMODE
 70
     2
  9
$LTSCALE
 40
0.841751
  9
$OSMODE
 70
     0
  9
$ATTMODE
 70
     1
  9
$TEXTSIZE
 40
5.0
  9
$TRACEWID
 40
1.0
  9
$TEXTSTYLE
  7
ARIAL
  9
$CLAYER
  8
OGGETTO
  9
$CELTYPE
  6
CONTINUOUS
  9
$CECOLOR
 62
   256
  9
$CELTSCALE
 40
1.0
  9
$DELOBJ
 70
     1
  9
$DISPSILH
 70
     0
  9
$DIMSCALE
 40
1.0
  9
$DIMASZ
 40
2.6
  9
$DIMEXO
 40
0.53
  9
$DIMDLI
 40
3.16
  9
$DIMRND
 40
0.0
  9
$DIMDLE
 40
0.0
  9
$DIMEXE
 40
1.05
  9
$DIMTP
 40
0.2
  9
$DIMTM
 40
0.0
  9
$DIMTXT
 40
5.0
  9
$DIMCEN
 40
2.1
  9
$DIMTSZ
 40
0.0
  9
$DIMTOL
 70
     0
  9
$DIMLIM
 70
     0
  9
$DIMTIH
 70
     0
  9
$DIMTOH
 70
     0
  9
$DIMSE1
 70
     0
  9
$DIMSE2
 70
     0
  9
$DIMTAD
 70
     1
  9
$DIMZIN
 70
     8
  9
$DIMBLK
  1

  9
$DIMASO
 70
     1
  9
$DIMSHO
 70
     1
  9
$DIMPOST
  1

  9
$DIMAPOST
  1

  9
$DIMALT
 70
     0
  9
$DIMALTD
 70
     2
  9
$DIMALTF
 40
0.0394
  9
$DIMLFAC
 40
1.0
  9
$DIMTOFL
 70
     1
  9
$DIMTVP
 40
1.0
  9
$DIMTIX
 70
     0
  9
$DIMSOXD
 70
     0
  9
$DIMSAH
 70
     0
  9
$DIMBLK1
  1

  9
$DIMBLK2
  1

  9
$DIMSTYLE
  2
ISO-25
  9
$DIMCLRD
 70
     0
  9
$DIMCLRE
 70
     0
  9
$DIMCLRT
 70
     0
  9
$DIMTFAC
 40
1.0
  9
$DIMGAP
 40
0.53
  9
$DIMJUST
 70
     0
  9
$DIMSD1
 70
     0
  9
$DIMSD2
 70
     0
  9
$DIMTOLJ
 70
     1
  9
$DIMTZIN
 70
     0
  9
$DIMALTZ
 70
     0
  9
$DIMALTTZ
 70
     0
  9
$DIMFIT
 70
     3
  9
$DIMUPT
 70
     0
  9
$DIMUNIT
 70
     2
  9
$DIMDEC
 70
     2
  9
$DIMTDEC
 70
     2
  9
$DIMALTU
 70
     2
  9
$DIMALTTD
 70
     2
  9
$DIMTXSTY
  7
STANDARD
  9
$DIMAUNIT
 70
     0
  9
$LUNITS
 70
     2
  9
$LUPREC
 70
     2
  9
$SKETCHINC
 40
1.0
  9
$FILLETRAD
 40
2.0
  9
$AUNITS
 70
     0
  9
$AUPREC
 70
     2
  9
$MENU
  1
.
  9
$ELEVATION
 40
0.0
  9
$PELEVATION
 40
0.0
  9
$THICKNESS
 40
0.0
  9
$LIMCHECK
 70
     0
  9
$BLIPMODE
 70
     1
  9
$CHAMFERA
 40
0.3
  9
$CHAMFERB
 40
0.3
  9
$CHAMFERC
 40
16.835017
  9
$CHAMFERD
 40
0.0
  9
$SKPOLY
 70
     0
  9
$TDCREATE
 40
2450962.329882870
  9
$TDUPDATE
 40
2451774.604211574
  9
$TDINDWG
 40
0.9445840278
  9
$TDUSRTIMER
 40
0.9445840278
  9
$USRTIMER
 70
     1
  9
$ANGBASE
 50
0.0
  9
$ANGDIR
 70
     0
  9
$PDMODE
 70
     0
  9
$PDSIZE
 40
0.0
  9
$PLINEWID
 40
0.0
  9
$COORDS
 70
     0
  9
$SPLFRAME
 70
     0
  9
$SPLINETYPE
 70
     6
  9
$SPLINESEGS
 70
     8
  9
$ATTDIA
 70
     0
  9
$ATTREQ
 70
     1
  9
$HANDLING
 70
     1
  9
$HANDSEED
  5
49FD
  9
$SURFTAB1
 70
     6
  9
$SURFTAB2
 70
     6
  9
$SURFTYPE
 70
     6
  9
$SURFU
 70
     6
  9
$SURFV
 70
     6
  9
$UCSNAME
  2

  9
$UCSORG
 10
0.0
 20
0.0
 30
0.0
  9
$UCSXDIR
 10
1.0
 20
0.0
 30
0.0
  9
$UCSYDIR
 10
0.0
 20
1.0
 30
0.0
  9
$PUCSNAME
  2

  9
$PUCSORG
 10
0.0
 20
0.0
 30
0.0
  9
$PUCSXDIR
 10
1.0
 20
0.0
 30
0.0
  9
$PUCSYDIR
 10
0.0
 20
1.0
 30
0.0
  9
$USERI1
 70
     0
  9
$USERI2
 70
     0
  9
$USERI3
 70
     0
  9
$USERI4
 70
     0
  9
$USERI5
 70
     0
  9
$USERR1
 40
0.0
  9
$USERR2
 40
0.0
  9
$USERR3
 40
0.0
  9
$USERR4
 40
0.0
  9
$USERR5
 40
0.0
  9
$WORLDVIEW
 70
     1
  9
$SHADEDGE
 70
     3
  9
$SHADEDIF
 70
    70
  9
$TILEMODE
 70
     1
  9
$MAXACTVP
 70
    16
  9
$PINSBASE
 10
0.0
 20
0.0
 30
0.0
  9
$PLIMCHECK
 70
     0
  9
$PEXTMIN
 10
1.000000E+20
 20
1.000000E+20
 30
1.000000E+20
  9
$PEXTMAX
 10
-1.000000E+20
 20
-1.000000E+20
 30
-1.000000E+20
  9
$PLIMMIN
 10
0.0
 20
0.0
  9
$PLIMMAX
 10
420.0
 20
297.0
  9
$UNITMODE
 70
     0
  9
$VISRETAIN
 70
     0
  9
$PLINEGEN
 70
     0
  9
$PSLTSCALE
 70
     1
  9
$TREEDEPTH
 70
  3020
  9
$PICKSTYLE
 70
     1
  9
$CMLSTYLE
  2
STANDARD
  9
$CMLJUST
 70
     0
  9
$CMLSCALE
 40
1.0
  9
$SAVEIMAGES
 70
     0
  0
ENDSEC
  0
SECTION
  2
CLASSES
  0
ENDSEC
  0
SECTION
  2
TABLES
  0
TABLE
  2
VPORT
  5
8
100
AcDbSymbolTable
 70
     2
  0
VPORT
  5
49FC
100
AcDbSymbolTableRecord
100
AcDbViewportTableRecord
  2
*ACTIVE
 70
     0
 10
0.0
 20
0.0
 11
1.0
 21
1.0
 12
68.277634
 22
122.743156
 13
0.0
 23
0.0
 14
5.0
 24
5.0
 15
5.0
 25
5.0
 16
0.0
 26
0.0
 36
1.0
 17
0.0
 27
0.0
 37
0.0
 40
101.323586
 41
1.8523
 42
50.0
 43
0.0
 44
0.0
 50
0.0
 51
0.0
 71
     0
 72
   100
 73
     1
 74
     0
 75
     0
 76
     0
 77
     0
 78
     2
  0
ENDTAB
  0
TABLE
  2
LTYPE
  5
5
100
AcDbSymbolTable
 70
     4
  0
LTYPE
  5
14
100
AcDbSymbolTableRecord
100
AcDbLinetypeTableRecord
  2
BYBLOCK
 70
     0
  3

 72
    65
 73
     0
 40
0.0
  0
LTYPE
  5
15
100
AcDbSymbolTableRecord
100
AcDbLinetypeTableRecord
  2
BYLAYER
 70
     0
  3

 72
    65
 73
     0
 40
0.0
  0
LTYPE
  5
16
100
AcDbSymbolTableRecord
100
AcDbLinetypeTableRecord
  2
CONTINUOUS
 70
    64
  3
Solid line
 72
    65
 73
     0
 40
0.0
  0
LTYPE
  5
62
100
AcDbSymbolTableRecord
100
AcDbLinetypeTableRecord
  2
LINEA-LINEETTEX2
 70
    64
  3
____________    ____    ____    ____________   
 72
    65
 73
     6
 40
5.0
 49
2.5
 74
     0
 49
-0.5
 74
     0
 49
0.5
 74
     0
 49
-0.5
 74
     0
 49
0.5
 74
     0
 49
-0.5
 74
     0
  0
LTYPE
  5
63
100
AcDbSymbolTableRecord
100
AcDbLinetypeTableRecord
  2
TRATTEGGIATA
 70
    64
  3
__ __ __ __ __ __ __ __ __ __ __ __ __ __ __ __
 72
    65
 73
     2
 40
0.75
 49
0.5
 74
     0
 49
-0.25
 74
     0
  0
LTYPE
  5
1428
100
AcDbSymbolTableRecord
100
AcDbLinetypeTableRecord
  2
TRATTO-PUNTO
 70
    64
  3
__ . __ . __ . __ . __ . __ . __ . __ . __ . __
 72
    65
 73
     4
 40
1.0
 49
0.5
 74
     0
 49
-0.25
 74
     0
 49
0.0
 74
     0
 49
-0.25
 74
     0
  0
ENDTAB
  0
TABLE
  2
LAYER
  5
2
100
AcDbSymbolTable
 70
     9
  0
LAYER
  5
F
100
AcDbSymbolTableRecord
100
AcDbLayerTableRecord
  2
0
 70
     0
 62
     7
  6
CONTINUOUS
  0
LAYER
  5
64
100
AcDbSymbolTableRecord
100
AcDbLayerTableRecord
  2
OGGETTO
 70
    64
 62
   250
  6
CONTINUOUS
  0
LAYER
  5
65
100
AcDbSymbolTableRecord
100
AcDbLayerTableRecord
  2
QUOTE
 70
    64
 62
     1
  6
CONTINUOUS
  0
LAYER
  5
66
100
AcDbSymbolTableRecord
100
AcDbLayerTableRecord
  2
CENTRO
 70
    64
 62
     3
  6
TRATTO-PUNTO
  0
LAYER
  5
67
100
AcDbSymbolTableRecord
100
AcDbLayerTableRecord
  2
NASCOSTA
 70
    64
 62
     5
  6
TRATTEGGIATA
  0
LAYER
  5
68
100
AcDbSymbolTableRecord
100
AcDbLayerTableRecord
  2
SEZIONE
 70
    64
 62
     8
  6
CONTINUOUS
  0
LAYER
  5
94
100
AcDbSymbolTableRecord
100
AcDbLayerTableRecord
  2
DEFPOINTS
 70
    64
 62
     7
  6
CONTINUOUS
  0
LAYER
  5
F74
100
AcDbSymbolTableRecord
100
AcDbLayerTableRecord
  2
TESTO
 70
    64
 62
     6
  6
CONTINUOUS
  0
LAYER
  5
48D9
100
AcDbSymbolTableRecord
100
AcDbLayerTableRecord
  2
MARCHIO
 70
    64
 62
   251
  6
CONTINUOUS
  0
ENDTAB
  0
TABLE
  2
STYLE
  5
3
100
AcDbSymbolTable
 70
     5
  0
STYLE
  5
10
100
AcDbSymbolTableRecord
100
AcDbTextStyleTableRecord
  2
STANDARD
 70
    64
 40
5.0
 41
1.0
 50
0.0
 71
     0
 42
5.0
  3
C:\Programmi\AutoCAD LT\isocp.shx
  4

  0
STYLE
  5
6A
100
AcDbSymbolTableRecord
100
AcDbTextStyleTableRecord
  2

 70
    65
 40
0.0
 41
1.0
 50
0.0
 71
     0
 42
2.104377
  3
ltypeshp.shx
  4

  0
STYLE
  5
176C
100
AcDbSymbolTableRecord
100
AcDbTextStyleTableRecord
  2
QUOTE
 70
    64
 40
0.0
 41
1.0
 50
0.0
 71
     0
 42
3.5
  3
C:\Programmi\AutoCAD LT\monosbi.ttf
  4

  0
STYLE
  5
259D
100
AcDbSymbolTableRecord
100
AcDbTextStyleTableRecord
  2
TABELLA
 70
    64
 40
5.0
 41
1.0
 50
0.0
 71
     0
 42
5.0
  3
C:\WINDOWS\FONTS\Arial.ttf
  4

  0
STYLE
  5
2B39
100
AcDbSymbolTableRecord
100
AcDbTextStyleTableRecord
  2
ARIAL
 70
    64
 40
5.0
 41
1.0
 50
0.0
 71
     0
 42
5.0
  3
C:\WINDOWS\FONTS\Arial.ttf
  4

  0
ENDTAB
  0
TABLE
  2
VIEW
  5
6
100
AcDbSymbolTable
 70
     0
  0
ENDTAB
  0
TABLE
  2
UCS
  5
7
100
AcDbSymbolTable
 70
     0
  0
ENDTAB
  0
TABLE
  2
APPID
  5
9
100
AcDbSymbolTable
 70
     1
  0
APPID
  5
11
100
AcDbSymbolTableRecord
100
AcDbRegAppTableRecord
  2
ACAD
 70
     0
  0
ENDTAB
  0
TABLE
  2
DIMSTYLE
  5
A
100
AcDbSymbolTable
 70
    10
  0
DIMSTYLE
105
1D
100
AcDbSymbolTableRecord
100
AcDbDimStyleTableRecord
  2
STANDARD
 70
     0
  3

  4

  5

  6

  7

 40
1.0
 41
0.18
 42
0.0625
 43
0.38
 44
0.18
 45
0.0
 46
0.0
 47
0.0
 48
0.0
140
0.18
141
0.09
142
0.0
143
25.4
144
1.0
145
0.0
146
1.0
147
0.09
 71
     0
 72
     0
 73
     1
 74
     1
 75
     0
 76
     0
 77
     0
 78
     0
170
     0
171
     2
172
     0
173
     0
174
     0
175
     0
176
     0
177
     0
178
     0
270
     2
271
     4
272
     4
273
     2
274
     2
340
10
275
     0
280
     0
281
     0
282
     0
283
     1
284
     0
285
     0
286
     0
287
     3
288
     0
  0
DIMSTYLE
105
24
100
AcDbSymbolTableRecord
100
AcDbDimStyleTableRecord
  2
ISO-25
 70
     0
  3

  4

  5

  6

  7

 40
1.0
 41
2.5
 42
0.625
 43
3.75
 44
1.25
 45
0.0
 46
0.0
 47
0.0
 48
0.0
140
2.5
141
2.5
142
0.0
143
0.0394
144
1.0
145
1.0
146
1.0
147
0.625
 71
     0
 72
     0
 73
     1
 74
     0
 75
     0
 76
     0
 77
     1
 78
     8
170
     0
171
     2
172
     1
173
     0
174
     0
175
     0
176
     0
177
     0
178
     0
270
     2
271
     4
272
     4
273
     2
274
     2
340
10
275
     0
280
     0
281
     0
282
     0
283
     1
284
     0
285
     0
286
     0
287
     3
288
     0
  0
DIMSTYLE
105
25
100
AcDbSymbolTableRecord
100
AcDbDimStyleTableRecord
  2
ISO-35
 70
     0
  3

  4

  5

  6

  7

 40
1.0
 41
3.5
 42
0.875
 43
5.25
 44
1.75
 45
0.0
 46
0.0
 47
0.0
 48
0.0
140
3.5
141
3.5
142
0.0
143
0.0394
144
1.0
145
1.4
146
1.0
147
0.875
 71
     0
 72
     0
 73
     1
 74
     0
 75
     0
 76
     0
 77
     1
 78
     8
170
     0
171
     2
172
     1
173
     0
174
     0
175
     0
176
     0
177
     0
178
     0
270
     2
271
     4
272
     4
273
     2
274
     2
340
10
275
     0
280
     0
281
     0
282
     0
283
     1
284
     0
285
     0
286
     0
287
     3
288
     0
  0
DIMSTYLE
105
26
100
AcDbSymbolTableRecord
100
AcDbDimStyleTableRecord
  2
ISO-5
 70
     0
  3

  4

  5

  6

  7

 40
1.0
 41
5.0
 42
1.25
 43
7.5
 44
2.5
 45
0.0
 46
0.0
 47
0.0
 48
0.0
140
5.0
141
5.0
142
0.0
143
0.0394
144
1.0
145
2.0
146
1.0
147
1.25
 71
     0
 72
     0
 73
     1
 74
     0
 75
     0
 76
     0
 77
     1
 78
     8
170
     0
171
     2
172
     1
173
     0
174
     0
175
     0
176
     0
177
     0
178
     0
270
     2
271
     4
272
     4
273
     2
274
     2
340
10
275
     0
280
     0
281
     0
282
     0
283
     1
284
     0
285
     0
286
     0
287
     3
288
     0
  0
DIMSTYLE
105
27
100
AcDbSymbolTableRecord
100
AcDbDimStyleTableRecord
  2
ISO-7
 70
     0
  3

  4

  5

  6

  7

 40
1.0
 41
7.0
 42
1.75
 43
10.5
 44
3.5
 45
0.0
 46
0.0
 47
0.0
 48
0.0
140
7.0
141
7.0
142
0.0
143
0.0394
144
1.0
145
2.8
146
1.0
147
1.75
 71
     0
 72
     0
 73
     1
 74
     0
 75
     0
 76
     0
 77
     1
 78
     8
170
     0
171
     2
172
     1
173
     0
174
     0
175
     0
176
     0
177
     0
178
     0
270
     2
271
     4
272
     4
273
     2
274
     2
340
10
275
     0
280
     0
281
     0
282
     0
283
     1
284
     0
285
     0
286
     0
287
     3
288
     0
  0
DIMSTYLE
105
28
100
AcDbSymbolTableRecord
100
AcDbDimStyleTableRecord
  2
ISO1
 70
     0
  3

  4

  5

  6

  7

 40
1.0
 41
10.0
 42
2.5
 43
15.0
 44
5.0
 45
0.0
 46
0.0
 47
0.0
 48
0.0
140
10.0
141
10.0
142
0.0
143
0.0394
144
1.0
145
4.0
146
1.0
147
2.5
 71
     0
 72
     0
 73
     1
 74
     0
 75
     0
 76
     0
 77
     1
 78
     8
170
     0
171
     2
172
     1
173
     0
174
     0
175
     0
176
     0
177
     0
178
     0
270
     2
271
     4
272
     4
273
     2
274
     2
340
10
275
     0
280
     0
281
     0
282
     0
283
     1
284
     0
285
     0
286
     0
287
     3
288
     0
  0
DIMSTYLE
105
29
100
AcDbSymbolTableRecord
100
AcDbDimStyleTableRecord
  2
ISO1-4
 70
     0
  3

  4

  5

  6

  7

 40
1.0
 41
14.0
 42
3.5
 43
21.0
 44
7.0
 45
0.0
 46
0.0
 47
0.0
 48
0.0
140
14.0
141
14.0
142
0.0
143
0.0394
144
1.0
145
5.6
146
1.0
147
3.5
 71
     0
 72
     0
 73
     1
 74
     0
 75
     0
 76
     0
 77
     1
 78
     8
170
     0
171
     2
172
     1
173
     0
174
     0
175
     0
176
     0
177
     0
178
     0
270
     2
271
     4
272
     4
273
     2
274
     2
340
10
275
     0
280
     0
281
     0
282
     0
283
     1
284
     0
285
     0
286
     0
287
     3
288
     0
  0
DIMSTYLE
105
2A
100
AcDbSymbolTableRecord
100
AcDbDimStyleTableRecord
  2
ISO2
 70
     0
  3

  4

  5

  6

  7

 40
1.0
 41
20.0
 42
5.0
 43
30.0
 44
10.0
 45
0.0
 46
0.0
 47
0.0
 48
0.0
140
20.0
141
20.0
142
0.0
143
0.0394
144
1.0
145
8.0
146
1.0
147
5.0
 71
     0
 72
     0
 73
     1
 74
     0
 75
     0
 76
     0
 77
     1
 78
     8
170
     0
171
     2
172
     1
173
     0
174
     0
175
     0
176
     0
177
     0
178
     0
270
     2
271
     4
272
     4
273
     2
274
     2
340
10
275
     0
280
     0
281
     0
282
     0
283
     1
284
     0
285
     0
286
     0
287
     3
288
     0
  0
DIMSTYLE
105
176D
100
AcDbSymbolTableRecord
100
AcDbDimStyleTableRecord
  2
TOLL-01-03
 70
     0
  3
 <>
  4
inch[]
  5

  6

  7

 40
1.0
 41
5.0
 42
2.0
 43
3.75
 44
1.25
 45
0.0
 46
0.0
 47
0.01
 48
0.03
140
5.0
141
-5.0
142
0.0
143
0.03937
144
1.0
145
0.0
146
0.5
147
2.0
 71
     1
 72
     0
 73
     0
 74
     0
 75
     0
 76
     0
 77
     3
 78
     8
170
     0
171
     2
172
     0
173
     0
174
     0
175
     0
176
     0
177
     0
178
     0
270
     2
271
     3
272
     2
273
     2
274
     2
340
176C
275
     0
280
     0
281
     0
282
     0
283
     2
284
     8
285
     8
286
     0
287
     5
288
     0
  0
DIMSTYLE
105
29D2
100
AcDbSymbolTableRecord
100
AcDbDimStyleTableRecord
  2
ISO-25$2
 70
     0
  3

  4

  5

  6

  7

 40
1.0
 41
2.6
 42
0.53
 43
3.16
 44
1.05
 45
0.0
 46
0.0
 47
0.2
 48
0.0
140
2.6
141
2.1
142
0.0
143
0.0394
144
1.0
145
1.0
146
1.0
147
0.53
 71
     0
 72
     0
 73
     0
 74
     0
 75
     0
 76
     0
 77
     1
 78
     8
170
     0
171
     2
172
     1
173
     0
174
     0
175
     0
176
     0
177
     0
178
     0
270
     2
271
     2
272
     2
273
     2
274
     2
340
10
275
     0
280
     0
281
     0
282
     0
283
     1
284
     0
285
     0
286
     0
287
     3
288
     0
  0
ENDTAB
  0
TABLE
  2
BLOCK_RECORD
  5
1
100
AcDbSymbolTable
 70
    18
  0
BLOCK_RECORD
  5
1A
100
AcDbSymbolTableRecord
100
AcDbBlockTableRecord
  2
*MODEL_SPACE
  0
BLOCK_RECORD
  5
17
100
AcDbSymbolTableRecord
100
AcDbBlockTableRecord
  2
*PAPER_SPACE
  0
BLOCK_RECORD
  5
176E
100
AcDbSymbolTableRecord
100
AcDbBlockTableRecord
  2
TABELLA
  0
BLOCK_RECORD
  5
2B50
100
AcDbSymbolTableRecord
100
AcDbBlockTableRecord
  2
*X1
  0
BLOCK_RECORD
  5
2CC6
100
AcDbSymbolTableRecord
100
AcDbBlockTableRecord
  2
*X2
  0
BLOCK_RECORD
  5
2D41
100
AcDbSymbolTableRecord
100
AcDbBlockTableRecord
  2
*X3
  0
BLOCK_RECORD
  5
2E98
100
AcDbSymbolTableRecord
100
AcDbBlockTableRecord
  2
*X4
  0
BLOCK_RECORD
  5
2F27
100
AcDbSymbolTableRecord
100
AcDbBlockTableRecord
  2
A$CF260
  0
BLOCK_RECORD
  5
4767
100
AcDbSymbolTableRecord
100
AcDbBlockTableRecord
  2
A$C81A2
  0
BLOCK_RECORD
  5
47A1
100
AcDbSymbolTableRecord
100
AcDbBlockTableRecord
  2
*D7
  0
BLOCK_RECORD
  5
47AE
100
AcDbSymbolTableRecord
100
AcDbBlockTableRecord
  2
*D8
  0
BLOCK_RECORD
  5
47BF
100
AcDbSymbolTableRecord
100
AcDbBlockTableRecord
  2
*D9
  0
BLOCK_RECORD
  5
47D0
100
AcDbSymbolTableRecord
100
AcDbBlockTableRecord
  2
*D10
  0
BLOCK_RECORD
  5
481D
100
AcDbSymbolTableRecord
100
AcDbBlockTableRecord
  2
*D11
  0
BLOCK_RECORD
  5
4851
100
AcDbSymbolTableRecord
100
AcDbBlockTableRecord
  2
*D12
  0
BLOCK_RECORD
  5
485E
100
AcDbSymbolTableRecord
100
AcDbBlockTableRecord
  2
*D13
  0
BLOCK_RECORD
  5
486C
100
AcDbSymbolTableRecord
100
AcDbBlockTableRecord
  2
*D14
  0
BLOCK_RECORD
  5
4879
100
AcDbSymbolTableRecord
100
AcDbBlockTableRecord
  2
*D15
  0
BLOCK_RECORD
  5
48DA
100
AcDbSymbolTableRecord
100
AcDbBlockTableRecord
  2
A$CA3A4
  0
BLOCK_RECORD
  5
4931
100
AcDbSymbolTableRecord
100
AcDbBlockTableRecord
  2
*X17
  0
ENDTAB
  0
ENDSEC
  0
SECTION
  2
BLOCKS
  0
BLOCK
  5
1B
100
AcDbEntity
  8
0
100
AcDbBlockBegin
  2
*MODEL_SPACE
 70
     0
 10
0.0
 20
0.0
 30
0.0
  3
*MODEL_SPACE
  1

  0
ENDBLK
  5
1C
100
AcDbEntity
  8
0
100
AcDbBlockEnd
  0
BLOCK
  5
18
100
AcDbEntity
 67
     1
  8
0
100
AcDbBlockBegin
  2
*PAPER_SPACE
 70
     0
 10
0.0
 20
0.0
 30
0.0
  3
*PAPER_SPACE
  1

  0
ENDBLK
  5
19
100
AcDbEntity
 67
     1
  8
0
100
AcDbBlockEnd
  0
BLOCK
  5
1776
100
AcDbEntity
  8
SEZIONE
  6
CONTINUOUS
100
AcDbBlockBegin
  2
TABELLA
 70
     2
 10
0.0
 20
0.0
 30
0.0
  3
TABELLA
  1

  0
ATTDEF
  5
176F
100
AcDbEntity
  8
QUOTE
100
AcDbText
 10
-33.649491
 20
11.454845
 30
0.0
 40
3.5
  1

  7
QUOTE
100
AcDbAttributeDefinition
  3
revisione ?
  2
REVISIONE
 70
     0
  0
LINE
  5
1770
100
AcDbEntity
  8
QUOTE
100
AcDbLine
 10
-43.336415
 20
9.418407
 30
0.0
 11
0.0
 21
9.418407
 31
0.0
  0
LINE
  5
1771
100
AcDbEntity
  8
QUOTE
100
AcDbLine
 10
0.0
 20
0.0
 30
0.0
 11
-43.336415
 21
0.0
 31
0.0
  0
LINE
  5
1772
100
AcDbEntity
  8
QUOTE
100
AcDbLine
 10
-43.336415
 20
18.836814
 30
0.0
 11
0.0
 21
18.836814
 31
0.0
  0
LINE
  5
1773
100
AcDbEntity
  8
QUOTE
100
AcDbLine
 10
-43.336415
 20
0.0
 30
0.0
 11
-43.336415
 21
18.836814
 31
0.0
  0
ATTDEF
  5
1774
100
AcDbEntity
  8
QUOTE
100
AcDbText
 10
-30.845352
 20
2.545496
 30
0.0
 40
3.5
  1

  7
QUOTE
100
AcDbAttributeDefinition
  3
numero del codice ?
  2
CODICE
 70
     0
  0
LINE
  5
1775
100
AcDbEntity
  8
QUOTE
100
AcDbLine
 10
0.0
 20
18.836814
 30
0.0
 11
0.0
 21
0.0
 31
0.0
  0
ENDBLK
  5
1777
100
AcDbEntity
  8
SEZIONE
  6
CONTINUOUS
100
AcDbBlockEnd
  0
BLOCK
  5
2CC4
100
AcDbEntity
  8
0
100
AcDbBlockBegin
  2
*X1
 70
    65
 10
0.0
 20
0.0
 30
0.0
  3
*X1
  1

  0
LINE
  5
2B51
100
AcDbEntity
  8
0
  6
CONTINUOUS
 62
     0
100
AcDbLine
 10
53.865354
 20
173.976279
 30
0.0
 11
54.852862
 21
174.963787
 31
0.0
  0
LINE
  5
2B52
100
AcDbEntity
  8
0
  6
CONTINUOUS
 62
     0
100
AcDbLine
 10
64.381212
 20
184.492138
 30
0.0
 11
65.172771
 21
185.283697
 31
0.0
  0
LINE
  5
2B53
100
AcDbEntity
  8
0
  6
CONTINUOUS
 62
     0
100
AcDbLine
 10
53.748199
 20
174.083632
 30
0.0
 11
54.754855
 21
175.090287
 31
0.0
  0
LINE
  5
2B54
100
AcDbEntity
  8
0
  6
CONTINUOUS
 62
     0
100
AcDbLine
 10
64.266107
 20
184.601539
 30
0.0
 11
65.065419
 21
185.400851
 31
0.0
  0
LINE
  5
2B55
100
AcDbEntity
  8
0
  6
CONTINUOUS
 62
     0
100
AcDbLine
 10
53.631045
 20
174.190984
 30
0.0
 11
54.656849
 21
175.216787
 31
0.0
  0
LINE
  5
2B56
100
AcDbEntity
  8
0
  6
CONTINUOUS
 62
     0
100
AcDbLine
 10
64.151003
 20
184.710941
 30
0.0
 11
64.958067
 21
185.518005
 31
0.0
  0
LINE
  5
2B57
100
AcDbEntity
  8
0
  6
CONTINUOUS
 62
     0
100
AcDbLine
 10
53.513891
 20
174.298336
 30
0.0
 11
54.558842
 21
175.343287
 31
0.0
  0
LINE
  5
2B58
100
AcDbEntity
  8
0
  6
CONTINUOUS
 62
     0
100
AcDbLine
 10
64.035898
 20
184.820343
 30
0.0
 11
64.850715
 21
185.63516
 31
0.0
  0
LINE
  5
2B59
100
AcDbEntity
  8
0
  6
CONTINUOUS
 62
     0
100
AcDbLine
 10
53.396737
 20
174.405688
 30
0.0
 11
54.460835
 21
175.469787
 31
0.0
  0
LINE
  5
2B5A
100
AcDbEntity
  8
0
  6
CONTINUOUS
 62
     0
100
AcDbLine
 10
63.920794
 20
184.929745
 30
0.0
 11
64.743363
 21
185.752314
 31
0.0
  0
LINE
  5
2B5B
100
AcDbEntity
  8
0
  6
CONTINUOUS
 62
     0
100
AcDbLine
 10
53.279582
 20
174.51304
 30
0.0
 11
54.362829
 21
175.596287
 31
0.0
  0
LINE
  5
2B5C
100
AcDbEntity
  8
0
  6
CONTINUOUS
 62
     0
100
AcDbLine
 10
63.805689
 20
185.039147
 30
0.0
 11
64.63601
 21
185.869468
 31
0.0
  0
LINE
  5
2B5D
100
AcDbEntity
  8
0
  6
CONTINUOUS
 62
     0
100
AcDbLine
 10
53.162428
 20
174.620392
 30
0.0
 11
54.264822
 21
175.722786
 31
0.0
  0
LINE
  5
2B5E
100
AcDbEntity
  8
0
  6
CONTINUOUS
 62
     0
100
AcDbLine
 10
63.690584
 20
185.148549
 30
0.0
 11
64.528658
 21
185.986622
 31
0.0
  0
LINE
  5
2B5F
100
AcDbEntity
  8
0
  6
CONTINUOUS
 62
     0
100
AcDbLine
 10
53.045274
 20
174.727744
 30
0.0
 11
54.166816
 21
175.849286
 31
0.0
  0
LINE
  5
2B60
100
AcDbEntity
  8
0
  6
CONTINUOUS
 62
     0
100
AcDbLine
 10
63.57548
 20
185.25795
 30
0.0
 11
64.421306
 21
186.103777
 31
0.0
  0
LINE
  5
2B61
100
AcDbEntity
  8
0
  6
CONTINUOUS
 62
     0
100
AcDbLine
 10
52.92812
 20
174.835096
 30
0.0
 11
54.068809
 21
175.975786
 31
0.0
  0
LINE
  5
2B62
100
AcDbEntity
  8
0
  6
CONTINUOUS
 62
     0
100
AcDbLine
 10
63.460375
 20
185.367352
 30
0.0
 11
64.313954
 21
186.220931
 31
0.0
  0
LINE
  5
2B63
100
AcDbEntity
  8
0
  6
CONTINUOUS
 62
     0
100
AcDbLine
 10
52.810965
 20
174.942448
 30
0.0
 11
53.970803
 21
176.102286
 31
0.0
  0
LINE
  5
2B64
100
AcDbEntity
  8
0
  6
CONTINUOUS
 62
     0
100
AcDbLine
 10
63.345271
 20
185.476754
 30
0.0
 11
64.206602
 21
186.338085
 31
0.0
  0
LINE
  5
2B65
100
AcDbEntity
  8
0
  6
CONTINUOUS
 62
     0
100
AcDbLine
 10
52.693811
 20
175.049801
 30
0.0
 11
53.872796
 21
176.228786
 31
0.0
  0
LINE
  5
2B66
100
AcDbEntity
  8
0
  6
CONTINUOUS
 62
     0
100
AcDbLine
 10
63.230166
 20
185.586156
 30
0.0
 11
64.09925
 21
186.45524
 31
0.0
  0
LINE
  5
2B67
100
AcDbEntity
  8
0
  6
CONTINUOUS
 62
     0
100
AcDbLine
 10
52.576657
 20
175.157153
 30
0.0
 11
53.774789
 21
176.355285
 31
0.0
  0
LINE
  5
2B68
100
AcDbEntity
  8
0
  6
CONTINUOUS
 62
     0
100
AcDbLine
 10
63.115062
 20
185.695558
 30
0.0
 11
63.991898
 21
186.572394
 31
0.0
  0
LINE
  5
2B69
100
AcDbEntity
  8
0
  6
CONTINUOUS
 62
     0
100
AcDbLine
 10
52.459502
 20
175.264505
 30
0.0
 11
53.676783
 21
176.481785
 31
0.0
  0
LINE
  5
2B6A
100
AcDbEntity
  8
0
  6
CONTINUOUS
 62
     0
100
AcDbLine
 10
62.999957
 20
185.804959
 30
0.0
 11
63.884546
 21
186.689548
 31
0.0
  0
LINE
  5
2B6B
100
AcDbEntity
  8
0
  6
CONTINUOUS
 62
     0
100
AcDbLine
 10
52.342348
 20
175.371857
 30
0.0
 11
53.578776
 21
176.608285
 31
0.0
  0
LINE
  5
2B6C
100
AcDbEntity
  8
0
  6
CONTINUOUS
 62
     0
100
AcDbLine
 10
62.884852
 20
185.914361
 30
0.0
 11
63.777194
 21
186.806702
 31
0.0
  0
LINE
  5
2B6D
100
AcDbEntity
  8
0
  6
CONTINUOUS
 62
     0
100
AcDbLine
 10
52.225194
 20
175.479209
 30
0.0
 11
53.48077
 21
176.734785
 31
0.0
  0
LINE
  5
2B6E
100
AcDbEntity
  8
0
  6
CONTINUOUS
 62
     0
100
AcDbLine
 10
62.769748
 20
186.023763
 30
0.0
 11
63.669841
 21
186.923857
 31
0.0
  0
LINE
  5
2B6F
100
AcDbEntity
  8
0
  6
CONTINUOUS
 62
     0
100
AcDbLine
 10
52.10804
 20
175.586561
 30
0.0
 11
53.382763
 21
176.861285
 31
0.0
  0
LINE
  5
2B70
100
AcDbEntity
  8
0
  6
CONTINUOUS
 62
     0
100
AcDbLine
 10
62.654643
 20
186.133165
 30
0.0
 11
63.562489
 21
187.041011
 31
0.0
  0
LINE
  5
2B71
100
AcDbEntity
  8
0
  6
CONTINUOUS
 62
     0
100
AcDbLine
 10
51.990885
 20
175.693913
 30
0.0
 11
53.284756
 21
176.987784
 31
0.0
  0
LINE
  5
2B72
100
AcDbEntity
  8
0
  6
CONTINUOUS
 62
     0
100
AcDbLine
 10
62.539539
 20
186.242567
 30
0.0
 11
63.455137
 21
187.158165
 31
0.0
  0
LINE
  5
2B73
100
AcDbEntity
  8
0
  6
CONTINUOUS
 62
     0
100
AcDbLine
 10
51.873731
 20
175.801265
 30
0.0
 11
53.18675
 21
177.114284
 31
0.0
  0
LINE
  5
2B74
100
AcDbEntity
  8
0
  6
CONTINUOUS
 62
     0
100
AcDbLine
 10
62.424434
 20
186.351968
 30
0.0
 11
63.347785
 21
187.27532
 31
0.0
  0
LINE
  5
2B75
100
AcDbEntity
  8
0
  6
CONTINUOUS
 62
     0
100
AcDbLine
 10
51.756577
 20
175.908618
 30
0.0
 11
53.088743
 21
177.240784
 31
0.0
  0
LINE
  5
2B76
100
AcDbEntity
  8
0
  6
CONTINUOUS
 62
     0
100
AcDbLine
 10
62.309329
 20
186.46137
 30
0.0
 11
63.240433
 21
187.392474
 31
0.0
  0
LINE
  5
2B77
100
AcDbEntity
  8
0
  6
CONTINUOUS
 62
     0
100
AcDbLine
 10
51.639422
 20
176.01597
 30
0.0
 11
52.990737
 21
177.367284
 31
0.0
  0
LINE
  5
2B78
100
AcDbEntity
  8
0
  6
CONTINUOUS
 62
     0
100
AcDbLine
 10
62.194225
 20
186.570772
 30
0.0
 11
63.133081
 21
187.509628
 31
0.0
  0
LINE
  5
2B79
100
AcDbEntity
  8
0
  6
CONTINUOUS
 62
     0
100
AcDbLine
 10
51.522268
 20
176.123322
 30
0.0
 11
52.89273
 21
177.493784
 31
0.0
  0
LINE
  5
2B7A
100
AcDbEntity
  8
0
  6
CONTINUOUS
 62
     0
100
AcDbLine
 10
62.07912
 20
186.680174
 30
0.0
 11
63.025729
 21
187.626782
 31
0.0
  0
LINE
  5
2B7B
100
AcDbEntity
  8
0
  6
CONTINUOUS
 62
     0
100
AcDbLine
 10
51.405114
 20
176.230674
 30
0.0
 11
52.794723
 21
177.620284
 31
0.0
  0
LINE
  5
2B7C
100
AcDbEntity
  8
0
  6
CONTINUOUS
 62
     0
100
AcDbLine
 10
61.964016
 20
186.789576
 30
0.0
 11
62.918377
 21
187.743937
 31
0.0
  0
LINE
  5
2B7D
100
AcDbEntity
  8
0
  6
CONTINUOUS
 62
     0
100
AcDbLine
 10
51.28796
 20
176.338026
 30
0.0
 11
52.696717
 21
177.746783
 31
0.0
  0
LINE
  5
2B7E
100
AcDbEntity
  8
0
  6
CONTINUOUS
 62
     0
100
AcDbLine
 10
61.848911
 20
186.898978
 30
0.0
 11
62.811024
 21
187.861091
 31
0.0
  0
LINE
  5
2B7F
100
AcDbEntity
  8
0
  6
CONTINUOUS
 62
     0
100
AcDbLine
 10
51.170805
 20
176.445378
 30
0.0
 11
52.59871
 21
177.873283
 31
0.0
  0
LINE
  5
2B80
100
AcDbEntity
  8
0
  6
CONTINUOUS
 62
     0
100
AcDbLine
 10
61.733806
 20
187.008379
 30
0.0
 11
62.703672
 21
187.978245
 31
0.0
  0
LINE
  5
2B81
100
AcDbEntity
  8
0
  6
CONTINUOUS
 62
     0
100
AcDbLine
 10
51.053651
 20
176.55273
 30
0.0
 11
52.491988
 21
177.991067
 31
0.0
  0
LINE
  5
2B82
100
AcDbEntity
  8
0
  6
CONTINUOUS
 62
     0
100
AcDbLine
 10
61.618702
 20
187.117781
 30
0.0
 11
62.59632
 21
188.095399
 31
0.0
  0
LINE
  5
2B83
100
AcDbEntity
  8
0
  6
CONTINUOUS
 62
     0
100
AcDbLine
 10
50.936497
 20
176.660082
 30
0.0
 11
52.39563
 21
178.119216
 31
0.0
  0
LINE
  5
2B84
100
AcDbEntity
  8
0
  6
CONTINUOUS
 62
     0
100
AcDbLine
 10
61.503597
 20
187.227183
 30
0.0
 11
62.488968
 21
188.212554
 31
0.0
  0
LINE
  5
2B85
100
AcDbEntity
  8
0
  6
CONTINUOUS
 62
     0
100
AcDbLine
 10
50.819342
 20
176.767435
 30
0.0
 11
52.31862
 21
178.266712
 31
0.0
  0
LINE
  5
2B86
100
AcDbEntity
  8
0
  6
CONTINUOUS
 62
     0
100
AcDbLine
 10
61.388493
 20
187.336585
 30
0.0
 11
62.381616
 21
188.329708
 31
0.0
  0
LINE
  5
2B87
100
AcDbEntity
  8
0
  6
CONTINUOUS
 62
     0
100
AcDbLine
 10
50.702188
 20
176.874787
 30
0.0
 11
52.264376
 21
178.436974
 31
0.0
  0
LINE
  5
2B88
100
AcDbEntity
  8
0
  6
CONTINUOUS
 62
     0
100
AcDbLine
 10
61.273388
 20
187.445987
 30
0.0
 11
62.274264
 21
188.446862
 31
0.0
  0
LINE
  5
2B89
100
AcDbEntity
  8
0
  6
CONTINUOUS
 62
     0
100
AcDbLine
 10
50.585034
 20
176.982139
 30
0.0
 11
52.240635
 21
178.63774
 31
0.0
  0
LINE
  5
2B8A
100
AcDbEntity
  8
0
  6
CONTINUOUS
 62
     0
100
AcDbLine
 10
61.158284
 20
187.555388
 30
0.0
 11
62.166912
 21
188.564017
 31
0.0
  0
LINE
  5
2B8B
100
AcDbEntity
  8
0
  6
CONTINUOUS
 62
     0
100
AcDbLine
 10
50.46788
 20
177.089491
 30
0.0
 11
52.2405
 21
178.862111
 31
0.0
  0
LINE
  5
2B8C
100
AcDbEntity
  8
0
  6
CONTINUOUS
 62
     0
100
AcDbLine
 10
61.043179
 20
187.66479
 30
0.0
 11
62.05956
 21
188.681171
 31
0.0
  0
LINE
  5
2B8D
100
AcDbEntity
  8
0
  6
CONTINUOUS
 62
     0
100
AcDbLine
 10
50.350725
 20
177.196843
 30
0.0
 11
52.2405
 21
179.086618
 31
0.0
  0
LINE
  5
2B8E
100
AcDbEntity
  8
0
  6
CONTINUOUS
 62
     0
100
AcDbLine
 10
60.928074
 20
187.774192
 30
0.0
 11
61.952207
 21
188.798325
 31
0.0
  0
LINE
  5
2B8F
100
AcDbEntity
  8
0
  6
CONTINUOUS
 62
     0
100
AcDbLine
 10
50.233571
 20
177.304195
 30
0.0
 11
52.2405
 21
179.311124
 31
0.0
  0
LINE
  5
2B90
100
AcDbEntity
  8
0
  6
CONTINUOUS
 62
     0
100
AcDbLine
 10
60.81297
 20
187.883594
 30
0.0
 11
61.844855
 21
188.915479
 31
0.0
  0
LINE
  5
2B91
100
AcDbEntity
  8
0
  6
CONTINUOUS
 62
     0
100
AcDbLine
 10
50.116417
 20
177.411547
 30
0.0
 11
52.2405
 21
179.535631
 31
0.0
  0
LINE
  5
2B92
100
AcDbEntity
  8
0
  6
CONTINUOUS
 62
     0
100
AcDbLine
 10
60.697865
 20
187.992996
 30
0.0
 11
61.737503
 21
189.032634
 31
0.0
  0
LINE
  5
2B93
100
AcDbEntity
  8
0
  6
CONTINUOUS
 62
     0
100
AcDbLine
 10
49.999262
 20
177.518899
 30
0.0
 11
52.2405
 21
179.760137
 31
0.0
  0
LINE
  5
2B94
100
AcDbEntity
  8
0
  6
CONTINUOUS
 62
     0
100
AcDbLine
 10
60.582761
 20
188.102398
 30
0.0
 11
61.630151
 21
189.149788
 31
0.0
  0
LINE
  5
2B95
100
AcDbEntity
  8
0
  6
CONTINUOUS
 62
     0
100
AcDbLine
 10
49.882108
 20
177.626252
 30
0.0
 11
52.2405
 21
179.984643
 31
0.0
  0
LINE
  5
2B96
100
AcDbEntity
  8
0
  6
CONTINUOUS
 62
     0
100
AcDbLine
 10
60.467656
 20
188.211799
 30
0.0
 11
61.522799
 21
189.266942
 31
0.0
  0
LINE
  5
2B97
100
AcDbEntity
  8
0
  6
CONTINUOUS
 62
     0
100
AcDbLine
 10
49.764954
 20
177.733604
 30
0.0
 11
52.2405
 21
180.20915
 31
0.0
  0
LINE
  5
2B98
100
AcDbEntity
  8
0
  6
CONTINUOUS
 62
     0
100
AcDbLine
 10
60.352551
 20
188.321201
 30
0.0
 11
61.415447
 21
189.384097
 31
0.0
  0
LINE
  5
2B99
100
AcDbEntity
  8
0
  6
CONTINUOUS
 62
     0
100
AcDbLine
 10
49.6478
 20
177.840956
 30
0.0
 11
52.2405
 21
180.433656
 31
0.0
  0
LINE
  5
2B9A
100
AcDbEntity
  8
0
  6
CONTINUOUS
 62
     0
100
AcDbLine
 10
60.237447
 20
188.430603
 30
0.0
 11
61.308095
 21
189.501251
 31
0.0
  0
LINE
  5
2B9B
100
AcDbEntity
  8
0
  6
CONTINUOUS
 62
     0
100
AcDbLine
 10
49.531409
 20
177.949071
 30
0.0
 11
52.2405
 21
180.658163
 31
0.0
  0
LINE
  5
2B9C
100
AcDbEntity
  8
0
  6
CONTINUOUS
 62
     0
100
AcDbLine
 10
60.122342
 20
188.540005
 30
0.0
 11
61.200743
 21
189.618405
 31
0.0
  0
LINE
  5
2B9D
100
AcDbEntity
  8
0
  6
CONTINUOUS
 62
     0
100
AcDbLine
 10
49.428442
 20
178.070611
 30
0.0
 11
52.2405
 21
180.882669
 31
0.0
  0
LINE
  5
2B9E
100
AcDbEntity
  8
0
  6
CONTINUOUS
 62
     0
100
AcDbLine
 10
60.007238
 20
188.649407
 30
0.0
 11
61.093391
 21
189.735559
 31
0.0
  0
LINE
  5
2B9F
100
AcDbEntity
  8
0
  6
CONTINUOUS
 62
     0
100
AcDbLine
 10
49.344155
 20
178.21083
 30
0.0
 11
52.2405
 21
181.107176
 31
0.0
  0
LINE
  5
2BA0
100
AcDbEntity
  8
0
  6
CONTINUOUS
 62
     0
100
AcDbLine
 10
59.892133
 20
188.758808
 30
0.0
 11
60.986038
 21
189.852714
 31
0.0
  0
LINE
  5
2BA1
100
AcDbEntity
  8
0
  6
CONTINUOUS
 62
     0
100
AcDbLine
 10
49.281068
 20
178.372249
 30
0.0
 11
52.2405
 21
181.331682
 31
0.0
  0
LINE
  5
2BA2
100
AcDbEntity
  8
0
  6
CONTINUOUS
 62
     0
100
AcDbLine
 10
59.777028
 20
188.86821
 30
0.0
 11
60.878686
 21
189.969868
 31
0.0
  0
LINE
  5
2BA3
100
AcDbEntity
  8
0
  6
CONTINUOUS
 62
     0
100
AcDbLine
 10
49.244891
 20
178.560579
 30
0.0
 11
52.2405
 21
181.556188
 31
0.0
  0
LINE
  5
2BA4
100
AcDbEntity
  8
0
  6
CONTINUOUS
 62
     0
100
AcDbLine
 10
59.661924
 20
188.977612
 30
0.0
 11
60.771334
 21
190.087022
 31
0.0
  0
LINE
  5
2BA5
100
AcDbEntity
  8
0
  6
CONTINUOUS
 62
     0
100
AcDbLine
 10
49.2405
 20
178.780695
 30
0.0
 11
52.2405
 21
181.780695
 31
0.0
  0
LINE
  5
2BA6
100
AcDbEntity
  8
0
  6
CONTINUOUS
 62
     0
100
AcDbLine
 10
59.546819
 20
189.087014
 30
0.0
 11
60.663982
 21
190.204177
 31
0.0
  0
LINE
  5
2BA7
100
AcDbEntity
  8
0
  6
CONTINUOUS
 62
     0
100
AcDbLine
 10
49.2405
 20
179.005201
 30
0.0
 11
52.2405
 21
182.005201
 31
0.0
  0
LINE
  5
2BA8
100
AcDbEntity
  8
0
  6
CONTINUOUS
 62
     0
100
AcDbLine
 10
59.431715
 20
189.196416
 30
0.0
 11
60.55663
 21
190.321331
 31
0.0
  0
LINE
  5
2BA9
100
AcDbEntity
  8
0
  6
CONTINUOUS
 62
     0
100
AcDbLine
 10
49.2405
 20
179.229708
 30
0.0
 11
52.2405
 21
182.229708
 31
0.0
  0
LINE
  5
2BAA
100
AcDbEntity
  8
0
  6
CONTINUOUS
 62
     0
100
AcDbLine
 10
59.31661
 20
189.305817
 30
0.0
 11
60.449278
 21
190.438485
 31
0.0
  0
LINE
  5
2BAB
100
AcDbEntity
  8
0
  6
CONTINUOUS
 62
     0
100
AcDbLine
 10
49.2405
 20
179.454214
 30
0.0
 11
52.2405
 21
182.454214
 31
0.0
  0
LINE
  5
2BAC
100
AcDbEntity
  8
0
  6
CONTINUOUS
 62
     0
100
AcDbLine
 10
59.201506
 20
189.415219
 30
0.0
 11
60.341926
 21
190.555639
 31
0.0
  0
LINE
  5
2BAD
100
AcDbEntity
  8
0
  6
CONTINUOUS
 62
     0
100
AcDbLine
 10
49.2405
 20
179.67872
 30
0.0
 11
52.2405
 21
182.67872
 31
0.0
  0
LINE
  5
2BAE
100
AcDbEntity
  8
0
  6
CONTINUOUS
 62
     0
100
AcDbLine
 10
59.086401
 20
189.524621
 30
0.0
 11
60.234574
 21
190.672794
 31
0.0
  0
LINE
  5
2BAF
100
AcDbEntity
  8
0
  6
CONTINUOUS
 62
     0
100
AcDbLine
 10
49.2405
 20
179.903227
 30
0.0
 11
52.2405
 21
182.903227
 31
0.0
  0
LINE
  5
2BB0
100
AcDbEntity
  8
0
  6
CONTINUOUS
 62
     0
100
AcDbLine
 10
58.971296
 20
189.634023
 30
0.0
 11
60.127221
 21
190.789948
 31
0.0
  0
LINE
  5
2BB1
100
AcDbEntity
  8
0
  6
CONTINUOUS
 62
     0
100
AcDbLine
 10
49.2405
 20
180.127733
 30
0.0
 11
52.2405
 21
183.127733
 31
0.0
  0
LINE
  5
2BB2
100
AcDbEntity
  8
0
  6
CONTINUOUS
 62
     0
100
AcDbLine
 10
58.856192
 20
189.743425
 30
0.0
 11
60.019869
 21
190.907102
 31
0.0
  0
LINE
  5
2BB3
100
AcDbEntity
  8
0
  6
CONTINUOUS
 62
     0
100
AcDbLine
 10
49.2405
 20
180.35224
 30
0.0
 11
52.2405
 21
183.35224
 31
0.0
  0
LINE
  5
2BB4
100
AcDbEntity
  8
0
  6
CONTINUOUS
 62
     0
100
AcDbLine
 10
58.741087
 20
189.852827
 30
0.0
 11
59.912517
 21
191.024257
 31
0.0
  0
LINE
  5
2BB5
100
AcDbEntity
  8
0
  6
CONTINUOUS
 62
     0
100
AcDbLine
 10
49.2405
 20
180.576746
 30
0.0
 11
52.2405
 21
183.576746
 31
0.0
  0
LINE
  5
2BB6
100
AcDbEntity
  8
0
  6
CONTINUOUS
 62
     0
100
AcDbLine
 10
58.625983
 20
189.962228
 30
0.0
 11
59.805165
 21
191.141411
 31
0.0
  0
LINE
  5
2BB7
100
AcDbEntity
  8
0
  6
CONTINUOUS
 62
     0
100
AcDbLine
 10
49.2405
 20
180.801252
 30
0.0
 11
52.2405
 21
183.801252
 31
0.0
  0
LINE
  5
2BB8
100
AcDbEntity
  8
0
  6
CONTINUOUS
 62
     0
100
AcDbLine
 10
58.510878
 20
190.07163
 30
0.0
 11
59.697813
 21
191.258565
 31
0.0
  0
LINE
  5
2BB9
100
AcDbEntity
  8
0
  6
CONTINUOUS
 62
     0
100
AcDbLine
 10
49.2405
 20
181.025759
 30
0.0
 11
52.2405
 21
184.025759
 31
0.0
  0
LINE
  5
2BBA
100
AcDbEntity
  8
0
  6
CONTINUOUS
 62
     0
100
AcDbLine
 10
58.395773
 20
190.181032
 30
0.0
 11
59.590461
 21
191.375719
 31
0.0
  0
LINE
  5
2BBB
100
AcDbEntity
  8
0
  6
CONTINUOUS
 62
     0
100
AcDbLine
 10
49.2405
 20
181.250265
 30
0.0
 11
52.2405
 21
184.250265
 31
0.0
  0
LINE
  5
2BBC
100
AcDbEntity
  8
0
  6
CONTINUOUS
 62
     0
100
AcDbLine
 10
58.280669
 20
190.290434
 30
0.0
 11
59.483109
 21
191.492874
 31
0.0
  0
LINE
  5
2BBD
100
AcDbEntity
  8
0
  6
CONTINUOUS
 62
     0
100
AcDbLine
 10
49.2405
 20
181.474772
 30
0.0
 11
52.2405
 21
184.474772
 31
0.0
  0
LINE
  5
2BBE
100
AcDbEntity
  8
0
  6
CONTINUOUS
 62
     0
100
AcDbLine
 10
58.165564
 20
190.399836
 30
0.0
 11
59.375757
 21
191.610028
 31
0.0
  0
LINE
  5
2BBF
100
AcDbEntity
  8
0
  6
CONTINUOUS
 62
     0
100
AcDbLine
 10
49.2405
 20
181.699278
 30
0.0
 11
52.2405
 21
184.699278
 31
0.0
  0
LINE
  5
2BC0
100
AcDbEntity
  8
0
  6
CONTINUOUS
 62
     0
100
AcDbLine
 10
58.05046
 20
190.509237
 30
0.0
 11
59.268404
 21
191.727182
 31
0.0
  0
LINE
  5
2BC1
100
AcDbEntity
  8
0
  6
CONTINUOUS
 62
     0
100
AcDbLine
 10
49.2405
 20
181.923784
 30
0.0
 11
52.2405
 21
184.923784
 31
0.0
  0
LINE
  5
2BC2
100
AcDbEntity
  8
0
  6
CONTINUOUS
 62
     0
100
AcDbLine
 10
57.935355
 20
190.618639
 30
0.0
 11
59.161052
 21
191.844337
 31
0.0
  0
LINE
  5
2BC3
100
AcDbEntity
  8
0
  6
CONTINUOUS
 62
     0
100
AcDbLine
 10
49.2405
 20
182.148291
 30
0.0
 11
52.2405
 21
185.148291
 31
0.0
  0
LINE
  5
2BC4
100
AcDbEntity
  8
0
  6
CONTINUOUS
 62
     0
100
AcDbLine
 10
57.82025
 20
190.728041
 30
0.0
 11
59.0537
 21
191.961491
 31
0.0
  0
LINE
  5
2BC5
100
AcDbEntity
  8
0
  6
CONTINUOUS
 62
     0
100
AcDbLine
 10
49.2405
 20
182.372797
 30
0.0
 11
52.2405
 21
185.372797
 31
0.0
  0
LINE
  5
2BC6
100
AcDbEntity
  8
0
  6
CONTINUOUS
 62
     0
100
AcDbLine
 10
57.705146
 20
190.837443
 30
0.0
 11
58.946348
 21
192.078645
 31
0.0
  0
LINE
  5
2BC7
100
AcDbEntity
  8
0
  6
CONTINUOUS
 62
     0
100
AcDbLine
 10
49.2405
 20
182.597304
 30
0.0
 11
52.2405
 21
185.597304
 31
0.0
  0
LINE
  5
2BC8
100
AcDbEntity
  8
0
  6
CONTINUOUS
 62
     0
100
AcDbLine
 10
57.590041
 20
190.946845
 30
0.0
 11
58.838996
 21
192.195799
 31
0.0
  0
LINE
  5
2BC9
100
AcDbEntity
  8
0
  6
CONTINUOUS
 62
     0
100
AcDbLine
 10
49.2405
 20
182.82181
 30
0.0
 11
52.2405
 21
185.82181
 31
0.0
  0
LINE
  5
2BCA
100
AcDbEntity
  8
0
  6
CONTINUOUS
 62
     0
100
AcDbLine
 10
57.474937
 20
191.056247
 30
0.0
 11
58.731644
 21
192.312954
 31
0.0
  0
LINE
  5
2BCB
100
AcDbEntity
  8
0
  6
CONTINUOUS
 62
     0
100
AcDbLine
 10
49.2405
 20
183.046316
 30
0.0
 11
52.2405
 21
186.046316
 31
0.0
  0
LINE
  5
2BCC
100
AcDbEntity
  8
0
  6
CONTINUOUS
 62
     0
100
AcDbLine
 10
57.359832
 20
191.165648
 30
0.0
 11
58.624292
 21
192.430108
 31
0.0
  0
LINE
  5
2BCD
100
AcDbEntity
  8
0
  6
CONTINUOUS
 62
     0
100
AcDbLine
 10
49.2405
 20
183.270823
 30
0.0
 11
52.2405
 21
186.270823
 31
0.0
  0
LINE
  5
2BCE
100
AcDbEntity
  8
0
  6
CONTINUOUS
 62
     0
100
AcDbLine
 10
57.244728
 20
191.27505
 30
0.0
 11
58.51694
 21
192.547262
 31
0.0
  0
LINE
  5
2BCF
100
AcDbEntity
  8
0
  6
CONTINUOUS
 62
     0
100
AcDbLine
 10
49.2405
 20
183.495329
 30
0.0
 11
52.2405
 21
186.495329
 31
0.0
  0
LINE
  5
2BD0
100
AcDbEntity
  8
0
  6
CONTINUOUS
 62
     0
100
AcDbLine
 10
57.129623
 20
191.384452
 30
0.0
 11
58.409587
 21
192.664416
 31
0.0
  0
LINE
  5
2BD1
100
AcDbEntity
  8
0
  6
CONTINUOUS
 62
     0
100
AcDbLine
 10
49.2405
 20
183.719836
 30
0.0
 11
52.2405
 21
186.719836
 31
0.0
  0
LINE
  5
2BD2
100
AcDbEntity
  8
0
  6
CONTINUOUS
 62
     0
100
AcDbLine
 10
57.014518
 20
191.493854
 30
0.0
 11
58.302235
 21
192.781571
 31
0.0
  0
LINE
  5
2BD3
100
AcDbEntity
  8
0
  6
CONTINUOUS
 62
     0
100
AcDbLine
 10
49.2405
 20
183.944342
 30
0.0
 11
52.2405
 21
186.944342
 31
0.0
  0
LINE
  5
2BD4
100
AcDbEntity
  8
0
  6
CONTINUOUS
 62
     0
100
AcDbLine
 10
56.899414
 20
191.603256
 30
0.0
 11
58.194883
 21
192.898725
 31
0.0
  0
LINE
  5
2BD5
100
AcDbEntity
  8
0
  6
CONTINUOUS
 62
     0
100
AcDbLine
 10
49.2405
 20
184.168848
 30
0.0
 11
52.2405
 21
187.168848
 31
0.0
  0
LINE
  5
2BD6
100
AcDbEntity
  8
0
  6
CONTINUOUS
 62
     0
100
AcDbLine
 10
56.784309
 20
191.712657
 30
0.0
 11
58.087531
 21
193.015879
 31
0.0
  0
LINE
  5
2BD7
100
AcDbEntity
  8
0
  6
CONTINUOUS
 62
     0
100
AcDbLine
 10
49.2405
 20
184.393355
 30
0.0
 11
52.2405
 21
187.393355
 31
0.0
  0
LINE
  5
2BD8
100
AcDbEntity
  8
0
  6
CONTINUOUS
 62
     0
100
AcDbLine
 10
56.669205
 20
191.822059
 30
0.0
 11
57.980179
 21
193.133034
 31
0.0
  0
LINE
  5
2BD9
100
AcDbEntity
  8
0
  6
CONTINUOUS
 62
     0
100
AcDbLine
 10
49.2405
 20
184.617861
 30
0.0
 11
52.2405
 21
187.617861
 31
0.0
  0
LINE
  5
2BDA
100
AcDbEntity
  8
0
  6
CONTINUOUS
 62
     0
100
AcDbLine
 10
56.5541
 20
191.931461
 30
0.0
 11
57.872827
 21
193.250188
 31
0.0
  0
LINE
  5
2BDB
100
AcDbEntity
  8
0
  6
CONTINUOUS
 62
     0
100
AcDbLine
 10
49.2405
 20
184.842368
 30
0.0
 11
52.2405
 21
187.842368
 31
0.0
  0
LINE
  5
2BDC
100
AcDbEntity
  8
0
  6
CONTINUOUS
 62
     0
100
AcDbLine
 10
56.438995
 20
192.040863
 30
0.0
 11
57.765475
 21
193.367342
 31
0.0
  0
LINE
  5
2BDD
100
AcDbEntity
  8
0
  6
CONTINUOUS
 62
     0
100
AcDbLine
 10
49.2405
 20
185.066874
 30
0.0
 11
52.2405
 21
188.066874
 31
0.0
  0
LINE
  5
2BDE
100
AcDbEntity
  8
0
  6
CONTINUOUS
 62
     0
100
AcDbLine
 10
56.323891
 20
192.150265
 30
0.0
 11
57.658123
 21
193.484496
 31
0.0
  0
LINE
  5
2BDF
100
AcDbEntity
  8
0
  6
CONTINUOUS
 62
     0
100
AcDbLine
 10
49.2405
 20
185.29138
 30
0.0
 11
52.2405
 21
188.29138
 31
0.0
  0
LINE
  5
2BE0
100
AcDbEntity
  8
0
  6
CONTINUOUS
 62
     0
100
AcDbLine
 10
56.208786
 20
192.259666
 30
0.0
 11
57.550771
 21
193.601651
 31
0.0
  0
LINE
  5
2BE1
100
AcDbEntity
  8
0
  6
CONTINUOUS
 62
     0
100
AcDbLine
 10
49.2405
 20
185.515887
 30
0.0
 11
52.2405
 21
188.515887
 31
0.0
  0
LINE
  5
2BE2
100
AcDbEntity
  8
0
  6
CONTINUOUS
 62
     0
100
AcDbLine
 10
56.093682
 20
192.369068
 30
0.0
 11
57.443418
 21
193.718805
 31
0.0
  0
LINE
  5
2BE3
100
AcDbEntity
  8
0
  6
CONTINUOUS
 62
     0
100
AcDbLine
 10
49.2405
 20
185.740393
 30
0.0
 11
52.2405
 21
188.740393
 31
0.0
  0
LINE
  5
2BE4
100
AcDbEntity
  8
0
  6
CONTINUOUS
 62
     0
100
AcDbLine
 10
55.978577
 20
192.47847
 30
0.0
 11
57.336066
 21
193.835959
 31
0.0
  0
LINE
  5
2BE5
100
AcDbEntity
  8
0
  6
CONTINUOUS
 62
     0
100
AcDbLine
 10
49.2405
 20
185.9649
 30
0.0
 11
52.2405
 21
188.9649
 31
0.0
  0
LINE
  5
2BE6
100
AcDbEntity
  8
0
  6
CONTINUOUS
 62
     0
100
AcDbLine
 10
55.863472
 20
192.587872
 30
0.0
 11
57.228714
 21
193.953114
 31
0.0
  0
LINE
  5
2BE7
100
AcDbEntity
  8
0
  6
CONTINUOUS
 62
     0
100
AcDbLine
 10
49.2405
 20
186.189406
 30
0.0
 11
52.2405
 21
189.189406
 31
0.0
  0
LINE
  5
2BE8
100
AcDbEntity
  8
0
  6
CONTINUOUS
 62
     0
100
AcDbLine
 10
55.748368
 20
192.697274
 30
0.0
 11
57.121362
 21
194.070268
 31
0.0
  0
LINE
  5
2BE9
100
AcDbEntity
  8
0
  6
CONTINUOUS
 62
     0
100
AcDbLine
 10
49.2405
 20
186.413912
 30
0.0
 11
52.2405
 21
189.413912
 31
0.0
  0
LINE
  5
2BEA
100
AcDbEntity
  8
0
  6
CONTINUOUS
 62
     0
100
AcDbLine
 10
55.633263
 20
192.806676
 30
0.0
 11
57.01401
 21
194.187422
 31
0.0
  0
LINE
  5
2BEB
100
AcDbEntity
  8
0
  6
CONTINUOUS
 62
     0
100
AcDbLine
 10
49.2405
 20
186.638419
 30
0.0
 11
52.2405
 21
189.638419
 31
0.0
  0
LINE
  5
2BEC
100
AcDbEntity
  8
0
  6
CONTINUOUS
 62
     0
100
AcDbLine
 10
55.518159
 20
192.916077
 30
0.0
 11
56.906658
 21
194.304576
 31
0.0
  0
LINE
  5
2BED
100
AcDbEntity
  8
0
  6
CONTINUOUS
 62
     0
100
AcDbLine
 10
49.2405
 20
186.862925
 30
0.0
 11
52.2405
 21
189.862925
 31
0.0
  0
LINE
  5
2BEE
100
AcDbEntity
  8
0
  6
CONTINUOUS
 62
     0
100
AcDbLine
 10
55.403054
 20
193.025479
 30
0.0
 11
56.799306
 21
194.421731
 31
0.0
  0
LINE
  5
2BEF
100
AcDbEntity
  8
0
  6
CONTINUOUS
 62
     0
100
AcDbLine
 10
49.2405
 20
187.087432
 30
0.0
 11
52.2405
 21
190.087432
 31
0.0
  0
LINE
  5
2BF0
100
AcDbEntity
  8
0
  6
CONTINUOUS
 62
     0
100
AcDbLine
 10
55.28795
 20
193.134881
 30
0.0
 11
56.691954
 21
194.538885
 31
0.0
  0
LINE
  5
2BF1
100
AcDbEntity
  8
0
  6
CONTINUOUS
 62
     0
100
AcDbLine
 10
49.2405
 20
187.311938
 30
0.0
 11
52.2405
 21
190.311938
 31
0.0
  0
LINE
  5
2BF2
100
AcDbEntity
  8
0
  6
CONTINUOUS
 62
     0
100
AcDbLine
 10
55.172845
 20
193.244283
 30
0.0
 11
56.584601
 21
194.656039
 31
0.0
  0
LINE
  5
2BF3
100
AcDbEntity
  8
0
  6
CONTINUOUS
 62
     0
100
AcDbLine
 10
49.2405
 20
187.536444
 30
0.0
 11
52.2405
 21
190.536444
 31
0.0
  0
LINE
  5
2BF4
100
AcDbEntity
  8
0
  6
CONTINUOUS
 62
     0
100
AcDbLine
 10
55.05774
 20
193.353685
 30
0.0
 11
56.477249
 21
194.773194
 31
0.0
  0
LINE
  5
2BF5
100
AcDbEntity
  8
0
  6
CONTINUOUS
 62
     0
100
AcDbLine
 10
49.2405
 20
187.760951
 30
0.0
 11
52.2405
 21
190.760951
 31
0.0
  0
LINE
  5
2BF6
100
AcDbEntity
  8
0
  6
CONTINUOUS
 62
     0
100
AcDbLine
 10
54.942636
 20
193.463086
 30
0.0
 11
56.369897
 21
194.890348
 31
0.0
  0
LINE
  5
2BF7
100
AcDbEntity
  8
0
  6
CONTINUOUS
 62
     0
100
AcDbLine
 10
49.2405
 20
187.985457
 30
0.0
 11
52.2405
 21
190.985457
 31
0.0
  0
LINE
  5
2BF8
100
AcDbEntity
  8
0
  6
CONTINUOUS
 62
     0
100
AcDbLine
 10
54.828018
 20
193.572975
 30
0.0
 11
56.262545
 21
195.007502
 31
0.0
  0
LINE
  5
2BF9
100
AcDbEntity
  8
0
  6
CONTINUOUS
 62
     0
100
AcDbLine
 10
49.2405
 20
188.209964
 30
0.0
 11
52.2405
 21
191.209964
 31
0.0
  0
LINE
  5
2BFA
100
AcDbEntity
  8
0
  6
CONTINUOUS
 62
     0
100
AcDbLine
 10
54.715625
 20
193.685088
 30
0.0
 11
56.155193
 21
195.124656
 31
0.0
  0
LINE
  5
2BFB
100
AcDbEntity
  8
0
  6
CONTINUOUS
 62
     0
100
AcDbLine
 10
49.2405
 20
188.43447
 30
0.0
 11
52.2405
 21
191.43447
 31
0.0
  0
LINE
  5
2BFC
100
AcDbEntity
  8
0
  6
CONTINUOUS
 62
     0
100
AcDbLine
 10
54.594285
 20
193.788255
 30
0.0
 11
56.047841
 21
195.241811
 31
0.0
  0
LINE
  5
2BFD
100
AcDbEntity
  8
0
  6
CONTINUOUS
 62
     0
100
AcDbLine
 10
49.2405
 20
188.658976
 30
0.0
 11
52.2405
 21
191.658976
 31
0.0
  0
LINE
  5
2BFE
100
AcDbEntity
  8
0
  6
CONTINUOUS
 62
     0
100
AcDbLine
 10
54.463823
 20
193.882299
 30
0.0
 11
55.940489
 21
195.358965
 31
0.0
  0
LINE
  5
2BFF
100
AcDbEntity
  8
0
  6
CONTINUOUS
 62
     0
100
AcDbLine
 10
49.2405
 20
188.883483
 30
0.0
 11
52.2405
 21
191.883483
 31
0.0
  0
LINE
  5
2C00
100
AcDbEntity
  8
0
  6
CONTINUOUS
 62
     0
100
AcDbLine
 10
54.323871
 20
193.966854
 30
0.0
 11
55.833137
 21
195.476119
 31
0.0
  0
LINE
  5
2C01
100
AcDbEntity
  8
0
  6
CONTINUOUS
 62
     0
100
AcDbLine
 10
49.2405
 20
189.107989
 30
0.0
 11
52.2405
 21
192.107989
 31
0.0
  0
LINE
  5
2C02
100
AcDbEntity
  8
0
  6
CONTINUOUS
 62
     0
100
AcDbLine
 10
54.173832
 20
194.041321
 30
0.0
 11
55.725784
 21
195.593274
 31
0.0
  0
LINE
  5
2C03
100
AcDbEntity
  8
0
  6
CONTINUOUS
 62
     0
100
AcDbLine
 10
49.2405
 20
189.332496
 30
0.0
 11
52.2405
 21
192.332496
 31
0.0
  0
LINE
  5
2C04
100
AcDbEntity
  8
0
  6
CONTINUOUS
 62
     0
100
AcDbLine
 10
54.012808
 20
194.104803
 30
0.0
 11
55.618432
 21
195.710428
 31
0.0
  0
LINE
  5
2C05
100
AcDbEntity
  8
0
  6
CONTINUOUS
 62
     0
100
AcDbLine
 10
49.2405
 20
189.557002
 30
0.0
 11
52.2405
 21
192.557002
 31
0.0
  0
LINE
  5
2C06
100
AcDbEntity
  8
0
  6
CONTINUOUS
 62
     0
100
AcDbLine
 10
53.83947
 20
194.155972
 30
0.0
 11
55.51108
 21
195.827582
 31
0.0
  0
LINE
  5
2C07
100
AcDbEntity
  8
0
  6
CONTINUOUS
 62
     0
100
AcDbLine
 10
49.2405
 20
189.781508
 30
0.0
 11
52.2405
 21
192.781508
 31
0.0
  0
LINE
  5
2C08
100
AcDbEntity
  8
0
  6
CONTINUOUS
 62
     0
100
AcDbLine
 10
53.651833
 20
194.192841
 30
0.0
 11
55.403728
 21
195.944736
 31
0.0
  0
LINE
  5
2C09
100
AcDbEntity
  8
0
  6
CONTINUOUS
 62
     0
100
AcDbLine
 10
49.2405
 20
190.006015
 30
0.0
 11
52.2405
 21
193.006015
 31
0.0
  0
LINE
  5
2C0A
100
AcDbEntity
  8
0
  6
CONTINUOUS
 62
     0
100
AcDbLine
 10
53.446799
 20
194.212313
 30
0.0
 11
55.296376
 21
196.061891
 31
0.0
  0
LINE
  5
2C0B
100
AcDbEntity
  8
0
  6
CONTINUOUS
 62
     0
100
AcDbLine
 10
49.2405
 20
190.230521
 30
0.0
 11
52.2405
 21
193.230521
 31
0.0
  0
LINE
  5
2C0C
100
AcDbEntity
  8
0
  6
CONTINUOUS
 62
     0
100
AcDbLine
 10
53.224156
 20
194.214177
 30
0.0
 11
55.189024
 21
196.179045
 31
0.0
  0
LINE
  5
2C0D
100
AcDbEntity
  8
0
  6
CONTINUOUS
 62
     0
100
AcDbLine
 10
49.2405
 20
190.455028
 30
0.0
 11
52.2405
 21
193.455028
 31
0.0
  0
LINE
  5
2C0E
100
AcDbEntity
  8
0
  6
CONTINUOUS
 62
     0
100
AcDbLine
 10
52.999649
 20
194.214177
 30
0.0
 11
55.081672
 21
196.296199
 31
0.0
  0
LINE
  5
2C0F
100
AcDbEntity
  8
0
  6
CONTINUOUS
 62
     0
100
AcDbLine
 10
49.2405
 20
190.679534
 30
0.0
 11
52.2405
 21
193.679534
 31
0.0
  0
LINE
  5
2C10
100
AcDbEntity
  8
0
  6
CONTINUOUS
 62
     0
100
AcDbLine
 10
52.775143
 20
194.214177
 30
0.0
 11
54.97432
 21
196.413354
 31
0.0
  0
LINE
  5
2C11
100
AcDbEntity
  8
0
  6
CONTINUOUS
 62
     0
100
AcDbLine
 10
49.2405
 20
190.90404
 30
0.0
 11
52.2405
 21
193.90404
 31
0.0
  0
LINE
  5
2C12
100
AcDbEntity
  8
0
  6
CONTINUOUS
 62
     0
100
AcDbLine
 10
52.550637
 20
194.214177
 30
0.0
 11
54.866967
 21
196.530508
 31
0.0
  0
LINE
  5
2C13
100
AcDbEntity
  8
0
  6
CONTINUOUS
 62
     0
100
AcDbLine
 10
49.2405
 20
191.128547
 30
0.0
 11
52.2405
 21
194.128547
 31
0.0
  0
LINE
  5
2C14
100
AcDbEntity
  8
0
  6
CONTINUOUS
 62
     0
100
AcDbLine
 10
52.32613
 20
194.214177
 30
0.0
 11
54.757414
 21
196.645461
 31
0.0
  0
LINE
  5
2C15
100
AcDbEntity
  8
0
  6
CONTINUOUS
 62
     0
100
AcDbLine
 10
49.2405
 20
191.353053
 30
0.0
 11
54.63933
 21
196.751883
 31
0.0
  0
LINE
  5
2C16
100
AcDbEntity
  8
0
  6
CONTINUOUS
 62
     0
100
AcDbLine
 10
49.2405
 20
191.57756
 30
0.0
 11
54.512208
 21
196.849267
 31
0.0
  0
LINE
  5
2C17
100
AcDbEntity
  8
0
  6
CONTINUOUS
 62
     0
100
AcDbLine
 10
49.2405
 20
191.802066
 30
0.0
 11
54.375753
 21
196.937319
 31
0.0
  0
LINE
  5
2C18
100
AcDbEntity
  8
0
  6
CONTINUOUS
 62
     0
100
AcDbLine
 10
49.2405
 20
192.026572
 30
0.0
 11
54.229458
 21
197.015531
 31
0.0
  0
LINE
  5
2C19
100
AcDbEntity
  8
0
  6
CONTINUOUS
 62
     0
100
AcDbLine
 10
49.2405
 20
192.251079
 30
0.0
 11
54.072545
 21
197.083124
 31
0.0
  0
LINE
  5
2C1A
100
AcDbEntity
  8
0
  6
CONTINUOUS
 62
     0
100
AcDbLine
 10
49.2405
 20
192.475585
 30
0.0
 11
53.903861
 21
197.138946
 31
0.0
  0
LINE
  5
2C1B
100
AcDbEntity
  8
0
  6
CONTINUOUS
 62
     0
100
AcDbLine
 10
49.2405
 20
192.700092
 30
0.0
 11
53.721696
 21
197.181287
 31
0.0
  0
LINE
  5
2C1C
100
AcDbEntity
  8
0
  6
CONTINUOUS
 62
     0
100
AcDbLine
 10
49.2405
 20
192.924598
 30
0.0
 11
53.52343
 21
197.207528
 31
0.0
  0
LINE
  5
2C1D
100
AcDbEntity
  8
0
  6
CONTINUOUS
 62
     0
100
AcDbLine
 10
49.2405
 20
193.149105
 30
0.0
 11
53.305573
 21
197.214177
 31
0.0
  0
LINE
  5
2C1E
100
AcDbEntity
  8
0
  6
CONTINUOUS
 62
     0
100
AcDbLine
 10
49.2405
 20
193.373611
 30
0.0
 11
53.081066
 21
197.214177
 31
0.0
  0
LINE
  5
2C1F
100
AcDbEntity
  8
0
  6
CONTINUOUS
 62
     0
100
AcDbLine
 10
49.2405
 20
193.598117
 30
0.0
 11
52.85656
 21
197.214177
 31
0.0
  0
LINE
  5
2C20
100
AcDbEntity
  8
0
  6
CONTINUOUS
 62
     0
100
AcDbLine
 10
49.2405
 20
193.822624
 30
0.0
 11
52.632053
 21
197.214177
 31
0.0
  0
LINE
  5
2C21
100
AcDbEntity
  8
0
  6
CONTINUOUS
 62
     0
100
AcDbLine
 10
49.2405
 20
194.04713
 30
0.0
 11
52.407547
 21
197.214177
 31
0.0
  0
LINE
  5
2C22
100
AcDbEntity
  8
0
  6
CONTINUOUS
 62
     0
100
AcDbLine
 10
49.2405
 20
194.271637
 30
0.0
 11
52.183041
 21
197.214177
 31
0.0
  0
LINE
  5
2C23
100
AcDbEntity
  8
0
  6
CONTINUOUS
 62
     0
100
AcDbLine
 10
49.2405
 20
194.496143
 30
0.0
 11
51.958534
 21
197.214177
 31
0.0
  0
LINE
  5
2C24
100
AcDbEntity
  8
0
  6
CONTINUOUS
 62
     0
100
AcDbLine
 10
49.2405
 20
194.720649
 30
0.0
 11
51.734028
 21
197.214177
 31
0.0
  0
LINE
  5
2C25
100
AcDbEntity
  8
0
  6
CONTINUOUS
 62
     0
100
AcDbLine
 10
49.2405
 20
194.945156
 30
0.0
 11
51.509521
 21
197.214177
 31
0.0
  0
LINE
  5
2C26
100
AcDbEntity
  8
0
  6
CONTINUOUS
 62
     0
100
AcDbLine
 10
49.2405
 20
195.169662
 30
0.0
 11
51.285015
 21
197.214177
 31
0.0
  0
LINE
  5
2C27
100
AcDbEntity
  8
0
  6
CONTINUOUS
 62
     0
100
AcDbLine
 10
49.2405
 20
195.394169
 30
0.0
 11
51.060509
 21
197.214177
 31
0.0
  0
LINE
  5
2C28
100
AcDbEntity
  8
0
  6
CONTINUOUS
 62
     0
100
AcDbLine
 10
49.2405
 20
195.618675
 30
0.0
 11
50.836002
 21
197.214177
 31
0.0
  0
LINE
  5
2C29
100
AcDbEntity
  8
0
  6
CONTINUOUS
 62
     0
100
AcDbLine
 10
49.2405
 20
195.843181
 30
0.0
 11
50.611496
 21
197.214177
 31
0.0
  0
LINE
  5
2C2A
100
AcDbEntity
  8
0
  6
CONTINUOUS
 62
     0
100
AcDbLine
 10
49.2405
 20
196.067688
 30
0.0
 11
50.386989
 21
197.214177
 31
0.0
  0
LINE
  5
2C2B
100
AcDbEntity
  8
0
  6
CONTINUOUS
 62
     0
100
AcDbLine
 10
53.982508
 20
173.868927
 30
0.0
 11
54.950868
 21
174.837288
 31
0.0
  0
LINE
  5
2C2C
100
AcDbEntity
  8
0
  6
CONTINUOUS
 62
     0
100
AcDbLine
 10
64.496317
 20
184.382736
 30
0.0
 11
65.280123
 21
185.166542
 31
0.0
  0
LINE
  5
2C2D
100
AcDbEntity
  8
0
  6
CONTINUOUS
 62
     0
100
AcDbLine
 10
54.099662
 20
173.761575
 30
0.0
 11
55.048875
 21
174.710788
 31
0.0
  0
LINE
  5
2C2E
100
AcDbEntity
  8
0
  6
CONTINUOUS
 62
     0
100
AcDbLine
 10
64.611421
 20
184.273334
 30
0.0
 11
65.387475
 21
185.049388
 31
0.0
  0
LINE
  5
2C2F
100
AcDbEntity
  8
0
  6
CONTINUOUS
 62
     0
100
AcDbLine
 10
54.216817
 20
173.654223
 30
0.0
 11
55.146882
 21
174.584288
 31
0.0
  0
LINE
  5
2C30
100
AcDbEntity
  8
0
  6
CONTINUOUS
 62
     0
100
AcDbLine
 10
64.726526
 20
184.163932
 30
0.0
 11
65.494827
 21
184.932234
 31
0.0
  0
LINE
  5
2C31
100
AcDbEntity
  8
0
  6
CONTINUOUS
 62
     0
100
AcDbLine
 10
54.333971
 20
173.546871
 30
0.0
 11
55.244888
 21
174.457788
 31
0.0
  0
LINE
  5
2C32
100
AcDbEntity
  8
0
  6
CONTINUOUS
 62
     0
100
AcDbLine
 10
64.84163
 20
184.05453
 30
0.0
 11
65.60218
 21
184.81508
 31
0.0
  0
LINE
  5
2C33
100
AcDbEntity
  8
0
  6
CONTINUOUS
 62
     0
100
AcDbLine
 10
54.451125
 20
173.439519
 30
0.0
 11
55.342895
 21
174.331288
 31
0.0
  0
LINE
  5
2C34
100
AcDbEntity
  8
0
  6
CONTINUOUS
 62
     0
100
AcDbLine
 10
64.956735
 20
183.945129
 30
0.0
 11
65.709532
 21
184.697925
 31
0.0
  0
LINE
  5
2C35
100
AcDbEntity
  8
0
  6
CONTINUOUS
 62
     0
100
AcDbLine
 10
54.568279
 20
173.332167
 30
0.0
 11
55.440901
 21
174.204789
 31
0.0
  0
LINE
  5
2C36
100
AcDbEntity
  8
0
  6
CONTINUOUS
 62
     0
100
AcDbLine
 10
65.07184
 20
183.835727
 30
0.0
 11
65.816884
 21
184.580771
 31
0.0
  0
LINE
  5
2C37
100
AcDbEntity
  8
0
  6
CONTINUOUS
 62
     0
100
AcDbLine
 10
54.685434
 20
173.224815
 30
0.0
 11
55.538908
 21
174.078289
 31
0.0
  0
LINE
  5
2C38
100
AcDbEntity
  8
0
  6
CONTINUOUS
 62
     0
100
AcDbLine
 10
65.186944
 20
183.726325
 30
0.0
 11
65.924236
 21
184.463617
 31
0.0
  0
LINE
  5
2C39
100
AcDbEntity
  8
0
  6
CONTINUOUS
 62
     0
100
AcDbLine
 10
54.802588
 20
173.117462
 30
0.0
 11
55.636915
 21
173.951789
 31
0.0
  0
LINE
  5
2C3A
100
AcDbEntity
  8
0
  6
CONTINUOUS
 62
     0
100
AcDbLine
 10
65.302049
 20
183.616923
 30
0.0
 11
66.031588
 21
184.346462
 31
0.0
  0
LINE
  5
2C3B
100
AcDbEntity
  8
0
  6
CONTINUOUS
 62
     0
100
AcDbLine
 10
54.919742
 20
173.01011
 30
0.0
 11
55.734921
 21
173.825289
 31
0.0
  0
LINE
  5
2C3C
100
AcDbEntity
  8
0
  6
CONTINUOUS
 62
     0
100
AcDbLine
 10
65.417153
 20
183.507521
 30
0.0
 11
66.13894
 21
184.229308
 31
0.0
  0
LINE
  5
2C3D
100
AcDbEntity
  8
0
  6
CONTINUOUS
 62
     0
100
AcDbLine
 10
55.036897
 20
172.902758
 30
0.0
 11
55.832928
 21
173.698789
 31
0.0
  0
LINE
  5
2C3E
100
AcDbEntity
  8
0
  6
CONTINUOUS
 62
     0
100
AcDbLine
 10
65.532258
 20
183.398119
 30
0.0
 11
66.246292
 21
184.112154
 31
0.0
  0
LINE
  5
2C3F
100
AcDbEntity
  8
0
  6
CONTINUOUS
 62
     0
100
AcDbLine
 10
55.154051
 20
172.795406
 30
0.0
 11
55.930934
 21
173.57229
 31
0.0
  0
LINE
  5
2C40
100
AcDbEntity
  8
0
  6
CONTINUOUS
 62
     0
100
AcDbLine
 10
65.647362
 20
183.288718
 30
0.0
 11
66.353644
 21
183.995
 31
0.0
  0
LINE
  5
2C41
100
AcDbEntity
  8
0
  6
CONTINUOUS
 62
     0
100
AcDbLine
 10
55.271205
 20
172.688054
 30
0.0
 11
56.028941
 21
173.44579
 31
0.0
  0
LINE
  5
2C42
100
AcDbEntity
  8
0
  6
CONTINUOUS
 62
     0
100
AcDbLine
 10
65.762467
 20
183.179316
 30
0.0
 11
66.460997
 21
183.877845
 31
0.0
  0
LINE
  5
2C43
100
AcDbEntity
  8
0
  6
CONTINUOUS
 62
     0
100
AcDbLine
 10
55.388359
 20
172.580702
 30
0.0
 11
56.126948
 21
173.31929
 31
0.0
  0
LINE
  5
2C44
100
AcDbEntity
  8
0
  6
CONTINUOUS
 62
     0
100
AcDbLine
 10
65.877572
 20
183.069914
 30
0.0
 11
66.568349
 21
183.760691
 31
0.0
  0
LINE
  5
2C45
100
AcDbEntity
  8
0
  6
CONTINUOUS
 62
     0
100
AcDbLine
 10
55.505514
 20
172.47335
 30
0.0
 11
56.224954
 21
173.19279
 31
0.0
  0
LINE
  5
2C46
100
AcDbEntity
  8
0
  6
CONTINUOUS
 62
     0
100
AcDbLine
 10
65.992676
 20
182.960512
 30
0.0
 11
66.675701
 21
183.643537
 31
0.0
  0
LINE
  5
2C47
100
AcDbEntity
  8
0
  6
CONTINUOUS
 62
     0
100
AcDbLine
 10
55.622668
 20
172.365998
 30
0.0
 11
56.322961
 21
173.06629
 31
0.0
  0
LINE
  5
2C48
100
AcDbEntity
  8
0
  6
CONTINUOUS
 62
     0
100
AcDbLine
 10
66.107781
 20
182.85111
 30
0.0
 11
66.783053
 21
183.526382
 31
0.0
  0
LINE
  5
2C49
100
AcDbEntity
  8
0
  6
CONTINUOUS
 62
     0
100
AcDbLine
 10
55.739822
 20
172.258645
 30
0.0
 11
56.420967
 21
172.93979
 31
0.0
  0
LINE
  5
2C4A
100
AcDbEntity
  8
0
  6
CONTINUOUS
 62
     0
100
AcDbLine
 10
66.222885
 20
182.741709
 30
0.0
 11
66.890405
 21
183.409228
 31
0.0
  0
LINE
  5
2C4B
100
AcDbEntity
  8
0
  6
CONTINUOUS
 62
     0
100
AcDbLine
 10
55.856977
 20
172.151293
 30
0.0
 11
56.518974
 21
172.813291
 31
0.0
  0
LINE
  5
2C4C
100
AcDbEntity
  8
0
  6
CONTINUOUS
 62
     0
100
AcDbLine
 10
66.33799
 20
182.632307
 30
0.0
 11
66.997757
 21
183.292074
 31
0.0
  0
LINE
  5
2C4D
100
AcDbEntity
  8
0
  6
CONTINUOUS
 62
     0
100
AcDbLine
 10
55.974131
 20
172.043941
 30
0.0
 11
56.616981
 21
172.686791
 31
0.0
  0
LINE
  5
2C4E
100
AcDbEntity
  8
0
  6
CONTINUOUS
 62
     0
100
AcDbLine
 10
66.453095
 20
182.522905
 30
0.0
 11
67.105109
 21
183.17492
 31
0.0
  0
LINE
  5
2C4F
100
AcDbEntity
  8
0
  6
CONTINUOUS
 62
     0
100
AcDbLine
 10
56.091285
 20
171.936589
 30
0.0
 11
56.714987
 21
172.560291
 31
0.0
  0
LINE
  5
2C50
100
AcDbEntity
  8
0
  6
CONTINUOUS
 62
     0
100
AcDbLine
 10
66.568199
 20
182.413503
 30
0.0
 11
67.212461
 21
183.057765
 31
0.0
  0
LINE
  5
2C51
100
AcDbEntity
  8
0
  6
CONTINUOUS
 62
     0
100
AcDbLine
 10
56.208439
 20
171.829237
 30
0.0
 11
56.812994
 21
172.433791
 31
0.0
  0
LINE
  5
2C52
100
AcDbEntity
  8
0
  6
CONTINUOUS
 62
     0
100
AcDbLine
 10
66.683304
 20
182.304101
 30
0.0
 11
67.319814
 21
182.940611
 31
0.0
  0
LINE
  5
2C53
100
AcDbEntity
  8
0
  6
CONTINUOUS
 62
     0
100
AcDbLine
 10
56.325594
 20
171.721885
 30
0.0
 11
56.911
 21
172.307291
 31
0.0
  0
LINE
  5
2C54
100
AcDbEntity
  8
0
  6
CONTINUOUS
 62
     0
100
AcDbLine
 10
66.798408
 20
182.1947
 30
0.0
 11
67.427166
 21
182.823457
 31
0.0
  0
LINE
  5
2C55
100
AcDbEntity
  8
0
  6
CONTINUOUS
 62
     0
100
AcDbLine
 10
56.442748
 20
171.614533
 30
0.0
 11
57.009007
 21
172.180792
 31
0.0
  0
LINE
  5
2C56
100
AcDbEntity
  8
0
  6
CONTINUOUS
 62
     0
100
AcDbLine
 10
66.913513
 20
182.085298
 30
0.0
 11
67.534518
 21
182.706303
 31
0.0
  0
LINE
  5
2C57
100
AcDbEntity
  8
0
  6
CONTINUOUS
 62
     0
100
AcDbLine
 10
56.559902
 20
171.507181
 30
0.0
 11
57.107013
 21
172.054292
 31
0.0
  0
LINE
  5
2C58
100
AcDbEntity
  8
0
  6
CONTINUOUS
 62
     0
100
AcDbLine
 10
67.028618
 20
181.975896
 30
0.0
 11
67.64187
 21
182.589148
 31
0.0
  0
LINE
  5
2C59
100
AcDbEntity
  8
0
  6
CONTINUOUS
 62
     0
100
AcDbLine
 10
56.677057
 20
171.399828
 30
0.0
 11
57.20502
 21
171.927792
 31
0.0
  0
LINE
  5
2C5A
100
AcDbEntity
  8
0
  6
CONTINUOUS
 62
     0
100
AcDbLine
 10
67.143722
 20
181.866494
 30
0.0
 11
67.749222
 21
182.471994
 31
0.0
  0
LINE
  5
2C5B
100
AcDbEntity
  8
0
  6
CONTINUOUS
 62
     0
100
AcDbLine
 10
56.794211
 20
171.292476
 30
0.0
 11
57.303027
 21
171.801292
 31
0.0
  0
LINE
  5
2C5C
100
AcDbEntity
  8
0
  6
CONTINUOUS
 62
     0
100
AcDbLine
 10
67.258827
 20
181.757092
 30
0.0
 11
67.856574
 21
182.35484
 31
0.0
  0
LINE
  5
2C5D
100
AcDbEntity
  8
0
  6
CONTINUOUS
 62
     0
100
AcDbLine
 10
56.911365
 20
171.185124
 30
0.0
 11
57.401033
 21
171.674792
 31
0.0
  0
LINE
  5
2C5E
100
AcDbEntity
  8
0
  6
CONTINUOUS
 62
     0
100
AcDbLine
 10
67.373931
 20
181.64769
 30
0.0
 11
67.963926
 21
182.237685
 31
0.0
  0
LINE
  5
2C5F
100
AcDbEntity
  8
0
  6
CONTINUOUS
 62
     0
100
AcDbLine
 10
57.028519
 20
171.077772
 30
0.0
 11
57.49904
 21
171.548293
 31
0.0
  0
LINE
  5
2C60
100
AcDbEntity
  8
0
  6
CONTINUOUS
 62
     0
100
AcDbLine
 10
67.489036
 20
181.538289
 30
0.0
 11
68.071278
 21
182.120531
 31
0.0
  0
LINE
  5
2C61
100
AcDbEntity
  8
0
  6
CONTINUOUS
 62
     0
100
AcDbLine
 10
57.145674
 20
170.97042
 30
0.0
 11
57.597046
 21
171.421793
 31
0.0
  0
LINE
  5
2C62
100
AcDbEntity
  8
0
  6
CONTINUOUS
 62
     0
100
AcDbLine
 10
67.60414
 20
181.428887
 30
0.0
 11
68.17863
 21
182.003377
 31
0.0
  0
LINE
  5
2C63
100
AcDbEntity
  8
0
  6
CONTINUOUS
 62
     0
100
AcDbLine
 10
57.262828
 20
170.863068
 30
0.0
 11
57.695053
 21
171.295293
 31
0.0
  0
LINE
  5
2C64
100
AcDbEntity
  8
0
  6
CONTINUOUS
 62
     0
100
AcDbLine
 10
67.719245
 20
181.319485
 30
0.0
 11
68.285983
 21
181.886223
 31
0.0
  0
LINE
  5
2C65
100
AcDbEntity
  8
0
  6
CONTINUOUS
 62
     0
100
AcDbLine
 10
57.379982
 20
170.755716
 30
0.0
 11
57.79306
 21
171.168793
 31
0.0
  0
LINE
  5
2C66
100
AcDbEntity
  8
0
  6
CONTINUOUS
 62
     0
100
AcDbLine
 10
67.83435
 20
181.210083
 30
0.0
 11
68.393335
 21
181.769068
 31
0.0
  0
LINE
  5
2C67
100
AcDbEntity
  8
0
  6
CONTINUOUS
 62
     0
100
AcDbLine
 10
57.497137
 20
170.648364
 30
0.0
 11
57.891066
 21
171.042293
 31
0.0
  0
LINE
  5
2C68
100
AcDbEntity
  8
0
  6
CONTINUOUS
 62
     0
100
AcDbLine
 10
67.949454
 20
181.100681
 30
0.0
 11
68.500687
 21
181.651914
 31
0.0
  0
LINE
  5
2C69
100
AcDbEntity
  8
0
  6
CONTINUOUS
 62
     0
100
AcDbLine
 10
57.614291
 20
170.541012
 30
0.0
 11
57.989073
 21
170.915794
 31
0.0
  0
LINE
  5
2C6A
100
AcDbEntity
  8
0
  6
CONTINUOUS
 62
     0
100
AcDbLine
 10
68.064559
 20
180.99128
 30
0.0
 11
68.608039
 21
181.53476
 31
0.0
  0
LINE
  5
2C6B
100
AcDbEntity
  8
0
  6
CONTINUOUS
 62
     0
100
AcDbLine
 10
57.731445
 20
170.433659
 30
0.0
 11
58.087079
 21
170.789294
 31
0.0
  0
LINE
  5
2C6C
100
AcDbEntity
  8
0
  6
CONTINUOUS
 62
     0
100
AcDbLine
 10
68.179663
 20
180.881878
 30
0.0
 11
68.715391
 21
181.417605
 31
0.0
  0
LINE
  5
2C6D
100
AcDbEntity
  8
0
  6
CONTINUOUS
 62
     0
100
AcDbLine
 10
57.848599
 20
170.326307
 30
0.0
 11
58.185086
 21
170.662794
 31
0.0
  0
LINE
  5
2C6E
100
AcDbEntity
  8
0
  6
CONTINUOUS
 62
     0
100
AcDbLine
 10
68.294768
 20
180.772476
 30
0.0
 11
68.822743
 21
181.300451
 31
0.0
  0
LINE
  5
2C6F
100
AcDbEntity
  8
0
  6
CONTINUOUS
 62
     0
100
AcDbLine
 10
57.965754
 20
170.218955
 30
0.0
 11
58.283093
 21
170.536294
 31
0.0
  0
LINE
  5
2C70
100
AcDbEntity
  8
0
  6
CONTINUOUS
 62
     0
100
AcDbLine
 10
68.409873
 20
180.663074
 30
0.0
 11
68.930095
 21
181.183297
 31
0.0
  0
LINE
  5
2C71
100
AcDbEntity
  8
0
  6
CONTINUOUS
 62
     0
100
AcDbLine
 10
58.082908
 20
170.111603
 30
0.0
 11
58.381099
 21
170.409794
 31
0.0
  0
LINE
  5
2C72
100
AcDbEntity
  8
0
  6
CONTINUOUS
 62
     0
100
AcDbLine
 10
68.524977
 20
180.553672
 30
0.0
 11
69.037447
 21
181.066143
 31
0.0
  0
LINE
  5
2C73
100
AcDbEntity
  8
0
  6
CONTINUOUS
 62
     0
100
AcDbLine
 10
58.200062
 20
170.004251
 30
0.0
 11
58.479106
 21
170.283294
 31
0.0
  0
LINE
  5
2C74
100
AcDbEntity
  8
0
  6
CONTINUOUS
 62
     0
100
AcDbLine
 10
68.640082
 20
180.44427
 30
0.0
 11
69.1448
 21
180.948988
 31
0.0
  0
LINE
  5
2C75
100
AcDbEntity
  8
0
  6
CONTINUOUS
 62
     0
100
AcDbLine
 10
58.317216
 20
169.896899
 30
0.0
 11
58.577112
 21
170.156795
 31
0.0
  0
LINE
  5
2C76
100
AcDbEntity
  8
0
  6
CONTINUOUS
 62
     0
100
AcDbLine
 10
68.755186
 20
180.334869
 30
0.0
 11
69.252152
 21
180.831834
 31
0.0
  0
LINE
  5
2C77
100
AcDbEntity
  8
0
  6
CONTINUOUS
 62
     0
100
AcDbLine
 10
58.434371
 20
169.789547
 30
0.0
 11
58.675119
 21
170.030295
 31
0.0
  0
LINE
  5
2C78
100
AcDbEntity
  8
0
  6
CONTINUOUS
 62
     0
100
AcDbLine
 10
68.870291
 20
180.225467
 30
0.0
 11
69.359504
 21
180.71468
 31
0.0
  0
LINE
  5
2C79
100
AcDbEntity
  8
0
  6
CONTINUOUS
 62
     0
100
AcDbLine
 10
58.551525
 20
169.682195
 30
0.0
 11
58.773126
 21
169.903795
 31
0.0
  0
LINE
  5
2C7A
100
AcDbEntity
  8
0
  6
CONTINUOUS
 62
     0
100
AcDbLine
 10
68.985396
 20
180.116065
 30
0.0
 11
69.466856
 21
180.597525
 31
0.0
  0
LINE
  5
2C7B
100
AcDbEntity
  8
0
  6
CONTINUOUS
 62
     0
100
AcDbLine
 10
58.668679
 20
169.574842
 30
0.0
 11
58.871132
 21
169.777295
 31
0.0
  0
LINE
  5
2C7C
100
AcDbEntity
  8
0
  6
CONTINUOUS
 62
     0
100
AcDbLine
 10
69.1005
 20
180.006663
 30
0.0
 11
69.574208
 21
180.480371
 31
0.0
  0
LINE
  5
2C7D
100
AcDbEntity
  8
0
  6
CONTINUOUS
 62
     0
100
AcDbLine
 10
58.785834
 20
169.46749
 30
0.0
 11
58.969139
 21
169.650795
 31
0.0
  0
LINE
  5
2C7E
100
AcDbEntity
  8
0
  6
CONTINUOUS
 62
     0
100
AcDbLine
 10
69.215605
 20
179.897261
 30
0.0
 11
69.68156
 21
180.363217
 31
0.0
  0
LINE
  5
2C7F
100
AcDbEntity
  8
0
  6
CONTINUOUS
 62
     0
100
AcDbLine
 10
58.902988
 20
169.360138
 30
0.0
 11
59.067145
 21
169.524296
 31
0.0
  0
LINE
  5
2C80
100
AcDbEntity
  8
0
  6
CONTINUOUS
 62
     0
100
AcDbLine
 10
69.330709
 20
179.78786
 30
0.0
 11
69.788912
 21
180.246063
 31
0.0
  0
LINE
  5
2C81
100
AcDbEntity
  8
0
  6
CONTINUOUS
 62
     0
100
AcDbLine
 10
59.020142
 20
169.252786
 30
0.0
 11
59.165152
 21
169.397796
 31
0.0
  0
LINE
  5
2C82
100
AcDbEntity
  8
0
  6
CONTINUOUS
 62
     0
100
AcDbLine
 10
69.445814
 20
179.678458
 30
0.0
 11
69.896264
 21
180.128908
 31
0.0
  0
LINE
  5
2C83
100
AcDbEntity
  8
0
  6
CONTINUOUS
 62
     0
100
AcDbLine
 10
59.137296
 20
169.145434
 30
0.0
 11
59.263158
 21
169.271296
 31
0.0
  0
LINE
  5
2C84
100
AcDbEntity
  8
0
  6
CONTINUOUS
 62
     0
100
AcDbLine
 10
69.560918
 20
179.569056
 30
0.0
 11
70.003617
 21
180.011754
 31
0.0
  0
LINE
  5
2C85
100
AcDbEntity
  8
0
  6
CONTINUOUS
 62
     0
100
AcDbLine
 10
59.254451
 20
169.038082
 30
0.0
 11
59.361165
 21
169.144796
 31
0.0
  0
LINE
  5
2C86
100
AcDbEntity
  8
0
  6
CONTINUOUS
 62
     0
100
AcDbLine
 10
69.676023
 20
179.459654
 30
0.0
 11
70.110969
 21
179.8946
 31
0.0
  0
LINE
  5
2C87
100
AcDbEntity
  8
0
  6
CONTINUOUS
 62
     0
100
AcDbLine
 10
59.371605
 20
168.93073
 30
0.0
 11
59.459172
 21
169.018296
 31
0.0
  0
LINE
  5
2C88
100
AcDbEntity
  8
0
  6
CONTINUOUS
 62
     0
100
AcDbLine
 10
69.791128
 20
179.350252
 30
0.0
 11
70.218321
 21
179.777445
 31
0.0
  0
LINE
  5
2C89
100
AcDbEntity
  8
0
  6
CONTINUOUS
 62
     0
100
AcDbLine
 10
59.488759
 20
168.823378
 30
0.0
 11
59.557178
 21
168.891797
 31
0.0
  0
LINE
  5
2C8A
100
AcDbEntity
  8
0
  6
CONTINUOUS
 62
     0
100
AcDbLine
 10
69.906232
 20
179.240851
 30
0.0
 11
70.325673
 21
179.660291
 31
0.0
  0
LINE
  5
2C8B
100
AcDbEntity
  8
0
  6
CONTINUOUS
 62
     0
100
AcDbLine
 10
59.605914
 20
168.716025
 30
0.0
 11
59.655185
 21
168.765297
 31
0.0
  0
LINE
  5
2C8C
100
AcDbEntity
  8
0
  6
CONTINUOUS
 62
     0
100
AcDbLine
 10
70.021337
 20
179.131449
 30
0.0
 11
70.433025
 21
179.543137
 31
0.0
  0
LINE
  5
2C8D
100
AcDbEntity
  8
0
  6
CONTINUOUS
 62
     0
100
AcDbLine
 10
59.723068
 20
168.608673
 30
0.0
 11
59.753191
 21
168.638797
 31
0.0
  0
LINE
  5
2C8E
100
AcDbEntity
  8
0
  6
CONTINUOUS
 62
     0
100
AcDbLine
 10
70.136441
 20
179.022047
 30
0.0
 11
70.540377
 21
179.425983
 31
0.0
  0
LINE
  5
2C8F
100
AcDbEntity
  8
0
  6
CONTINUOUS
 62
     0
100
AcDbLine
 10
59.840222
 20
168.501321
 30
0.0
 11
59.851198
 21
168.512297
 31
0.0
  0
LINE
  5
2C90
100
AcDbEntity
  8
0
  6
CONTINUOUS
 62
     0
100
AcDbLine
 10
70.251546
 20
178.912645
 30
0.0
 11
70.647729
 21
179.308828
 31
0.0
  0
LINE
  5
2C91
100
AcDbEntity
  8
0
  6
CONTINUOUS
 62
     0
100
AcDbLine
 10
70.366651
 20
178.803243
 30
0.0
 11
70.755081
 21
179.191674
 31
0.0
  0
LINE
  5
2C92
100
AcDbEntity
  8
0
  6
CONTINUOUS
 62
     0
100
AcDbLine
 10
70.481755
 20
178.693841
 30
0.0
 11
70.862434
 21
179.07452
 31
0.0
  0
LINE
  5
2C93
100
AcDbEntity
  8
0
  6
CONTINUOUS
 62
     0
100
AcDbLine
 10
70.59686
 20
178.58444
 30
0.0
 11
70.969786
 21
178.957365
 31
0.0
  0
LINE
  5
2C94
100
AcDbEntity
  8
0
  6
CONTINUOUS
 62
     0
100
AcDbLine
 10
70.711964
 20
178.475038
 30
0.0
 11
71.077138
 21
178.840211
 31
0.0
  0
LINE
  5
2C95
100
AcDbEntity
  8
0
  6
CONTINUOUS
 62
     0
100
AcDbLine
 10
70.827069
 20
178.365636
 30
0.0
 11
71.18449
 21
178.723057
 31
0.0
  0
LINE
  5
2C96
100
AcDbEntity
  8
0
  6
CONTINUOUS
 62
     0
100
AcDbLine
 10
70.942174
 20
178.256234
 30
0.0
 11
71.291842
 21
178.605903
 31
0.0
  0
LINE
  5
2C97
100
AcDbEntity
  8
0
  6
CONTINUOUS
 62
     0
100
AcDbLine
 10
71.057278
 20
178.146832
 30
0.0
 11
71.399194
 21
178.488748
 31
0.0
  0
LINE
  5
2C98
100
AcDbEntity
  8
0
  6
CONTINUOUS
 62
     0
100
AcDbLine
 10
71.172383
 20
178.037431
 30
0.0
 11
71.506546
 21
178.371594
 31
0.0
  0
LINE
  5
2C99
100
AcDbEntity
  8
0
  6
CONTINUOUS
 62
     0
100
AcDbLine
 10
71.287487
 20
177.928029
 30
0.0
 11
71.613898
 21
178.25444
 31
0.0
  0
LINE
  5
2C9A
100
AcDbEntity
  8
0
  6
CONTINUOUS
 62
     0
100
AcDbLine
 10
71.402592
 20
177.818627
 30
0.0
 11
71.72125
 21
178.137286
 31
0.0
  0
LINE
  5
2C9B
100
AcDbEntity
  8
0
  6
CONTINUOUS
 62
     0
100
AcDbLine
 10
71.517696
 20
177.709225
 30
0.0
 11
71.828603
 21
178.020131
 31
0.0
  0
LINE
  5
2C9C
100
AcDbEntity
  8
0
  6
CONTINUOUS
 62
     0
100
AcDbLine
 10
71.632801
 20
177.599823
 30
0.0
 11
71.935955
 21
177.902977
 31
0.0
  0
LINE
  5
2C9D
100
AcDbEntity
  8
0
  6
CONTINUOUS
 62
     0
100
AcDbLine
 10
71.747906
 20
177.490421
 30
0.0
 11
72.043307
 21
177.785823
 31
0.0
  0
LINE
  5
2C9E
100
AcDbEntity
  8
0
  6
CONTINUOUS
 62
     0
100
AcDbLine
 10
71.86301
 20
177.38102
 30
0.0
 11
72.150659
 21
177.668668
 31
0.0
  0
LINE
  5
2C9F
100
AcDbEntity
  8
0
  6
CONTINUOUS
 62
     0
100
AcDbLine
 10
71.978115
 20
177.271618
 30
0.0
 11
72.258011
 21
177.551514
 31
0.0
  0
LINE
  5
2CA0
100
AcDbEntity
  8
0
  6
CONTINUOUS
 62
     0
100
AcDbLine
 10
72.093219
 20
177.162216
 30
0.0
 11
72.365363
 21
177.43436
 31
0.0
  0
LINE
  5
2CA1
100
AcDbEntity
  8
0
  6
CONTINUOUS
 62
     0
100
AcDbLine
 10
72.208324
 20
177.052814
 30
0.0
 11
72.472715
 21
177.317206
 31
0.0
  0
LINE
  5
2CA2
100
AcDbEntity
  8
0
  6
CONTINUOUS
 62
     0
100
AcDbLine
 10
72.323429
 20
176.943412
 30
0.0
 11
72.580067
 21
177.200051
 31
0.0
  0
LINE
  5
2CA3
100
AcDbEntity
  8
0
  6
CONTINUOUS
 62
     0
100
AcDbLine
 10
72.438533
 20
176.834011
 30
0.0
 11
72.68742
 21
177.082897
 31
0.0
  0
LINE
  5
2CA4
100
AcDbEntity
  8
0
  6
CONTINUOUS
 62
     0
100
AcDbLine
 10
72.553638
 20
176.724609
 30
0.0
 11
72.794772
 21
176.965743
 31
0.0
  0
LINE
  5
2CA5
100
AcDbEntity
  8
0
  6
CONTINUOUS
 62
     0
100
AcDbLine
 10
72.668742
 20
176.615207
 30
0.0
 11
72.902124
 21
176.848588
 31
0.0
  0
LINE
  5
2CA6
100
AcDbEntity
  8
0
  6
CONTINUOUS
 62
     0
100
AcDbLine
 10
72.783847
 20
176.505805
 30
0.0
 11
73.009476
 21
176.731434
 31
0.0
  0
LINE
  5
2CA7
100
AcDbEntity
  8
0
  6
CONTINUOUS
 62
     0
100
AcDbLine
 10
72.898952
 20
176.396403
 30
0.0
 11
73.116828
 21
176.61428
 31
0.0
  0
LINE
  5
2CA8
100
AcDbEntity
  8
0
  6
CONTINUOUS
 62
     0
100
AcDbLine
 10
73.014056
 20
176.287002
 30
0.0
 11
73.22418
 21
176.497126
 31
0.0
  0
LINE
  5
2CA9
100
AcDbEntity
  8
0
  6
CONTINUOUS
 62
     0
100
AcDbLine
 10
73.129161
 20
176.1776
 30
0.0
 11
73.331532
 21
176.379971
 31
0.0
  0
LINE
  5
2CAA
100
AcDbEntity
  8
0
  6
CONTINUOUS
 62
     0
100
AcDbLine
 10
73.244265
 20
176.068198
 30
0.0
 11
73.438884
 21
176.262817
 31
0.0
  0
LINE
  5
2CAB
100
AcDbEntity
  8
0
  6
CONTINUOUS
 62
     0
100
AcDbLine
 10
73.35937
 20
175.958796
 30
0.0
 11
73.546237
 21
176.145663
 31
0.0
  0
LINE
  5
2CAC
100
AcDbEntity
  8
0
  6
CONTINUOUS
 62
     0
100
AcDbLine
 10
73.474474
 20
175.849394
 30
0.0
 11
73.653589
 21
176.028508
 31
0.0
  0
LINE
  5
2CAD
100
AcDbEntity
  8
0
  6
CONTINUOUS
 62
     0
100
AcDbLine
 10
73.589579
 20
175.739992
 30
0.0
 11
73.760941
 21
175.911354
 31
0.0
  0
LINE
  5
2CAE
100
AcDbEntity
  8
0
  6
CONTINUOUS
 62
     0
100
AcDbLine
 10
73.704684
 20
175.630591
 30
0.0
 11
73.868293
 21
175.7942
 31
0.0
  0
LINE
  5
2CAF
100
AcDbEntity
  8
0
  6
CONTINUOUS
 62
     0
100
AcDbLine
 10
73.819788
 20
175.521189
 30
0.0
 11
73.975645
 21
175.677046
 31
0.0
  0
LINE
  5
2CB0
100
AcDbEntity
  8
0
  6
CONTINUOUS
 62
     0
100
AcDbLine
 10
73.934893
 20
175.411787
 30
0.0
 11
74.082997
 21
175.559891
 31
0.0
  0
LINE
  5
2CB1
100
AcDbEntity
  8
0
  6
CONTINUOUS
 62
     0
100
AcDbLine
 10
74.049997
 20
175.302385
 30
0.0
 11
74.190349
 21
175.442737
 31
0.0
  0
LINE
  5
2CB2
100
AcDbEntity
  8
0
  6
CONTINUOUS
 62
     0
100
AcDbLine
 10
74.165102
 20
175.192983
 30
0.0
 11
74.297701
 21
175.325583
 31
0.0
  0
LINE
  5
2CB3
100
AcDbEntity
  8
0
  6
CONTINUOUS
 62
     0
100
AcDbLine
 10
74.280207
 20
175.083582
 30
0.0
 11
74.405053
 21
175.208428
 31
0.0
  0
LINE
  5
2CB4
100
AcDbEntity
  8
0
  6
CONTINUOUS
 62
     0
100
AcDbLine
 10
74.395311
 20
174.97418
 30
0.0
 11
74.512406
 21
175.091274
 31
0.0
  0
LINE
  5
2CB5
100
AcDbEntity
  8
0
  6
CONTINUOUS
 62
     0
100
AcDbLine
 10
74.510416
 20
174.864778
 30
0.0
 11
74.619758
 21
174.97412
 31
0.0
  0
LINE
  5
2CB6
100
AcDbEntity
  8
0
  6
CONTINUOUS
 62
     0
100
AcDbLine
 10
74.62552
 20
174.755376
 30
0.0
 11
74.72711
 21
174.856966
 31
0.0
  0
LINE
  5
2CB7
100
AcDbEntity
  8
0
  6
CONTINUOUS
 62
     0
100
AcDbLine
 10
74.740625
 20
174.645974
 30
0.0
 11
74.834462
 21
174.739811
 31
0.0
  0
LINE
  5
2CB8
100
AcDbEntity
  8
0
  6
CONTINUOUS
 62
     0
100
AcDbLine
 10
74.85573
 20
174.536572
 30
0.0
 11
74.941814
 21
174.622657
 31
0.0
  0
LINE
  5
2CB9
100
AcDbEntity
  8
0
  6
CONTINUOUS
 62
     0
100
AcDbLine
 10
74.970834
 20
174.427171
 30
0.0
 11
75.049166
 21
174.505503
 31
0.0
  0
LINE
  5
2CBA
100
AcDbEntity
  8
0
  6
CONTINUOUS
 62
     0
100
AcDbLine
 10
75.085939
 20
174.317769
 30
0.0
 11
75.156518
 21
174.388348
 31
0.0
  0
LINE
  5
2CBB
100
AcDbEntity
  8
0
  6
CONTINUOUS
 62
     0
100
AcDbLine
 10
75.201043
 20
174.208367
 30
0.0
 11
75.26387
 21
174.271194
 31
0.0
  0
LINE
  5
2CBC
100
AcDbEntity
  8
0
  6
CONTINUOUS
 62
     0
100
AcDbLine
 10
75.316148
 20
174.098965
 30
0.0
 11
75.371223
 21
174.15404
 31
0.0
  0
LINE
  5
2CBD
100
AcDbEntity
  8
0
  6
CONTINUOUS
 62
     0
100
AcDbLine
 10
75.431252
 20
173.989563
 30
0.0
 11
75.478575
 21
174.036886
 31
0.0
  0
LINE
  5
2CBE
100
AcDbEntity
  8
0
  6
CONTINUOUS
 62
     0
100
AcDbLine
 10
75.546357
 20
173.880162
 30
0.0
 11
75.585927
 21
173.919731
 31
0.0
  0
LINE
  5
2CBF
100
AcDbEntity
  8
0
  6
CONTINUOUS
 62
     0
100
AcDbLine
 10
75.661462
 20
173.77076
 30
0.0
 11
75.693279
 21
173.802577
 31
0.0
  0
LINE
  5
2CC0
100
AcDbEntity
  8
0
  6
CONTINUOUS
 62
     0
100
AcDbLine
 10
75.776566
 20
173.661358
 30
0.0
 11
75.800631
 21
173.685423
 31
0.0
  0
LINE
  5
2CC1
100
AcDbEntity
  8
0
  6
CONTINUOUS
 62
     0
100
AcDbLine
 10
75.891671
 20
173.551956
 30
0.0
 11
75.907983
 21
173.568269
 31
0.0
  0
LINE
  5
2CC2
100
AcDbEntity
  8
0
  6
CONTINUOUS
 62
     0
100
AcDbLine
 10
76.006775
 20
173.442554
 30
0.0
 11
76.015335
 21
173.451114
 31
0.0
  0
LINE
  5
2CC3
100
AcDbEntity
  8
0
  6
CONTINUOUS
 62
     0
100
AcDbLine
 10
76.12188
 20
173.333153
 30
0.0
 11
76.122687
 21
173.33396
 31
0.0
  0
ENDBLK
  5
2CC5
100
AcDbEntity
  8
0
100
AcDbBlockEnd
  0
BLOCK
  5
2D3F
100
AcDbEntity
  8
0
100
AcDbBlockBegin
  2
*X2
 70
    65
 10
0.0
 20
0.0
 30
0.0
  3
*X2
  1

  0
LINE
  5
2CC7
100
AcDbEntity
  8
0
  6
CONTINUOUS
 62
     0
100
AcDbLine
 10
106.2405
 20
193.124478
 30
0.0
 11
109.2405
 21
196.124478
 31
0.0
  0
LINE
  5
2CC8
100
AcDbEntity
  8
0
  6
CONTINUOUS
 62
     0
100
AcDbLine
 10
106.2405
 20
193.348985
 30
0.0
 11
109.173096
 21
196.281581
 31
0.0
  0
LINE
  5
2CC9
100
AcDbEntity
  8
0
  6
CONTINUOUS
 62
     0
100
AcDbLine
 10
106.2405
 20
193.573491
 30
0.0
 11
109.060843
 21
196.393834
 31
0.0
  0
LINE
  5
2CCA
100
AcDbEntity
  8
0
  6
CONTINUOUS
 62
     0
100
AcDbLine
 10
106.2405
 20
193.797997
 30
0.0
 11
108.94859
 21
196.506087
 31
0.0
  0
LINE
  5
2CCB
100
AcDbEntity
  8
0
  6
CONTINUOUS
 62
     0
100
AcDbLine
 10
106.2405
 20
194.022504
 30
0.0
 11
108.836337
 21
196.61834
 31
0.0
  0
LINE
  5
2CCC
100
AcDbEntity
  8
0
  6
CONTINUOUS
 62
     0
100
AcDbLine
 10
106.207667
 20
194.214177
 30
0.0
 11
108.724084
 21
196.730594
 31
0.0
  0
LINE
  5
2CCD
100
AcDbEntity
  8
0
  6
CONTINUOUS
 62
     0
100
AcDbLine
 10
105.983161
 20
194.214177
 30
0.0
 11
108.61183
 21
196.842847
 31
0.0
  0
LINE
  5
2CCE
100
AcDbEntity
  8
0
  6
CONTINUOUS
 62
     0
100
AcDbLine
 10
105.758654
 20
194.214177
 30
0.0
 11
108.499577
 21
196.9551
 31
0.0
  0
LINE
  5
2CCF
100
AcDbEntity
  8
0
  6
CONTINUOUS
 62
     0
100
AcDbLine
 10
105.534148
 20
194.214177
 30
0.0
 11
108.387324
 21
197.067353
 31
0.0
  0
LINE
  5
2CD0
100
AcDbEntity
  8
0
  6
CONTINUOUS
 62
     0
100
AcDbLine
 10
105.309641
 20
194.214177
 30
0.0
 11
108.275071
 21
197.179606
 31
0.0
  0
LINE
  5
2CD1
100
AcDbEntity
  8
0
  6
CONTINUOUS
 62
     0
100
AcDbLine
 10
105.084816
 20
194.213858
 30
0.0
 11
108.085135
 21
197.214177
 31
0.0
  0
LINE
  5
2CD2
100
AcDbEntity
  8
0
  6
CONTINUOUS
 62
     0
100
AcDbLine
 10
104.840999
 20
194.194547
 30
0.0
 11
107.860629
 21
197.214177
 31
0.0
  0
LINE
  5
2CD3
100
AcDbEntity
  8
0
  6
CONTINUOUS
 62
     0
100
AcDbLine
 10
104.554295
 20
194.13235
 30
0.0
 11
107.636122
 21
197.214177
 31
0.0
  0
LINE
  5
2CD4
100
AcDbEntity
  8
0
  6
CONTINUOUS
 62
     0
100
AcDbLine
 10
104.172833
 20
193.975395
 30
0.0
 11
107.411616
 21
197.214177
 31
0.0
  0
LINE
  5
2CD5
100
AcDbEntity
  8
0
  6
CONTINUOUS
 62
     0
100
AcDbLine
 10
101.370259
 20
191.397327
 30
0.0
 11
107.187109
 21
197.214177
 31
0.0
  0
LINE
  5
2CD6
100
AcDbEntity
  8
0
  6
CONTINUOUS
 62
     0
100
AcDbLine
 10
96.625405
 20
186.876979
 30
0.0
 11
106.962603
 21
197.214177
 31
0.0
  0
LINE
  5
2CD7
100
AcDbEntity
  8
0
  6
CONTINUOUS
 62
     0
100
AcDbLine
 10
91.88055
 20
182.35663
 30
0.0
 11
106.738097
 21
197.214177
 31
0.0
  0
LINE
  5
2CD8
100
AcDbEntity
  8
0
  6
CONTINUOUS
 62
     0
100
AcDbLine
 10
87.135695
 20
177.836282
 30
0.0
 11
106.51359
 21
197.214177
 31
0.0
  0
LINE
  5
2CD9
100
AcDbEntity
  8
0
  6
CONTINUOUS
 62
     0
100
AcDbLine
 10
82.390841
 20
173.315934
 30
0.0
 11
106.289084
 21
197.214177
 31
0.0
  0
LINE
  5
2CDA
100
AcDbEntity
  8
0
  6
CONTINUOUS
 62
     0
100
AcDbLine
 10
84.263421
 20
175.413021
 30
0.0
 11
106.064577
 21
197.214177
 31
0.0
  0
LINE
  5
2CDB
100
AcDbEntity
  8
0
  6
CONTINUOUS
 62
     0
100
AcDbLine
 10
86.722189
 20
178.096295
 30
0.0
 11
105.840071
 21
197.214177
 31
0.0
  0
LINE
  5
2CDC
100
AcDbEntity
  8
0
  6
CONTINUOUS
 62
     0
100
AcDbLine
 10
89.180957
 20
180.779569
 30
0.0
 11
105.615564
 21
197.214177
 31
0.0
  0
LINE
  5
2CDD
100
AcDbEntity
  8
0
  6
CONTINUOUS
 62
     0
100
AcDbLine
 10
91.639725
 20
183.462843
 30
0.0
 11
105.391058
 21
197.214177
 31
0.0
  0
LINE
  5
2CDE
100
AcDbEntity
  8
0
  6
CONTINUOUS
 62
     0
100
AcDbLine
 10
94.098492
 20
186.146118
 30
0.0
 11
105.166552
 21
197.214177
 31
0.0
  0
LINE
  5
2CDF
100
AcDbEntity
  8
0
  6
CONTINUOUS
 62
     0
100
AcDbLine
 10
96.55726
 20
188.829392
 30
0.0
 11
104.933259
 21
197.205391
 31
0.0
  0
LINE
  5
2CE0
100
AcDbEntity
  8
0
  6
CONTINUOUS
 62
     0
100
AcDbLine
 10
99.016028
 20
191.512666
 30
0.0
 11
104.664965
 21
197.161603
 31
0.0
  0
LINE
  5
2CE1
100
AcDbEntity
  8
0
  6
CONTINUOUS
 62
     0
100
AcDbLine
 10
101.474796
 20
194.19594
 30
0.0
 11
104.330299
 21
197.051444
 31
0.0
  0
LINE
  5
2CE2
100
AcDbEntity
  8
0
  6
CONTINUOUS
 62
     0
100
AcDbLine
 10
106.2405
 20
192.899972
 30
0.0
 11
109.2405
 21
195.899972
 31
0.0
  0
LINE
  5
2CE3
100
AcDbEntity
  8
0
  6
CONTINUOUS
 62
     0
100
AcDbLine
 10
106.2405
 20
192.675465
 30
0.0
 11
109.2405
 21
195.675465
 31
0.0
  0
LINE
  5
2CE4
100
AcDbEntity
  8
0
  6
CONTINUOUS
 62
     0
100
AcDbLine
 10
106.2405
 20
192.450959
 30
0.0
 11
109.2405
 21
195.450959
 31
0.0
  0
LINE
  5
2CE5
100
AcDbEntity
  8
0
  6
CONTINUOUS
 62
     0
100
AcDbLine
 10
106.2405
 20
192.226453
 30
0.0
 11
109.2405
 21
195.226453
 31
0.0
  0
LINE
  5
2CE6
100
AcDbEntity
  8
0
  6
CONTINUOUS
 62
     0
100
AcDbLine
 10
106.2405
 20
192.001946
 30
0.0
 11
109.2405
 21
195.001946
 31
0.0
  0
LINE
  5
2CE7
100
AcDbEntity
  8
0
  6
CONTINUOUS
 62
     0
100
AcDbLine
 10
106.2405
 20
191.77744
 30
0.0
 11
109.2405
 21
194.77744
 31
0.0
  0
LINE
  5
2CE8
100
AcDbEntity
  8
0
  6
CONTINUOUS
 62
     0
100
AcDbLine
 10
106.2405
 20
191.552933
 30
0.0
 11
109.2405
 21
194.552933
 31
0.0
  0
LINE
  5
2CE9
100
AcDbEntity
  8
0
  6
CONTINUOUS
 62
     0
100
AcDbLine
 10
106.2405
 20
191.328427
 30
0.0
 11
109.2405
 21
194.328427
 31
0.0
  0
LINE
  5
2CEA
100
AcDbEntity
  8
0
  6
CONTINUOUS
 62
     0
100
AcDbLine
 10
106.2405
 20
191.103921
 30
0.0
 11
109.2405
 21
194.103921
 31
0.0
  0
LINE
  5
2CEB
100
AcDbEntity
  8
0
  6
CONTINUOUS
 62
     0
100
AcDbLine
 10
106.2405
 20
190.879414
 30
0.0
 11
109.2405
 21
193.879414
 31
0.0
  0
LINE
  5
2CEC
100
AcDbEntity
  8
0
  6
CONTINUOUS
 62
     0
100
AcDbLine
 10
106.2405
 20
190.654908
 30
0.0
 11
109.2405
 21
193.654908
 31
0.0
  0
LINE
  5
2CED
100
AcDbEntity
  8
0
  6
CONTINUOUS
 62
     0
100
AcDbLine
 10
106.2405
 20
190.430401
 30
0.0
 11
109.2405
 21
193.430401
 31
0.0
  0
LINE
  5
2CEE
100
AcDbEntity
  8
0
  6
CONTINUOUS
 62
     0
100
AcDbLine
 10
106.2405
 20
190.205895
 30
0.0
 11
109.2405
 21
193.205895
 31
0.0
  0
LINE
  5
2CEF
100
AcDbEntity
  8
0
  6
CONTINUOUS
 62
     0
100
AcDbLine
 10
106.2405
 20
189.981388
 30
0.0
 11
109.2405
 21
192.981388
 31
0.0
  0
LINE
  5
2CF0
100
AcDbEntity
  8
0
  6
CONTINUOUS
 62
     0
100
AcDbLine
 10
106.2405
 20
189.756882
 30
0.0
 11
109.2405
 21
192.756882
 31
0.0
  0
LINE
  5
2CF1
100
AcDbEntity
  8
0
  6
CONTINUOUS
 62
     0
100
AcDbLine
 10
106.2405
 20
189.532376
 30
0.0
 11
109.2405
 21
192.532376
 31
0.0
  0
LINE
  5
2CF2
100
AcDbEntity
  8
0
  6
CONTINUOUS
 62
     0
100
AcDbLine
 10
106.2405
 20
189.307869
 30
0.0
 11
109.2405
 21
192.307869
 31
0.0
  0
LINE
  5
2CF3
100
AcDbEntity
  8
0
  6
CONTINUOUS
 62
     0
100
AcDbLine
 10
106.2405
 20
189.083363
 30
0.0
 11
109.2405
 21
192.083363
 31
0.0
  0
LINE
  5
2CF4
100
AcDbEntity
  8
0
  6
CONTINUOUS
 62
     0
100
AcDbLine
 10
106.2405
 20
188.858856
 30
0.0
 11
109.2405
 21
191.858856
 31
0.0
  0
LINE
  5
2CF5
100
AcDbEntity
  8
0
  6
CONTINUOUS
 62
     0
100
AcDbLine
 10
106.2405
 20
188.63435
 30
0.0
 11
109.2405
 21
191.63435
 31
0.0
  0
LINE
  5
2CF6
100
AcDbEntity
  8
0
  6
CONTINUOUS
 62
     0
100
AcDbLine
 10
106.2405
 20
188.409844
 30
0.0
 11
109.2405
 21
191.409844
 31
0.0
  0
LINE
  5
2CF7
100
AcDbEntity
  8
0
  6
CONTINUOUS
 62
     0
100
AcDbLine
 10
106.2405
 20
188.185337
 30
0.0
 11
109.2405
 21
191.185337
 31
0.0
  0
LINE
  5
2CF8
100
AcDbEntity
  8
0
  6
CONTINUOUS
 62
     0
100
AcDbLine
 10
106.2405
 20
187.960831
 30
0.0
 11
109.2405
 21
190.960831
 31
0.0
  0
LINE
  5
2CF9
100
AcDbEntity
  8
0
  6
CONTINUOUS
 62
     0
100
AcDbLine
 10
106.2405
 20
187.736324
 30
0.0
 11
109.2405
 21
190.736324
 31
0.0
  0
LINE
  5
2CFA
100
AcDbEntity
  8
0
  6
CONTINUOUS
 62
     0
100
AcDbLine
 10
106.2405
 20
187.511818
 30
0.0
 11
109.2405
 21
190.511818
 31
0.0
  0
LINE
  5
2CFB
100
AcDbEntity
  8
0
  6
CONTINUOUS
 62
     0
100
AcDbLine
 10
106.2405
 20
187.287312
 30
0.0
 11
109.2405
 21
190.287312
 31
0.0
  0
LINE
  5
2CFC
100
AcDbEntity
  8
0
  6
CONTINUOUS
 62
     0
100
AcDbLine
 10
106.2405
 20
187.062805
 30
0.0
 11
109.2405
 21
190.062805
 31
0.0
  0
LINE
  5
2CFD
100
AcDbEntity
  8
0
  6
CONTINUOUS
 62
     0
100
AcDbLine
 10
106.2405
 20
186.838299
 30
0.0
 11
109.2405
 21
189.838299
 31
0.0
  0
LINE
  5
2CFE
100
AcDbEntity
  8
0
  6
CONTINUOUS
 62
     0
100
AcDbLine
 10
106.2405
 20
186.613792
 30
0.0
 11
109.2405
 21
189.613792
 31
0.0
  0
LINE
  5
2CFF
100
AcDbEntity
  8
0
  6
CONTINUOUS
 62
     0
100
AcDbLine
 10
106.2405
 20
186.389286
 30
0.0
 11
109.2405
 21
189.389286
 31
0.0
  0
LINE
  5
2D00
100
AcDbEntity
  8
0
  6
CONTINUOUS
 62
     0
100
AcDbLine
 10
106.2405
 20
186.16478
 30
0.0
 11
109.2405
 21
189.16478
 31
0.0
  0
LINE
  5
2D01
100
AcDbEntity
  8
0
  6
CONTINUOUS
 62
     0
100
AcDbLine
 10
106.2405
 20
185.940273
 30
0.0
 11
109.2405
 21
188.940273
 31
0.0
  0
LINE
  5
2D02
100
AcDbEntity
  8
0
  6
CONTINUOUS
 62
     0
100
AcDbLine
 10
106.2405
 20
185.715767
 30
0.0
 11
109.2405
 21
188.715767
 31
0.0
  0
LINE
  5
2D03
100
AcDbEntity
  8
0
  6
CONTINUOUS
 62
     0
100
AcDbLine
 10
106.2405
 20
185.49126
 30
0.0
 11
109.2405
 21
188.49126
 31
0.0
  0
LINE
  5
2D04
100
AcDbEntity
  8
0
  6
CONTINUOUS
 62
     0
100
AcDbLine
 10
106.2405
 20
185.266754
 30
0.0
 11
109.2405
 21
188.266754
 31
0.0
  0
LINE
  5
2D05
100
AcDbEntity
  8
0
  6
CONTINUOUS
 62
     0
100
AcDbLine
 10
106.2405
 20
185.042248
 30
0.0
 11
109.2405
 21
188.042248
 31
0.0
  0
LINE
  5
2D06
100
AcDbEntity
  8
0
  6
CONTINUOUS
 62
     0
100
AcDbLine
 10
106.2405
 20
184.817741
 30
0.0
 11
109.2405
 21
187.817741
 31
0.0
  0
LINE
  5
2D07
100
AcDbEntity
  8
0
  6
CONTINUOUS
 62
     0
100
AcDbLine
 10
106.2405
 20
184.593235
 30
0.0
 11
109.2405
 21
187.593235
 31
0.0
  0
LINE
  5
2D08
100
AcDbEntity
  8
0
  6
CONTINUOUS
 62
     0
100
AcDbLine
 10
106.2405
 20
184.368728
 30
0.0
 11
109.2405
 21
187.368728
 31
0.0
  0
LINE
  5
2D09
100
AcDbEntity
  8
0
  6
CONTINUOUS
 62
     0
100
AcDbLine
 10
106.2405
 20
184.144222
 30
0.0
 11
109.2405
 21
187.144222
 31
0.0
  0
LINE
  5
2D0A
100
AcDbEntity
  8
0
  6
CONTINUOUS
 62
     0
100
AcDbLine
 10
106.2405
 20
183.919716
 30
0.0
 11
109.2405
 21
186.919716
 31
0.0
  0
LINE
  5
2D0B
100
AcDbEntity
  8
0
  6
CONTINUOUS
 62
     0
100
AcDbLine
 10
106.2405
 20
183.695209
 30
0.0
 11
109.2405
 21
186.695209
 31
0.0
  0
LINE
  5
2D0C
100
AcDbEntity
  8
0
  6
CONTINUOUS
 62
     0
100
AcDbLine
 10
106.2405
 20
183.470703
 30
0.0
 11
109.2405
 21
186.470703
 31
0.0
  0
LINE
  5
2D0D
100
AcDbEntity
  8
0
  6
CONTINUOUS
 62
     0
100
AcDbLine
 10
106.2405
 20
183.246196
 30
0.0
 11
109.2405
 21
186.246196
 31
0.0
  0
LINE
  5
2D0E
100
AcDbEntity
  8
0
  6
CONTINUOUS
 62
     0
100
AcDbLine
 10
106.2405
 20
183.02169
 30
0.0
 11
109.2405
 21
186.02169
 31
0.0
  0
LINE
  5
2D0F
100
AcDbEntity
  8
0
  6
CONTINUOUS
 62
     0
100
AcDbLine
 10
106.2405
 20
182.797184
 30
0.0
 11
109.2405
 21
185.797184
 31
0.0
  0
LINE
  5
2D10
100
AcDbEntity
  8
0
  6
CONTINUOUS
 62
     0
100
AcDbLine
 10
106.2405
 20
182.572677
 30
0.0
 11
109.2405
 21
185.572677
 31
0.0
  0
LINE
  5
2D11
100
AcDbEntity
  8
0
  6
CONTINUOUS
 62
     0
100
AcDbLine
 10
106.2405
 20
182.348171
 30
0.0
 11
109.2405
 21
185.348171
 31
0.0
  0
LINE
  5
2D12
100
AcDbEntity
  8
0
  6
CONTINUOUS
 62
     0
100
AcDbLine
 10
106.2405
 20
182.123664
 30
0.0
 11
109.2405
 21
185.123664
 31
0.0
  0
LINE
  5
2D13
100
AcDbEntity
  8
0
  6
CONTINUOUS
 62
     0
100
AcDbLine
 10
106.2405
 20
181.899158
 30
0.0
 11
109.2405
 21
184.899158
 31
0.0
  0
LINE
  5
2D14
100
AcDbEntity
  8
0
  6
CONTINUOUS
 62
     0
100
AcDbLine
 10
106.2405
 20
181.674652
 30
0.0
 11
109.2405
 21
184.674652
 31
0.0
  0
LINE
  5
2D15
100
AcDbEntity
  8
0
  6
CONTINUOUS
 62
     0
100
AcDbLine
 10
106.2405
 20
181.450145
 30
0.0
 11
109.2405
 21
184.450145
 31
0.0
  0
LINE
  5
2D16
100
AcDbEntity
  8
0
  6
CONTINUOUS
 62
     0
100
AcDbLine
 10
106.2405
 20
181.225639
 30
0.0
 11
109.2405
 21
184.225639
 31
0.0
  0
LINE
  5
2D17
100
AcDbEntity
  8
0
  6
CONTINUOUS
 62
     0
100
AcDbLine
 10
106.2405
 20
181.001132
 30
0.0
 11
109.2405
 21
184.001132
 31
0.0
  0
LINE
  5
2D18
100
AcDbEntity
  8
0
  6
CONTINUOUS
 62
     0
100
AcDbLine
 10
106.2405
 20
180.776626
 30
0.0
 11
109.2405
 21
183.776626
 31
0.0
  0
LINE
  5
2D19
100
AcDbEntity
  8
0
  6
CONTINUOUS
 62
     0
100
AcDbLine
 10
106.2405
 20
180.55212
 30
0.0
 11
109.2405
 21
183.55212
 31
0.0
  0
LINE
  5
2D1A
100
AcDbEntity
  8
0
  6
CONTINUOUS
 62
     0
100
AcDbLine
 10
106.2405
 20
180.327613
 30
0.0
 11
109.2405
 21
183.327613
 31
0.0
  0
LINE
  5
2D1B
100
AcDbEntity
  8
0
  6
CONTINUOUS
 62
     0
100
AcDbLine
 10
106.2405
 20
180.103107
 30
0.0
 11
109.2405
 21
183.103107
 31
0.0
  0
LINE
  5
2D1C
100
AcDbEntity
  8
0
  6
CONTINUOUS
 62
     0
100
AcDbLine
 10
106.2405
 20
179.8786
 30
0.0
 11
109.2405
 21
182.8786
 31
0.0
  0
LINE
  5
2D1D
100
AcDbEntity
  8
0
  6
CONTINUOUS
 62
     0
100
AcDbLine
 10
106.2405
 20
179.654094
 30
0.0
 11
109.2405
 21
182.654094
 31
0.0
  0
LINE
  5
2D1E
100
AcDbEntity
  8
0
  6
CONTINUOUS
 62
     0
100
AcDbLine
 10
106.2405
 20
179.429588
 30
0.0
 11
109.2405
 21
182.429588
 31
0.0
  0
LINE
  5
2D1F
100
AcDbEntity
  8
0
  6
CONTINUOUS
 62
     0
100
AcDbLine
 10
106.2405
 20
179.205081
 30
0.0
 11
109.2405
 21
182.205081
 31
0.0
  0
LINE
  5
2D20
100
AcDbEntity
  8
0
  6
CONTINUOUS
 62
     0
100
AcDbLine
 10
106.2405
 20
178.980575
 30
0.0
 11
109.2405
 21
181.980575
 31
0.0
  0
LINE
  5
2D21
100
AcDbEntity
  8
0
  6
CONTINUOUS
 62
     0
100
AcDbLine
 10
106.2405
 20
178.756068
 30
0.0
 11
109.2405
 21
181.756068
 31
0.0
  0
LINE
  5
2D22
100
AcDbEntity
  8
0
  6
CONTINUOUS
 62
     0
100
AcDbLine
 10
106.2405
 20
178.531562
 30
0.0
 11
109.2405
 21
181.531562
 31
0.0
  0
LINE
  5
2D23
100
AcDbEntity
  8
0
  6
CONTINUOUS
 62
     0
100
AcDbLine
 10
106.2405
 20
178.307056
 30
0.0
 11
109.2405
 21
181.307056
 31
0.0
  0
LINE
  5
2D24
100
AcDbEntity
  8
0
  6
CONTINUOUS
 62
     0
100
AcDbLine
 10
106.2405
 20
178.082549
 30
0.0
 11
109.2405
 21
181.082549
 31
0.0
  0
LINE
  5
2D25
100
AcDbEntity
  8
0
  6
CONTINUOUS
 62
     0
100
AcDbLine
 10
106.2405
 20
177.858043
 30
0.0
 11
109.2405
 21
180.858043
 31
0.0
  0
LINE
  5
2D26
100
AcDbEntity
  8
0
  6
CONTINUOUS
 62
     0
100
AcDbLine
 10
106.2405
 20
177.633536
 30
0.0
 11
109.2405
 21
180.633536
 31
0.0
  0
LINE
  5
2D27
100
AcDbEntity
  8
0
  6
CONTINUOUS
 62
     0
100
AcDbLine
 10
106.2405
 20
177.40903
 30
0.0
 11
109.2405
 21
180.40903
 31
0.0
  0
LINE
  5
2D28
100
AcDbEntity
  8
0
  6
CONTINUOUS
 62
     0
100
AcDbLine
 10
106.2405
 20
177.184524
 30
0.0
 11
109.2405
 21
180.184524
 31
0.0
  0
LINE
  5
2D29
100
AcDbEntity
  8
0
  6
CONTINUOUS
 62
     0
100
AcDbLine
 10
106.2405
 20
176.960017
 30
0.0
 11
109.2405
 21
179.960017
 31
0.0
  0
LINE
  5
2D2A
100
AcDbEntity
  8
0
  6
CONTINUOUS
 62
     0
100
AcDbLine
 10
106.2405
 20
176.735511
 30
0.0
 11
109.2405
 21
179.735511
 31
0.0
  0
LINE
  5
2D2B
100
AcDbEntity
  8
0
  6
CONTINUOUS
 62
     0
100
AcDbLine
 10
106.2405
 20
176.511004
 30
0.0
 11
109.2405
 21
179.511004
 31
0.0
  0
LINE
  5
2D2C
100
AcDbEntity
  8
0
  6
CONTINUOUS
 62
     0
100
AcDbLine
 10
106.2405
 20
176.286498
 30
0.0
 11
109.2405
 21
179.286498
 31
0.0
  0
LINE
  5
2D2D
100
AcDbEntity
  8
0
  6
CONTINUOUS
 62
     0
100
AcDbLine
 10
106.2405
 20
176.061992
 30
0.0
 11
109.2405
 21
179.061992
 31
0.0
  0
LINE
  5
2D2E
100
AcDbEntity
  8
0
  6
CONTINUOUS
 62
     0
100
AcDbLine
 10
106.2405
 20
175.837485
 30
0.0
 11
109.2405
 21
178.837485
 31
0.0
  0
LINE
  5
2D2F
100
AcDbEntity
  8
0
  6
CONTINUOUS
 62
     0
100
AcDbLine
 10
106.239614
 20
175.612092
 30
0.0
 11
109.2405
 21
178.612979
 31
0.0
  0
LINE
  5
2D30
100
AcDbEntity
  8
0
  6
CONTINUOUS
 62
     0
100
AcDbLine
 10
106.18878
 20
175.336752
 30
0.0
 11
109.2405
 21
178.388472
 31
0.0
  0
LINE
  5
2D31
100
AcDbEntity
  8
0
  6
CONTINUOUS
 62
     0
100
AcDbLine
 10
105.763711
 20
174.687177
 30
0.0
 11
109.2405
 21
178.163966
 31
0.0
  0
LINE
  5
2D32
100
AcDbEntity
  8
0
  6
CONTINUOUS
 62
     0
100
AcDbLine
 10
105.321458
 20
174.020417
 30
0.0
 11
109.2405
 21
177.939459
 31
0.0
  0
LINE
  5
2D33
100
AcDbEntity
  8
0
  6
CONTINUOUS
 62
     0
100
AcDbLine
 10
104.879205
 20
173.353658
 30
0.0
 11
109.2405
 21
177.714953
 31
0.0
  0
LINE
  5
2D34
100
AcDbEntity
  8
0
  6
CONTINUOUS
 62
     0
100
AcDbLine
 10
104.436952
 20
172.686898
 30
0.0
 11
109.2405
 21
177.490447
 31
0.0
  0
LINE
  5
2D35
100
AcDbEntity
  8
0
  6
CONTINUOUS
 62
     0
100
AcDbLine
 10
103.994698
 20
172.020139
 30
0.0
 11
109.2405
 21
177.26594
 31
0.0
  0
LINE
  5
2D36
100
AcDbEntity
  8
0
  6
CONTINUOUS
 62
     0
100
AcDbLine
 10
103.552445
 20
171.353379
 30
0.0
 11
109.2405
 21
177.041434
 31
0.0
  0
LINE
  5
2D37
100
AcDbEntity
  8
0
  6
CONTINUOUS
 62
     0
100
AcDbLine
 10
103.110192
 20
170.686619
 30
0.0
 11
109.2405
 21
176.816927
 31
0.0
  0
LINE
  5
2D38
100
AcDbEntity
  8
0
  6
CONTINUOUS
 62
     0
100
AcDbLine
 10
102.667939
 20
170.01986
 30
0.0
 11
109.2405
 21
176.592421
 31
0.0
  0
LINE
  5
2D39
100
AcDbEntity
  8
0
  6
CONTINUOUS
 62
     0
100
AcDbLine
 10
102.225686
 20
169.3531
 30
0.0
 11
109.2405
 21
176.367915
 31
0.0
  0
LINE
  5
2D3A
100
AcDbEntity
  8
0
  6
CONTINUOUS
 62
     0
100
AcDbLine
 10
101.783432
 20
168.68634
 30
0.0
 11
109.2405
 21
176.143408
 31
0.0
  0
LINE
  5
2D3B
100
AcDbEntity
  8
0
  6
CONTINUOUS
 62
     0
100
AcDbLine
 10
101.341179
 20
168.019581
 30
0.0
 11
109.2405
 21
175.918902
 31
0.0
  0
LINE
  5
2D3C
100
AcDbEntity
  8
0
  6
CONTINUOUS
 62
     0
100
AcDbLine
 10
103.452175
 20
169.90607
 30
0.0
 11
109.2405
 21
175.694395
 31
0.0
  0
LINE
  5
2D3D
100
AcDbEntity
  8
0
  6
CONTINUOUS
 62
     0
100
AcDbLine
 10
106.07682
 20
172.306209
 30
0.0
 11
109.21912
 21
175.448509
 31
0.0
  0
LINE
  5
2D3E
100
AcDbEntity
  8
0
  6
CONTINUOUS
 62
     0
100
AcDbLine
 10
108.701465
 20
174.706347
 30
0.0
 11
109.006687
 21
175.011569
 31
0.0
  0
ENDBLK
  5
2D40
100
AcDbEntity
  8
0
100
AcDbBlockEnd
  0
BLOCK
  5
2E96
100
AcDbEntity
  8
0
100
AcDbBlockBegin
  2
*X3
 70
    65
 10
0.0
 20
0.0
 30
0.0
  3
*X3
  1

  0
LINE
  5
2D42
100
AcDbEntity
  8
0
  6
CONTINUOUS
 62
     0
100
AcDbLine
 10
88.933693
 20
145.733812
 30
0.0
 11
89.780277
 21
146.580397
 31
0.0
  0
LINE
  5
2D43
100
AcDbEntity
  8
0
  6
CONTINUOUS
 62
     0
100
AcDbLine
 10
104.638214
 20
161.438334
 30
0.0
 11
105.678254
 21
162.478374
 31
0.0
  0
LINE
  5
2D44
100
AcDbEntity
  8
0
  6
CONTINUOUS
 62
     0
100
AcDbLine
 10
88.82634
 20
145.850967
 30
0.0
 11
89.662001
 21
146.686627
 31
0.0
  0
LINE
  5
2D45
100
AcDbEntity
  8
0
  6
CONTINUOUS
 62
     0
100
AcDbLine
 10
104.548694
 20
161.57332
 30
0.0
 11
105.5611
 21
162.585726
 31
0.0
  0
LINE
  5
2D46
100
AcDbEntity
  8
0
  6
CONTINUOUS
 62
     0
100
AcDbLine
 10
88.718988
 20
145.968121
 30
0.0
 11
89.543725
 21
146.792858
 31
0.0
  0
LINE
  5
2D47
100
AcDbEntity
  8
0
  6
CONTINUOUS
 62
     0
100
AcDbLine
 10
104.459174
 20
161.708307
 30
0.0
 11
105.443946
 21
162.693078
 31
0.0
  0
LINE
  5
2D48
100
AcDbEntity
  8
0
  6
CONTINUOUS
 62
     0
100
AcDbLine
 10
88.611636
 20
146.085275
 30
0.0
 11
89.425449
 21
146.899089
 31
0.0
  0
LINE
  5
2D49
100
AcDbEntity
  8
0
  6
CONTINUOUS
 62
     0
100
AcDbLine
 10
104.369654
 20
161.843293
 30
0.0
 11
105.326791
 21
162.80043
 31
0.0
  0
LINE
  5
2D4A
100
AcDbEntity
  8
0
  6
CONTINUOUS
 62
     0
100
AcDbLine
 10
88.504284
 20
146.20243
 30
0.0
 11
89.307173
 21
147.005319
 31
0.0
  0
LINE
  5
2D4B
100
AcDbEntity
  8
0
  6
CONTINUOUS
 62
     0
100
AcDbLine
 10
104.280133
 20
161.978279
 30
0.0
 11
105.209637
 21
162.907783
 31
0.0
  0
LINE
  5
2D4C
100
AcDbEntity
  8
0
  6
CONTINUOUS
 62
     0
100
AcDbLine
 10
88.396932
 20
146.319584
 30
0.0
 11
89.188898
 21
147.11155
 31
0.0
  0
LINE
  5
2D4D
100
AcDbEntity
  8
0
  6
CONTINUOUS
 62
     0
100
AcDbLine
 10
104.190613
 20
162.113265
 30
0.0
 11
105.092483
 21
163.015135
 31
0.0
  0
LINE
  5
2D4E
100
AcDbEntity
  8
0
  6
CONTINUOUS
 62
     0
100
AcDbLine
 10
88.28958
 20
146.436738
 30
0.0
 11
89.070622
 21
147.21778
 31
0.0
  0
LINE
  5
2D4F
100
AcDbEntity
  8
0
  6
CONTINUOUS
 62
     0
100
AcDbLine
 10
104.101093
 20
162.248251
 30
0.0
 11
104.975328
 21
163.122487
 31
0.0
  0
LINE
  5
2D50
100
AcDbEntity
  8
0
  6
CONTINUOUS
 62
     0
100
AcDbLine
 10
88.182228
 20
146.553892
 30
0.0
 11
88.952346
 21
147.324011
 31
0.0
  0
LINE
  5
2D51
100
AcDbEntity
  8
0
  6
CONTINUOUS
 62
     0
100
AcDbLine
 10
104.011573
 20
162.383238
 30
0.0
 11
104.858174
 21
163.229839
 31
0.0
  0
LINE
  5
2D52
100
AcDbEntity
  8
0
  6
CONTINUOUS
 62
     0
100
AcDbLine
 10
88.074876
 20
146.671047
 30
0.0
 11
88.83407
 21
147.430241
 31
0.0
  0
LINE
  5
2D53
100
AcDbEntity
  8
0
  6
CONTINUOUS
 62
     0
100
AcDbLine
 10
103.922053
 20
162.518224
 30
0.0
 11
104.74102
 21
163.337191
 31
0.0
  0
LINE
  5
2D54
100
AcDbEntity
  8
0
  6
CONTINUOUS
 62
     0
100
AcDbLine
 10
87.967523
 20
146.788201
 30
0.0
 11
88.715794
 21
147.536472
 31
0.0
  0
LINE
  5
2D55
100
AcDbEntity
  8
0
  6
CONTINUOUS
 62
     0
100
AcDbLine
 10
103.832532
 20
162.65321
 30
0.0
 11
104.623866
 21
163.444543
 31
0.0
  0
LINE
  5
2D56
100
AcDbEntity
  8
0
  6
CONTINUOUS
 62
     0
100
AcDbLine
 10
87.860171
 20
146.905355
 30
0.0
 11
88.597518
 21
147.642702
 31
0.0
  0
LINE
  5
2D57
100
AcDbEntity
  8
0
  6
CONTINUOUS
 62
     0
100
AcDbLine
 10
103.743012
 20
162.788196
 30
0.0
 11
104.506711
 21
163.551895
 31
0.0
  0
LINE
  5
2D58
100
AcDbEntity
  8
0
  6
CONTINUOUS
 62
     0
100
AcDbLine
 10
87.752819
 20
147.02251
 30
0.0
 11
88.479242
 21
147.748933
 31
0.0
  0
LINE
  5
2D59
100
AcDbEntity
  8
0
  6
CONTINUOUS
 62
     0
100
AcDbLine
 10
103.653492
 20
162.923182
 30
0.0
 11
104.389557
 21
163.659247
 31
0.0
  0
LINE
  5
2D5A
100
AcDbEntity
  8
0
  6
CONTINUOUS
 62
     0
100
AcDbLine
 10
87.645467
 20
147.139664
 30
0.0
 11
88.360966
 21
147.855163
 31
0.0
  0
LINE
  5
2D5B
100
AcDbEntity
  8
0
  6
CONTINUOUS
 62
     0
100
AcDbLine
 10
103.563972
 20
163.058168
 30
0.0
 11
104.272403
 21
163.7666
 31
0.0
  0
LINE
  5
2D5C
100
AcDbEntity
  8
0
  6
CONTINUOUS
 62
     0
100
AcDbLine
 10
87.538115
 20
147.256818
 30
0.0
 11
88.242691
 21
147.961394
 31
0.0
  0
LINE
  5
2D5D
100
AcDbEntity
  8
0
  6
CONTINUOUS
 62
     0
100
AcDbLine
 10
103.474451
 20
163.193155
 30
0.0
 11
104.155248
 21
163.873952
 31
0.0
  0
LINE
  5
2D5E
100
AcDbEntity
  8
0
  6
CONTINUOUS
 62
     0
100
AcDbLine
 10
87.430763
 20
147.373972
 30
0.0
 11
88.124415
 21
148.067624
 31
0.0
  0
LINE
  5
2D5F
100
AcDbEntity
  8
0
  6
CONTINUOUS
 62
     0
100
AcDbLine
 10
103.384931
 20
163.328141
 30
0.0
 11
104.038094
 21
163.981304
 31
0.0
  0
LINE
  5
2D60
100
AcDbEntity
  8
0
  6
CONTINUOUS
 62
     0
100
AcDbLine
 10
87.323411
 20
147.491127
 30
0.0
 11
88.006139
 21
148.173855
 31
0.0
  0
LINE
  5
2D61
100
AcDbEntity
  8
0
  6
CONTINUOUS
 62
     0
100
AcDbLine
 10
103.295411
 20
163.463127
 30
0.0
 11
103.92094
 21
164.088656
 31
0.0
  0
LINE
  5
2D62
100
AcDbEntity
  8
0
  6
CONTINUOUS
 62
     0
100
AcDbLine
 10
87.216059
 20
147.608281
 30
0.0
 11
87.887863
 21
148.280085
 31
0.0
  0
LINE
  5
2D63
100
AcDbEntity
  8
0
  6
CONTINUOUS
 62
     0
100
AcDbLine
 10
103.205891
 20
163.598113
 30
0.0
 11
103.803786
 21
164.196008
 31
0.0
  0
LINE
  5
2D64
100
AcDbEntity
  8
0
  6
CONTINUOUS
 62
     0
100
AcDbLine
 10
87.108706
 20
147.725435
 30
0.0
 11
87.769587
 21
148.386316
 31
0.0
  0
LINE
  5
2D65
100
AcDbEntity
  8
0
  6
CONTINUOUS
 62
     0
100
AcDbLine
 10
103.116371
 20
163.733099
 30
0.0
 11
103.686631
 21
164.30336
 31
0.0
  0
LINE
  5
2D66
100
AcDbEntity
  8
0
  6
CONTINUOUS
 62
     0
100
AcDbLine
 10
87.001354
 20
147.84259
 30
0.0
 11
87.651311
 21
148.492546
 31
0.0
  0
LINE
  5
2D67
100
AcDbEntity
  8
0
  6
CONTINUOUS
 62
     0
100
AcDbLine
 10
103.02685
 20
163.868086
 30
0.0
 11
103.569477
 21
164.410712
 31
0.0
  0
LINE
  5
2D68
100
AcDbEntity
  8
0
  6
CONTINUOUS
 62
     0
100
AcDbLine
 10
86.894002
 20
147.959744
 30
0.0
 11
87.533035
 21
148.598777
 31
0.0
  0
LINE
  5
2D69
100
AcDbEntity
  8
0
  6
CONTINUOUS
 62
     0
100
AcDbLine
 10
102.93733
 20
164.003072
 30
0.0
 11
103.452323
 21
164.518064
 31
0.0
  0
LINE
  5
2D6A
100
AcDbEntity
  8
0
  6
CONTINUOUS
 62
     0
100
AcDbLine
 10
86.78665
 20
148.076898
 30
0.0
 11
87.414759
 21
148.705007
 31
0.0
  0
LINE
  5
2D6B
100
AcDbEntity
  8
0
  6
CONTINUOUS
 62
     0
100
AcDbLine
 10
102.84781
 20
164.138058
 30
0.0
 11
103.335168
 21
164.625416
 31
0.0
  0
LINE
  5
2D6C
100
AcDbEntity
  8
0
  6
CONTINUOUS
 62
     0
100
AcDbLine
 10
86.679298
 20
148.194052
 30
0.0
 11
87.296484
 21
148.811238
 31
0.0
  0
LINE
  5
2D6D
100
AcDbEntity
  8
0
  6
CONTINUOUS
 62
     0
100
AcDbLine
 10
102.75829
 20
164.273044
 30
0.0
 11
103.218014
 21
164.732769
 31
0.0
  0
LINE
  5
2D6E
100
AcDbEntity
  8
0
  6
CONTINUOUS
 62
     0
100
AcDbLine
 10
86.571946
 20
148.311207
 30
0.0
 11
87.178208
 21
148.917469
 31
0.0
  0
LINE
  5
2D6F
100
AcDbEntity
  8
0
  6
CONTINUOUS
 62
     0
100
AcDbLine
 10
102.66877
 20
164.40803
 30
0.0
 11
103.10086
 21
164.840121
 31
0.0
  0
LINE
  5
2D70
100
AcDbEntity
  8
0
  6
CONTINUOUS
 62
     0
100
AcDbLine
 10
86.464594
 20
148.428361
 30
0.0
 11
87.059932
 21
149.023699
 31
0.0
  0
LINE
  5
2D71
100
AcDbEntity
  8
0
  6
CONTINUOUS
 62
     0
100
AcDbLine
 10
102.579249
 20
164.543017
 30
0.0
 11
102.983706
 21
164.947473
 31
0.0
  0
LINE
  5
2D72
100
AcDbEntity
  8
0
  6
CONTINUOUS
 62
     0
100
AcDbLine
 10
86.357242
 20
148.545515
 30
0.0
 11
86.941656
 21
149.12993
 31
0.0
  0
LINE
  5
2D73
100
AcDbEntity
  8
0
  6
CONTINUOUS
 62
     0
100
AcDbLine
 10
102.489729
 20
164.678003
 30
0.0
 11
102.866551
 21
165.054825
 31
0.0
  0
LINE
  5
2D74
100
AcDbEntity
  8
0
  6
CONTINUOUS
 62
     0
100
AcDbLine
 10
86.249889
 20
148.66267
 30
0.0
 11
86.82338
 21
149.23616
 31
0.0
  0
LINE
  5
2D75
100
AcDbEntity
  8
0
  6
CONTINUOUS
 62
     0
100
AcDbLine
 10
102.400209
 20
164.812989
 30
0.0
 11
102.749397
 21
165.162177
 31
0.0
  0
LINE
  5
2D76
100
AcDbEntity
  8
0
  6
CONTINUOUS
 62
     0
100
AcDbLine
 10
86.142537
 20
148.779824
 30
0.0
 11
86.705104
 21
149.342391
 31
0.0
  0
LINE
  5
2D77
100
AcDbEntity
  8
0
  6
CONTINUOUS
 62
     0
100
AcDbLine
 10
102.310689
 20
164.947975
 30
0.0
 11
102.632243
 21
165.269529
 31
0.0
  0
LINE
  5
2D78
100
AcDbEntity
  8
0
  6
CONTINUOUS
 62
     0
100
AcDbLine
 10
86.035185
 20
148.896978
 30
0.0
 11
86.586828
 21
149.448621
 31
0.0
  0
LINE
  5
2D79
100
AcDbEntity
  8
0
  6
CONTINUOUS
 62
     0
100
AcDbLine
 10
102.221169
 20
165.082961
 30
0.0
 11
102.515088
 21
165.376881
 31
0.0
  0
LINE
  5
2D7A
100
AcDbEntity
  8
0
  6
CONTINUOUS
 62
     0
100
AcDbLine
 10
85.927833
 20
149.014132
 30
0.0
 11
86.468552
 21
149.554852
 31
0.0
  0
LINE
  5
2D7B
100
AcDbEntity
  8
0
  6
CONTINUOUS
 62
     0
100
AcDbLine
 10
102.131648
 20
165.217948
 30
0.0
 11
102.397934
 21
165.484233
 31
0.0
  0
LINE
  5
2D7C
100
AcDbEntity
  8
0
  6
CONTINUOUS
 62
     0
100
AcDbLine
 10
85.820481
 20
149.131287
 30
0.0
 11
86.350277
 21
149.661082
 31
0.0
  0
LINE
  5
2D7D
100
AcDbEntity
  8
0
  6
CONTINUOUS
 62
     0
100
AcDbLine
 10
102.042128
 20
165.352934
 30
0.0
 11
102.28078
 21
165.591586
 31
0.0
  0
LINE
  5
2D7E
100
AcDbEntity
  8
0
  6
CONTINUOUS
 62
     0
100
AcDbLine
 10
85.713129
 20
149.248441
 30
0.0
 11
86.232001
 21
149.767313
 31
0.0
  0
LINE
  5
2D7F
100
AcDbEntity
  8
0
  6
CONTINUOUS
 62
     0
100
AcDbLine
 10
101.952608
 20
165.48792
 30
0.0
 11
102.163626
 21
165.698938
 31
0.0
  0
LINE
  5
2D80
100
AcDbEntity
  8
0
  6
CONTINUOUS
 62
     0
100
AcDbLine
 10
85.605777
 20
149.365595
 30
0.0
 11
86.113725
 21
149.873543
 31
0.0
  0
LINE
  5
2D81
100
AcDbEntity
  8
0
  6
CONTINUOUS
 62
     0
100
AcDbLine
 10
101.863088
 20
165.622906
 30
0.0
 11
102.046471
 21
165.80629
 31
0.0
  0
LINE
  5
2D82
100
AcDbEntity
  8
0
  6
CONTINUOUS
 62
     0
100
AcDbLine
 10
85.498425
 20
149.48275
 30
0.0
 11
85.995449
 21
149.979774
 31
0.0
  0
LINE
  5
2D83
100
AcDbEntity
  8
0
  6
CONTINUOUS
 62
     0
100
AcDbLine
 10
101.773567
 20
165.757892
 30
0.0
 11
101.929317
 21
165.913642
 31
0.0
  0
LINE
  5
2D84
100
AcDbEntity
  8
0
  6
CONTINUOUS
 62
     0
100
AcDbLine
 10
85.391073
 20
149.599904
 30
0.0
 11
85.877173
 21
150.086004
 31
0.0
  0
LINE
  5
2D85
100
AcDbEntity
  8
0
  6
CONTINUOUS
 62
     0
100
AcDbLine
 10
101.684047
 20
165.892879
 30
0.0
 11
101.812163
 21
166.020994
 31
0.0
  0
LINE
  5
2D86
100
AcDbEntity
  8
0
  6
CONTINUOUS
 62
     0
100
AcDbLine
 10
85.28372
 20
149.717058
 30
0.0
 11
85.758897
 21
150.192235
 31
0.0
  0
LINE
  5
2D87
100
AcDbEntity
  8
0
  6
CONTINUOUS
 62
     0
100
AcDbLine
 10
101.594527
 20
166.027865
 30
0.0
 11
101.695008
 21
166.128346
 31
0.0
  0
LINE
  5
2D88
100
AcDbEntity
  8
0
  6
CONTINUOUS
 62
     0
100
AcDbLine
 10
85.176368
 20
149.834212
 30
0.0
 11
85.640621
 21
150.298465
 31
0.0
  0
LINE
  5
2D89
100
AcDbEntity
  8
0
  6
CONTINUOUS
 62
     0
100
AcDbLine
 10
101.505007
 20
166.162851
 30
0.0
 11
101.577854
 21
166.235698
 31
0.0
  0
LINE
  5
2D8A
100
AcDbEntity
  8
0
  6
CONTINUOUS
 62
     0
100
AcDbLine
 10
85.069016
 20
149.951367
 30
0.0
 11
85.522345
 21
150.404696
 31
0.0
  0
LINE
  5
2D8B
100
AcDbEntity
  8
0
  6
CONTINUOUS
 62
     0
100
AcDbLine
 10
101.415487
 20
166.297837
 30
0.0
 11
101.4607
 21
166.34305
 31
0.0
  0
LINE
  5
2D8C
100
AcDbEntity
  8
0
  6
CONTINUOUS
 62
     0
100
AcDbLine
 10
84.961664
 20
150.068521
 30
0.0
 11
85.40407
 21
150.510926
 31
0.0
  0
LINE
  5
2D8D
100
AcDbEntity
  8
0
  6
CONTINUOUS
 62
     0
100
AcDbLine
 10
101.325966
 20
166.432823
 30
0.0
 11
101.343546
 21
166.450403
 31
0.0
  0
LINE
  5
2D8E
100
AcDbEntity
  8
0
  6
CONTINUOUS
 62
     0
100
AcDbLine
 10
84.854312
 20
150.185675
 30
0.0
 11
85.285794
 21
150.617157
 31
0.0
  0
LINE
  5
2D8F
100
AcDbEntity
  8
0
  6
CONTINUOUS
 62
     0
100
AcDbLine
 10
84.74696
 20
150.302829
 30
0.0
 11
85.167518
 21
150.723387
 31
0.0
  0
LINE
  5
2D90
100
AcDbEntity
  8
0
  6
CONTINUOUS
 62
     0
100
AcDbLine
 10
84.639608
 20
150.419984
 30
0.0
 11
85.049242
 21
150.829618
 31
0.0
  0
LINE
  5
2D91
100
AcDbEntity
  8
0
  6
CONTINUOUS
 62
     0
100
AcDbLine
 10
84.532256
 20
150.537138
 30
0.0
 11
84.930966
 21
150.935848
 31
0.0
  0
LINE
  5
2D92
100
AcDbEntity
  8
0
  6
CONTINUOUS
 62
     0
100
AcDbLine
 10
84.424903
 20
150.654292
 30
0.0
 11
84.81269
 21
151.042079
 31
0.0
  0
LINE
  5
2D93
100
AcDbEntity
  8
0
  6
CONTINUOUS
 62
     0
100
AcDbLine
 10
84.317551
 20
150.771447
 30
0.0
 11
84.694414
 21
151.14831
 31
0.0
  0
LINE
  5
2D94
100
AcDbEntity
  8
0
  6
CONTINUOUS
 62
     0
100
AcDbLine
 10
84.210199
 20
150.888601
 30
0.0
 11
84.576138
 21
151.25454
 31
0.0
  0
LINE
  5
2D95
100
AcDbEntity
  8
0
  6
CONTINUOUS
 62
     0
100
AcDbLine
 10
84.102847
 20
151.005755
 30
0.0
 11
84.457862
 21
151.360771
 31
0.0
  0
LINE
  5
2D96
100
AcDbEntity
  8
0
  6
CONTINUOUS
 62
     0
100
AcDbLine
 10
83.995495
 20
151.122909
 30
0.0
 11
84.339587
 21
151.467001
 31
0.0
  0
LINE
  5
2D97
100
AcDbEntity
  8
0
  6
CONTINUOUS
 62
     0
100
AcDbLine
 10
83.888143
 20
151.240064
 30
0.0
 11
84.221311
 21
151.573232
 31
0.0
  0
LINE
  5
2D98
100
AcDbEntity
  8
0
  6
CONTINUOUS
 62
     0
100
AcDbLine
 10
83.780791
 20
151.357218
 30
0.0
 11
84.103035
 21
151.679462
 31
0.0
  0
LINE
  5
2D99
100
AcDbEntity
  8
0
  6
CONTINUOUS
 62
     0
100
AcDbLine
 10
83.673439
 20
151.474372
 30
0.0
 11
83.984759
 21
151.785693
 31
0.0
  0
LINE
  5
2D9A
100
AcDbEntity
  8
0
  6
CONTINUOUS
 62
     0
100
AcDbLine
 10
83.566086
 20
151.591527
 30
0.0
 11
83.866483
 21
151.891923
 31
0.0
  0
LINE
  5
2D9B
100
AcDbEntity
  8
0
  6
CONTINUOUS
 62
     0
100
AcDbLine
 10
83.458734
 20
151.708681
 30
0.0
 11
83.748207
 21
151.998154
 31
0.0
  0
LINE
  5
2D9C
100
AcDbEntity
  8
0
  6
CONTINUOUS
 62
     0
100
AcDbLine
 10
83.351382
 20
151.825835
 30
0.0
 11
83.629931
 21
152.104384
 31
0.0
  0
LINE
  5
2D9D
100
AcDbEntity
  8
0
  6
CONTINUOUS
 62
     0
100
AcDbLine
 10
83.24403
 20
151.942989
 30
0.0
 11
83.511655
 21
152.210615
 31
0.0
  0
LINE
  5
2D9E
100
AcDbEntity
  8
0
  6
CONTINUOUS
 62
     0
100
AcDbLine
 10
83.136678
 20
152.060144
 30
0.0
 11
83.39338
 21
152.316845
 31
0.0
  0
LINE
  5
2D9F
100
AcDbEntity
  8
0
  6
CONTINUOUS
 62
     0
100
AcDbLine
 10
83.029326
 20
152.177298
 30
0.0
 11
83.275104
 21
152.423076
 31
0.0
  0
LINE
  5
2DA0
100
AcDbEntity
  8
0
  6
CONTINUOUS
 62
     0
100
AcDbLine
 10
82.921974
 20
152.294452
 30
0.0
 11
83.156828
 21
152.529306
 31
0.0
  0
LINE
  5
2DA1
100
AcDbEntity
  8
0
  6
CONTINUOUS
 62
     0
100
AcDbLine
 10
82.814622
 20
152.411607
 30
0.0
 11
83.038552
 21
152.635537
 31
0.0
  0
LINE
  5
2DA2
100
AcDbEntity
  8
0
  6
CONTINUOUS
 62
     0
100
AcDbLine
 10
82.70727
 20
152.528761
 30
0.0
 11
82.920276
 21
152.741767
 31
0.0
  0
LINE
  5
2DA3
100
AcDbEntity
  8
0
  6
CONTINUOUS
 62
     0
100
AcDbLine
 10
82.599917
 20
152.645915
 30
0.0
 11
82.802
 21
152.847998
 31
0.0
  0
LINE
  5
2DA4
100
AcDbEntity
  8
0
  6
CONTINUOUS
 62
     0
100
AcDbLine
 10
82.492565
 20
152.763069
 30
0.0
 11
82.683724
 21
152.954228
 31
0.0
  0
LINE
  5
2DA5
100
AcDbEntity
  8
0
  6
CONTINUOUS
 62
     0
100
AcDbLine
 10
82.385213
 20
152.880224
 30
0.0
 11
82.565448
 21
153.060459
 31
0.0
  0
LINE
  5
2DA6
100
AcDbEntity
  8
0
  6
CONTINUOUS
 62
     0
100
AcDbLine
 10
82.277861
 20
152.997378
 30
0.0
 11
82.447173
 21
153.16669
 31
0.0
  0
LINE
  5
2DA7
100
AcDbEntity
  8
0
  6
CONTINUOUS
 62
     0
100
AcDbLine
 10
82.170509
 20
153.114532
 30
0.0
 11
82.328897
 21
153.27292
 31
0.0
  0
LINE
  5
2DA8
100
AcDbEntity
  8
0
  6
CONTINUOUS
 62
     0
100
AcDbLine
 10
82.063157
 20
153.231687
 30
0.0
 11
82.210621
 21
153.379151
 31
0.0
  0
LINE
  5
2DA9
100
AcDbEntity
  8
0
  6
CONTINUOUS
 62
     0
100
AcDbLine
 10
81.955805
 20
153.348841
 30
0.0
 11
82.092345
 21
153.485381
 31
0.0
  0
LINE
  5
2DAA
100
AcDbEntity
  8
0
  6
CONTINUOUS
 62
     0
100
AcDbLine
 10
81.848453
 20
153.465995
 30
0.0
 11
81.974069
 21
153.591612
 31
0.0
  0
LINE
  5
2DAB
100
AcDbEntity
  8
0
  6
CONTINUOUS
 62
     0
100
AcDbLine
 10
81.7411
 20
153.583149
 30
0.0
 11
81.855793
 21
153.697842
 31
0.0
  0
LINE
  5
2DAC
100
AcDbEntity
  8
0
  6
CONTINUOUS
 62
     0
100
AcDbLine
 10
81.633748
 20
153.700304
 30
0.0
 11
81.737517
 21
153.804073
 31
0.0
  0
LINE
  5
2DAD
100
AcDbEntity
  8
0
  6
CONTINUOUS
 62
     0
100
AcDbLine
 10
81.526396
 20
153.817458
 30
0.0
 11
81.619241
 21
153.910303
 31
0.0
  0
LINE
  5
2DAE
100
AcDbEntity
  8
0
  6
CONTINUOUS
 62
     0
100
AcDbLine
 10
81.419044
 20
153.934612
 30
0.0
 11
81.500966
 21
154.016534
 31
0.0
  0
LINE
  5
2DAF
100
AcDbEntity
  8
0
  6
CONTINUOUS
 62
     0
100
AcDbLine
 10
81.311692
 20
154.051767
 30
0.0
 11
81.38269
 21
154.122764
 31
0.0
  0
LINE
  5
2DB0
100
AcDbEntity
  8
0
  6
CONTINUOUS
 62
     0
100
AcDbLine
 10
81.20434
 20
154.168921
 30
0.0
 11
81.264414
 21
154.228995
 31
0.0
  0
LINE
  5
2DB1
100
AcDbEntity
  8
0
  6
CONTINUOUS
 62
     0
100
AcDbLine
 10
81.096988
 20
154.286075
 30
0.0
 11
81.146138
 21
154.335225
 31
0.0
  0
LINE
  5
2DB2
100
AcDbEntity
  8
0
  6
CONTINUOUS
 62
     0
100
AcDbLine
 10
80.989636
 20
154.403229
 30
0.0
 11
81.027862
 21
154.441456
 31
0.0
  0
LINE
  5
2DB3
100
AcDbEntity
  8
0
  6
CONTINUOUS
 62
     0
100
AcDbLine
 10
80.882283
 20
154.520384
 30
0.0
 11
80.909586
 21
154.547686
 31
0.0
  0
LINE
  5
2DB4
100
AcDbEntity
  8
0
  6
CONTINUOUS
 62
     0
100
AcDbLine
 10
80.774931
 20
154.637538
 30
0.0
 11
80.79131
 21
154.653917
 31
0.0
  0
LINE
  5
2DB5
100
AcDbEntity
  8
0
  6
CONTINUOUS
 62
     0
100
AcDbLine
 10
80.667579
 20
154.754692
 30
0.0
 11
80.673034
 21
154.760147
 31
0.0
  0
LINE
  5
2DB6
100
AcDbEntity
  8
0
  6
CONTINUOUS
 62
     0
100
AcDbLine
 10
89.041045
 20
145.616658
 30
0.0
 11
89.898553
 21
146.474166
 31
0.0
  0
LINE
  5
2DB7
100
AcDbEntity
  8
0
  6
CONTINUOUS
 62
     0
100
AcDbLine
 10
104.727734
 20
161.303348
 30
0.0
 11
105.795408
 21
162.371022
 31
0.0
  0
LINE
  5
2DB8
100
AcDbEntity
  8
0
  6
CONTINUOUS
 62
     0
100
AcDbLine
 10
89.148397
 20
145.499504
 30
0.0
 11
90.016829
 21
146.367936
 31
0.0
  0
LINE
  5
2DB9
100
AcDbEntity
  8
0
  6
CONTINUOUS
 62
     0
100
AcDbLine
 10
104.817255
 20
161.168362
 30
0.0
 11
105.912563
 21
162.26367
 31
0.0
  0
LINE
  5
2DBA
100
AcDbEntity
  8
0
  6
CONTINUOUS
 62
     0
100
AcDbLine
 10
89.255749
 20
145.38235
 30
0.0
 11
90.135105
 21
146.261705
 31
0.0
  0
LINE
  5
2DBB
100
AcDbEntity
  8
0
  6
CONTINUOUS
 62
     0
100
AcDbLine
 10
104.906775
 20
161.033376
 30
0.0
 11
106.029717
 21
162.156318
 31
0.0
  0
LINE
  5
2DBC
100
AcDbEntity
  8
0
  6
CONTINUOUS
 62
     0
100
AcDbLine
 10
89.363101
 20
145.265195
 30
0.0
 11
90.25338
 21
146.155475
 31
0.0
  0
LINE
  5
2DBD
100
AcDbEntity
  8
0
  6
CONTINUOUS
 62
     0
100
AcDbLine
 10
104.996295
 20
160.898389
 30
0.0
 11
106.146871
 21
162.048966
 31
0.0
  0
LINE
  5
2DBE
100
AcDbEntity
  8
0
  6
CONTINUOUS
 62
     0
100
AcDbLine
 10
89.470453
 20
145.148041
 30
0.0
 11
90.371656
 21
146.049244
 31
0.0
  0
LINE
  5
2DBF
100
AcDbEntity
  8
0
  6
CONTINUOUS
 62
     0
100
AcDbLine
 10
105.085815
 20
160.763403
 30
0.0
 11
106.264026
 21
161.941613
 31
0.0
  0
LINE
  5
2DC0
100
AcDbEntity
  8
0
  6
CONTINUOUS
 62
     0
100
AcDbLine
 10
89.577805
 20
145.030887
 30
0.0
 11
90.489932
 21
145.943014
 31
0.0
  0
LINE
  5
2DC1
100
AcDbEntity
  8
0
  6
CONTINUOUS
 62
     0
100
AcDbLine
 10
105.175335
 20
160.628417
 30
0.0
 11
106.38118
 21
161.834261
 31
0.0
  0
LINE
  5
2DC2
100
AcDbEntity
  8
0
  6
CONTINUOUS
 62
     0
100
AcDbLine
 10
89.685157
 20
144.913733
 30
0.0
 11
90.608208
 21
145.836783
 31
0.0
  0
LINE
  5
2DC3
100
AcDbEntity
  8
0
  6
CONTINUOUS
 62
     0
100
AcDbLine
 10
105.264856
 20
160.493431
 30
0.0
 11
106.498334
 21
161.726909
 31
0.0
  0
LINE
  5
2DC4
100
AcDbEntity
  8
0
  6
CONTINUOUS
 62
     0
100
AcDbLine
 10
89.792509
 20
144.796578
 30
0.0
 11
90.726484
 21
145.730553
 31
0.0
  0
LINE
  5
2DC5
100
AcDbEntity
  8
0
  6
CONTINUOUS
 62
     0
100
AcDbLine
 10
105.354376
 20
160.358445
 30
0.0
 11
106.615488
 21
161.619557
 31
0.0
  0
LINE
  5
2DC6
100
AcDbEntity
  8
0
  6
CONTINUOUS
 62
     0
100
AcDbLine
 10
89.899862
 20
144.679424
 30
0.0
 11
90.84476
 21
145.624322
 31
0.0
  0
LINE
  5
2DC7
100
AcDbEntity
  8
0
  6
CONTINUOUS
 62
     0
100
AcDbLine
 10
105.443896
 20
160.223458
 30
0.0
 11
106.732643
 21
161.512205
 31
0.0
  0
LINE
  5
2DC8
100
AcDbEntity
  8
0
  6
CONTINUOUS
 62
     0
100
AcDbLine
 10
90.007214
 20
144.56227
 30
0.0
 11
90.963036
 21
145.518092
 31
0.0
  0
LINE
  5
2DC9
100
AcDbEntity
  8
0
  6
CONTINUOUS
 62
     0
100
AcDbLine
 10
105.533416
 20
160.088472
 30
0.0
 11
106.849797
 21
161.404853
 31
0.0
  0
LINE
  5
2DCA
100
AcDbEntity
  8
0
  6
CONTINUOUS
 62
     0
100
AcDbLine
 10
90.114566
 20
144.445115
 30
0.0
 11
91.081312
 21
145.411861
 31
0.0
  0
LINE
  5
2DCB
100
AcDbEntity
  8
0
  6
CONTINUOUS
 62
     0
100
AcDbLine
 10
105.622937
 20
159.953486
 30
0.0
 11
106.966951
 21
161.297501
 31
0.0
  0
LINE
  5
2DCC
100
AcDbEntity
  8
0
  6
CONTINUOUS
 62
     0
100
AcDbLine
 10
90.221918
 20
144.327961
 30
0.0
 11
91.199587
 21
145.305631
 31
0.0
  0
LINE
  5
2DCD
100
AcDbEntity
  8
0
  6
CONTINUOUS
 62
     0
100
AcDbLine
 10
105.712457
 20
159.8185
 30
0.0
 11
107.084105
 21
161.190149
 31
0.0
  0
LINE
  5
2DCE
100
AcDbEntity
  8
0
  6
CONTINUOUS
 62
     0
100
AcDbLine
 10
90.32927
 20
144.210807
 30
0.0
 11
91.317863
 21
145.1994
 31
0.0
  0
LINE
  5
2DCF
100
AcDbEntity
  8
0
  6
CONTINUOUS
 62
     0
100
AcDbLine
 10
105.801977
 20
159.683514
 30
0.0
 11
107.20126
 21
161.082796
 31
0.0
  0
LINE
  5
2DD0
100
AcDbEntity
  8
0
  6
CONTINUOUS
 62
     0
100
AcDbLine
 10
90.436622
 20
144.093653
 30
0.0
 11
91.436139
 21
145.09317
 31
0.0
  0
LINE
  5
2DD1
100
AcDbEntity
  8
0
  6
CONTINUOUS
 62
     0
100
AcDbLine
 10
105.891497
 20
159.548527
 30
0.0
 11
107.318414
 21
160.975444
 31
0.0
  0
LINE
  5
2DD2
100
AcDbEntity
  8
0
  6
CONTINUOUS
 62
     0
100
AcDbLine
 10
90.543974
 20
143.976498
 30
0.0
 11
91.554415
 21
144.986939
 31
0.0
  0
LINE
  5
2DD3
100
AcDbEntity
  8
0
  6
CONTINUOUS
 62
     0
100
AcDbLine
 10
105.996367
 20
159.428891
 30
0.0
 11
107.435568
 21
160.868092
 31
0.0
  0
LINE
  5
2DD4
100
AcDbEntity
  8
0
  6
CONTINUOUS
 62
     0
100
AcDbLine
 10
90.651326
 20
143.859344
 30
0.0
 11
91.672691
 21
144.880709
 31
0.0
  0
LINE
  5
2DD5
100
AcDbEntity
  8
0
  6
CONTINUOUS
 62
     0
100
AcDbLine
 10
106.091429
 20
159.299447
 30
0.0
 11
107.552723
 21
160.76074
 31
0.0
  0
LINE
  5
2DD6
100
AcDbEntity
  8
0
  6
CONTINUOUS
 62
     0
100
AcDbLine
 10
90.758679
 20
143.74219
 30
0.0
 11
91.790967
 21
144.774478
 31
0.0
  0
LINE
  5
2DD7
100
AcDbEntity
  8
0
  6
CONTINUOUS
 62
     0
100
AcDbLine
 10
106.166986
 20
159.150497
 30
0.0
 11
107.669877
 21
160.653388
 31
0.0
  0
LINE
  5
2DD8
100
AcDbEntity
  8
0
  6
CONTINUOUS
 62
     0
100
AcDbLine
 10
90.866031
 20
143.625035
 30
0.0
 11
91.909243
 21
144.668247
 31
0.0
  0
LINE
  5
2DD9
100
AcDbEntity
  8
0
  6
CONTINUOUS
 62
     0
100
AcDbLine
 10
106.219418
 20
158.978422
 30
0.0
 11
107.787031
 21
160.546036
 31
0.0
  0
LINE
  5
2DDA
100
AcDbEntity
  8
0
  6
CONTINUOUS
 62
     0
100
AcDbLine
 10
90.973383
 20
143.507881
 30
0.0
 11
92.027519
 21
144.562017
 31
0.0
  0
LINE
  5
2DDB
100
AcDbEntity
  8
0
  6
CONTINUOUS
 62
     0
100
AcDbLine
 10
106.2405
 20
158.774998
 30
0.0
 11
107.904185
 21
160.438684
 31
0.0
  0
LINE
  5
2DDC
100
AcDbEntity
  8
0
  6
CONTINUOUS
 62
     0
100
AcDbLine
 10
91.080735
 20
143.390727
 30
0.0
 11
92.145795
 21
144.455786
 31
0.0
  0
LINE
  5
2DDD
100
AcDbEntity
  8
0
  6
CONTINUOUS
 62
     0
100
AcDbLine
 10
106.2405
 20
158.550492
 30
0.0
 11
108.02134
 21
160.331332
 31
0.0
  0
LINE
  5
2DDE
100
AcDbEntity
  8
0
  6
CONTINUOUS
 62
     0
100
AcDbLine
 10
91.188087
 20
143.273573
 30
0.0
 11
92.26407
 21
144.349556
 31
0.0
  0
LINE
  5
2DDF
100
AcDbEntity
  8
0
  6
CONTINUOUS
 62
     0
100
AcDbLine
 10
106.2405
 20
158.325986
 30
0.0
 11
108.138494
 21
160.22398
 31
0.0
  0
LINE
  5
2DE0
100
AcDbEntity
  8
0
  6
CONTINUOUS
 62
     0
100
AcDbLine
 10
91.295439
 20
143.156418
 30
0.0
 11
92.382346
 21
144.243325
 31
0.0
  0
LINE
  5
2DE1
100
AcDbEntity
  8
0
  6
CONTINUOUS
 62
     0
100
AcDbLine
 10
106.2405
 20
158.101479
 30
0.0
 11
108.255648
 21
160.116627
 31
0.0
  0
LINE
  5
2DE2
100
AcDbEntity
  8
0
  6
CONTINUOUS
 62
     0
100
AcDbLine
 10
91.402791
 20
143.039264
 30
0.0
 11
92.500622
 21
144.137095
 31
0.0
  0
LINE
  5
2DE3
100
AcDbEntity
  8
0
  6
CONTINUOUS
 62
     0
100
AcDbLine
 10
106.2405
 20
157.876973
 30
0.0
 11
108.372803
 21
160.009275
 31
0.0
  0
LINE
  5
2DE4
100
AcDbEntity
  8
0
  6
CONTINUOUS
 62
     0
100
AcDbLine
 10
91.510143
 20
142.92211
 30
0.0
 11
92.618898
 21
144.030864
 31
0.0
  0
LINE
  5
2DE5
100
AcDbEntity
  8
0
  6
CONTINUOUS
 62
     0
100
AcDbLine
 10
106.2405
 20
157.652466
 30
0.0
 11
108.489957
 21
159.901923
 31
0.0
  0
LINE
  5
2DE6
100
AcDbEntity
  8
0
  6
CONTINUOUS
 62
     0
100
AcDbLine
 10
91.617496
 20
142.804955
 30
0.0
 11
92.737174
 21
143.924634
 31
0.0
  0
LINE
  5
2DE7
100
AcDbEntity
  8
0
  6
CONTINUOUS
 62
     0
100
AcDbLine
 10
106.2405
 20
157.42796
 30
0.0
 11
108.607111
 21
159.794571
 31
0.0
  0
LINE
  5
2DE8
100
AcDbEntity
  8
0
  6
CONTINUOUS
 62
     0
100
AcDbLine
 10
91.724848
 20
142.687801
 30
0.0
 11
92.85545
 21
143.818403
 31
0.0
  0
LINE
  5
2DE9
100
AcDbEntity
  8
0
  6
CONTINUOUS
 62
     0
100
AcDbLine
 10
106.2405
 20
157.203454
 30
0.0
 11
108.724265
 21
159.687219
 31
0.0
  0
LINE
  5
2DEA
100
AcDbEntity
  8
0
  6
CONTINUOUS
 62
     0
100
AcDbLine
 10
91.8322
 20
142.570647
 30
0.0
 11
92.973726
 21
143.712173
 31
0.0
  0
LINE
  5
2DEB
100
AcDbEntity
  8
0
  6
CONTINUOUS
 62
     0
100
AcDbLine
 10
106.2405
 20
156.978947
 30
0.0
 11
108.84142
 21
159.579867
 31
0.0
  0
LINE
  5
2DEC
100
AcDbEntity
  8
0
  6
CONTINUOUS
 62
     0
100
AcDbLine
 10
91.939552
 20
142.453493
 30
0.0
 11
93.092002
 21
143.605942
 31
0.0
  0
LINE
  5
2DED
100
AcDbEntity
  8
0
  6
CONTINUOUS
 62
     0
100
AcDbLine
 10
106.2405
 20
156.754441
 30
0.0
 11
108.957401
 21
159.471342
 31
0.0
  0
LINE
  5
2DEE
100
AcDbEntity
  8
0
  6
CONTINUOUS
 62
     0
100
AcDbLine
 10
92.046904
 20
142.336338
 30
0.0
 11
93.210277
 21
143.499712
 31
0.0
  0
LINE
  5
2DEF
100
AcDbEntity
  8
0
  6
CONTINUOUS
 62
     0
100
AcDbLine
 10
106.2405
 20
156.529934
 30
0.0
 11
109.059099
 21
159.348533
 31
0.0
  0
LINE
  5
2DF0
100
AcDbEntity
  8
0
  6
CONTINUOUS
 62
     0
100
AcDbLine
 10
92.154256
 20
142.219184
 30
0.0
 11
93.328553
 21
143.393481
 31
0.0
  0
LINE
  5
2DF1
100
AcDbEntity
  8
0
  6
CONTINUOUS
 62
     0
100
AcDbLine
 10
106.2405
 20
156.305428
 30
0.0
 11
109.142006
 21
159.206934
 31
0.0
  0
LINE
  5
2DF2
100
AcDbEntity
  8
0
  6
CONTINUOUS
 62
     0
100
AcDbLine
 10
92.261608
 20
142.10203
 30
0.0
 11
93.446829
 21
143.287251
 31
0.0
  0
LINE
  5
2DF3
100
AcDbEntity
  8
0
  6
CONTINUOUS
 62
     0
100
AcDbLine
 10
106.2405
 20
156.080922
 30
0.0
 11
109.203445
 21
159.043866
 31
0.0
  0
LINE
  5
2DF4
100
AcDbEntity
  8
0
  6
CONTINUOUS
 62
     0
100
AcDbLine
 10
92.36896
 20
141.984875
 30
0.0
 11
93.565105
 21
143.18102
 31
0.0
  0
LINE
  5
2DF5
100
AcDbEntity
  8
0
  6
CONTINUOUS
 62
     0
100
AcDbLine
 10
106.2405
 20
155.856415
 30
0.0
 11
109.237366
 21
158.853281
 31
0.0
  0
LINE
  5
2DF6
100
AcDbEntity
  8
0
  6
CONTINUOUS
 62
     0
100
AcDbLine
 10
92.476313
 20
141.867721
 30
0.0
 11
93.683381
 21
143.07479
 31
0.0
  0
LINE
  5
2DF7
100
AcDbEntity
  8
0
  6
CONTINUOUS
 62
     0
100
AcDbLine
 10
106.2405
 20
155.631909
 30
0.0
 11
109.2405
 21
158.631909
 31
0.0
  0
LINE
  5
2DF8
100
AcDbEntity
  8
0
  6
CONTINUOUS
 62
     0
100
AcDbLine
 10
92.583665
 20
141.750567
 30
0.0
 11
93.801657
 21
142.968559
 31
0.0
  0
LINE
  5
2DF9
100
AcDbEntity
  8
0
  6
CONTINUOUS
 62
     0
100
AcDbLine
 10
106.2405
 20
155.407402
 30
0.0
 11
109.2405
 21
158.407402
 31
0.0
  0
LINE
  5
2DFA
100
AcDbEntity
  8
0
  6
CONTINUOUS
 62
     0
100
AcDbLine
 10
92.691017
 20
141.633413
 30
0.0
 11
93.919933
 21
142.862329
 31
0.0
  0
LINE
  5
2DFB
100
AcDbEntity
  8
0
  6
CONTINUOUS
 62
     0
100
AcDbLine
 10
106.2405
 20
155.182896
 30
0.0
 11
109.2405
 21
158.182896
 31
0.0
  0
LINE
  5
2DFC
100
AcDbEntity
  8
0
  6
CONTINUOUS
 62
     0
100
AcDbLine
 10
92.798369
 20
141.516258
 30
0.0
 11
94.038209
 21
142.756098
 31
0.0
  0
LINE
  5
2DFD
100
AcDbEntity
  8
0
  6
CONTINUOUS
 62
     0
100
AcDbLine
 10
106.2405
 20
154.95839
 30
0.0
 11
109.2405
 21
157.95839
 31
0.0
  0
LINE
  5
2DFE
100
AcDbEntity
  8
0
  6
CONTINUOUS
 62
     0
100
AcDbLine
 10
92.905721
 20
141.399104
 30
0.0
 11
94.156484
 21
142.649867
 31
0.0
  0
LINE
  5
2DFF
100
AcDbEntity
  8
0
  6
CONTINUOUS
 62
     0
100
AcDbLine
 10
106.2405
 20
154.733883
 30
0.0
 11
109.2405
 21
157.733883
 31
0.0
  0
LINE
  5
2E00
100
AcDbEntity
  8
0
  6
CONTINUOUS
 62
     0
100
AcDbLine
 10
93.013073
 20
141.28195
 30
0.0
 11
94.27476
 21
142.543637
 31
0.0
  0
LINE
  5
2E01
100
AcDbEntity
  8
0
  6
CONTINUOUS
 62
     0
100
AcDbLine
 10
106.2405
 20
154.509377
 30
0.0
 11
109.2405
 21
157.509377
 31
0.0
  0
LINE
  5
2E02
100
AcDbEntity
  8
0
  6
CONTINUOUS
 62
     0
100
AcDbLine
 10
93.120425
 20
141.164795
 30
0.0
 11
94.393036
 21
142.437406
 31
0.0
  0
LINE
  5
2E03
100
AcDbEntity
  8
0
  6
CONTINUOUS
 62
     0
100
AcDbLine
 10
106.2405
 20
154.28487
 30
0.0
 11
109.2405
 21
157.28487
 31
0.0
  0
LINE
  5
2E04
100
AcDbEntity
  8
0
  6
CONTINUOUS
 62
     0
100
AcDbLine
 10
93.227777
 20
141.047641
 30
0.0
 11
94.511312
 21
142.331176
 31
0.0
  0
LINE
  5
2E05
100
AcDbEntity
  8
0
  6
CONTINUOUS
 62
     0
100
AcDbLine
 10
106.2405
 20
154.060364
 30
0.0
 11
109.2405
 21
157.060364
 31
0.0
  0
LINE
  5
2E06
100
AcDbEntity
  8
0
  6
CONTINUOUS
 62
     0
100
AcDbLine
 10
93.335129
 20
140.930487
 30
0.0
 11
94.629588
 21
142.224945
 31
0.0
  0
LINE
  5
2E07
100
AcDbEntity
  8
0
  6
CONTINUOUS
 62
     0
100
AcDbLine
 10
106.2405
 20
153.835858
 30
0.0
 11
109.2405
 21
156.835858
 31
0.0
  0
LINE
  5
2E08
100
AcDbEntity
  8
0
  6
CONTINUOUS
 62
     0
100
AcDbLine
 10
93.442482
 20
140.813333
 30
0.0
 11
94.747864
 21
142.118715
 31
0.0
  0
LINE
  5
2E09
100
AcDbEntity
  8
0
  6
CONTINUOUS
 62
     0
100
AcDbLine
 10
106.2405
 20
153.611351
 30
0.0
 11
109.2405
 21
156.611351
 31
0.0
  0
LINE
  5
2E0A
100
AcDbEntity
  8
0
  6
CONTINUOUS
 62
     0
100
AcDbLine
 10
93.549834
 20
140.696178
 30
0.0
 11
94.86614
 21
142.012484
 31
0.0
  0
LINE
  5
2E0B
100
AcDbEntity
  8
0
  6
CONTINUOUS
 62
     0
100
AcDbLine
 10
106.2405
 20
153.386845
 30
0.0
 11
109.2405
 21
156.386845
 31
0.0
  0
LINE
  5
2E0C
100
AcDbEntity
  8
0
  6
CONTINUOUS
 62
     0
100
AcDbLine
 10
93.657186
 20
140.579024
 30
0.0
 11
94.984416
 21
141.906254
 31
0.0
  0
LINE
  5
2E0D
100
AcDbEntity
  8
0
  6
CONTINUOUS
 62
     0
100
AcDbLine
 10
106.2405
 20
153.162338
 30
0.0
 11
109.2405
 21
156.162338
 31
0.0
  0
LINE
  5
2E0E
100
AcDbEntity
  8
0
  6
CONTINUOUS
 62
     0
100
AcDbLine
 10
93.764538
 20
140.46187
 30
0.0
 11
95.102691
 21
141.800023
 31
0.0
  0
LINE
  5
2E0F
100
AcDbEntity
  8
0
  6
CONTINUOUS
 62
     0
100
AcDbLine
 10
106.2405
 20
152.937832
 30
0.0
 11
109.2405
 21
155.937832
 31
0.0
  0
LINE
  5
2E10
100
AcDbEntity
  8
0
  6
CONTINUOUS
 62
     0
100
AcDbLine
 10
93.87189
 20
140.344716
 30
0.0
 11
95.220967
 21
141.693793
 31
0.0
  0
LINE
  5
2E11
100
AcDbEntity
  8
0
  6
CONTINUOUS
 62
     0
100
AcDbLine
 10
106.2405
 20
152.713326
 30
0.0
 11
109.2405
 21
155.713326
 31
0.0
  0
LINE
  5
2E12
100
AcDbEntity
  8
0
  6
CONTINUOUS
 62
     0
100
AcDbLine
 10
93.979242
 20
140.227561
 30
0.0
 11
95.339243
 21
141.587562
 31
0.0
  0
LINE
  5
2E13
100
AcDbEntity
  8
0
  6
CONTINUOUS
 62
     0
100
AcDbLine
 10
106.2405
 20
152.488819
 30
0.0
 11
109.2405
 21
155.488819
 31
0.0
  0
LINE
  5
2E14
100
AcDbEntity
  8
0
  6
CONTINUOUS
 62
     0
100
AcDbLine
 10
94.086594
 20
140.110407
 30
0.0
 11
95.457519
 21
141.481332
 31
0.0
  0
LINE
  5
2E15
100
AcDbEntity
  8
0
  6
CONTINUOUS
 62
     0
100
AcDbLine
 10
106.2405
 20
152.264313
 30
0.0
 11
109.2405
 21
155.264313
 31
0.0
  0
LINE
  5
2E16
100
AcDbEntity
  8
0
  6
CONTINUOUS
 62
     0
100
AcDbLine
 10
94.193946
 20
139.993253
 30
0.0
 11
95.575795
 21
141.375101
 31
0.0
  0
LINE
  5
2E17
100
AcDbEntity
  8
0
  6
CONTINUOUS
 62
     0
100
AcDbLine
 10
106.2405
 20
152.039806
 30
0.0
 11
109.2405
 21
155.039806
 31
0.0
  0
LINE
  5
2E18
100
AcDbEntity
  8
0
  6
CONTINUOUS
 62
     0
100
AcDbLine
 10
94.301299
 20
139.876098
 30
0.0
 11
95.694071
 21
141.268871
 31
0.0
  0
LINE
  5
2E19
100
AcDbEntity
  8
0
  6
CONTINUOUS
 62
     0
100
AcDbLine
 10
106.2405
 20
151.8153
 30
0.0
 11
109.2405
 21
154.8153
 31
0.0
  0
LINE
  5
2E1A
100
AcDbEntity
  8
0
  6
CONTINUOUS
 62
     0
100
AcDbLine
 10
94.408651
 20
139.758944
 30
0.0
 11
95.812347
 21
141.16264
 31
0.0
  0
LINE
  5
2E1B
100
AcDbEntity
  8
0
  6
CONTINUOUS
 62
     0
100
AcDbLine
 10
106.2405
 20
151.590794
 30
0.0
 11
109.2405
 21
154.590794
 31
0.0
  0
LINE
  5
2E1C
100
AcDbEntity
  8
0
  6
CONTINUOUS
 62
     0
100
AcDbLine
 10
94.516003
 20
139.64179
 30
0.0
 11
95.930623
 21
141.05641
 31
0.0
  0
LINE
  5
2E1D
100
AcDbEntity
  8
0
  6
CONTINUOUS
 62
     0
100
AcDbLine
 10
106.2405
 20
151.366287
 30
0.0
 11
109.2405
 21
154.366287
 31
0.0
  0
LINE
  5
2E1E
100
AcDbEntity
  8
0
  6
CONTINUOUS
 62
     0
100
AcDbLine
 10
94.623355
 20
139.524636
 30
0.0
 11
96.048898
 21
140.950179
 31
0.0
  0
LINE
  5
2E1F
100
AcDbEntity
  8
0
  6
CONTINUOUS
 62
     0
100
AcDbLine
 10
106.2405
 20
151.141781
 30
0.0
 11
109.2405
 21
154.141781
 31
0.0
  0
LINE
  5
2E20
100
AcDbEntity
  8
0
  6
CONTINUOUS
 62
     0
100
AcDbLine
 10
94.730707
 20
139.407481
 30
0.0
 11
96.165359
 21
140.842133
 31
0.0
  0
LINE
  5
2E21
100
AcDbEntity
  8
0
  6
CONTINUOUS
 62
     0
100
AcDbLine
 10
106.2405
 20
150.917274
 30
0.0
 11
109.2405
 21
153.917274
 31
0.0
  0
LINE
  5
2E22
100
AcDbEntity
  8
0
  6
CONTINUOUS
 62
     0
100
AcDbLine
 10
94.838059
 20
139.290327
 30
0.0
 11
96.27877
 21
140.731037
 31
0.0
  0
LINE
  5
2E23
100
AcDbEntity
  8
0
  6
CONTINUOUS
 62
     0
100
AcDbLine
 10
106.2405
 20
150.692768
 30
0.0
 11
109.2405
 21
153.692768
 31
0.0
  0
LINE
  5
2E24
100
AcDbEntity
  8
0
  6
CONTINUOUS
 62
     0
100
AcDbLine
 10
94.945411
 20
139.173173
 30
0.0
 11
96.401138
 21
140.628899
 31
0.0
  0
LINE
  5
2E25
100
AcDbEntity
  8
0
  6
CONTINUOUS
 62
     0
100
AcDbLine
 10
106.2405
 20
150.468262
 30
0.0
 11
109.2405
 21
153.468262
 31
0.0
  0
LINE
  5
2E26
100
AcDbEntity
  8
0
  6
CONTINUOUS
 62
     0
100
AcDbLine
 10
95.052763
 20
139.056018
 30
0.0
 11
96.532661
 21
140.535916
 31
0.0
  0
LINE
  5
2E27
100
AcDbEntity
  8
0
  6
CONTINUOUS
 62
     0
100
AcDbLine
 10
106.2405
 20
150.243755
 30
0.0
 11
109.2405
 21
153.243755
 31
0.0
  0
LINE
  5
2E28
100
AcDbEntity
  8
0
  6
CONTINUOUS
 62
     0
100
AcDbLine
 10
95.160116
 20
138.938864
 30
0.0
 11
96.673729
 21
140.452478
 31
0.0
  0
LINE
  5
2E29
100
AcDbEntity
  8
0
  6
CONTINUOUS
 62
     0
100
AcDbLine
 10
106.2405
 20
150.019249
 30
0.0
 11
109.2405
 21
153.019249
 31
0.0
  0
LINE
  5
2E2A
100
AcDbEntity
  8
0
  6
CONTINUOUS
 62
     0
100
AcDbLine
 10
95.267468
 20
138.82171
 30
0.0
 11
96.824969
 21
140.379212
 31
0.0
  0
LINE
  5
2E2B
100
AcDbEntity
  8
0
  6
CONTINUOUS
 62
     0
100
AcDbLine
 10
106.2405
 20
149.794742
 30
0.0
 11
109.2405
 21
152.794742
 31
0.0
  0
LINE
  5
2E2C
100
AcDbEntity
  8
0
  6
CONTINUOUS
 62
     0
100
AcDbLine
 10
95.37482
 20
138.704556
 30
0.0
 11
96.987322
 21
140.317058
 31
0.0
  0
LINE
  5
2E2D
100
AcDbEntity
  8
0
  6
CONTINUOUS
 62
     0
100
AcDbLine
 10
106.2405
 20
149.570236
 30
0.0
 11
109.2405
 21
152.570236
 31
0.0
  0
LINE
  5
2E2E
100
AcDbEntity
  8
0
  6
CONTINUOUS
 62
     0
100
AcDbLine
 10
95.482172
 20
138.587401
 30
0.0
 11
97.162176
 21
140.267405
 31
0.0
  0
LINE
  5
2E2F
100
AcDbEntity
  8
0
  6
CONTINUOUS
 62
     0
100
AcDbLine
 10
106.2405
 20
149.34573
 30
0.0
 11
109.2405
 21
152.34573
 31
0.0
  0
LINE
  5
2E30
100
AcDbEntity
  8
0
  6
CONTINUOUS
 62
     0
100
AcDbLine
 10
95.589524
 20
138.470247
 30
0.0
 11
97.351614
 21
140.232337
 31
0.0
  0
LINE
  5
2E31
100
AcDbEntity
  8
0
  6
CONTINUOUS
 62
     0
100
AcDbLine
 10
106.2405
 20
149.121223
 30
0.0
 11
109.2405
 21
152.121223
 31
0.0
  0
LINE
  5
2E32
100
AcDbEntity
  8
0
  6
CONTINUOUS
 62
     0
100
AcDbLine
 10
95.696876
 20
138.353093
 30
0.0
 11
97.55891
 21
140.215126
 31
0.0
  0
LINE
  5
2E33
100
AcDbEntity
  8
0
  6
CONTINUOUS
 62
     0
100
AcDbLine
 10
106.2405
 20
148.896717
 30
0.0
 11
109.2405
 21
151.896717
 31
0.0
  0
LINE
  5
2E34
100
AcDbEntity
  8
0
  6
CONTINUOUS
 62
     0
100
AcDbLine
 10
95.804228
 20
138.235938
 30
0.0
 11
97.782467
 21
140.214177
 31
0.0
  0
LINE
  5
2E35
100
AcDbEntity
  8
0
  6
CONTINUOUS
 62
     0
100
AcDbLine
 10
106.2405
 20
148.67221
 30
0.0
 11
109.2405
 21
151.67221
 31
0.0
  0
LINE
  5
2E36
100
AcDbEntity
  8
0
  6
CONTINUOUS
 62
     0
100
AcDbLine
 10
95.91158
 20
138.118784
 30
0.0
 11
98.006973
 21
140.214177
 31
0.0
  0
LINE
  5
2E37
100
AcDbEntity
  8
0
  6
CONTINUOUS
 62
     0
100
AcDbLine
 10
106.2405
 20
148.447704
 30
0.0
 11
109.2405
 21
151.447704
 31
0.0
  0
LINE
  5
2E38
100
AcDbEntity
  8
0
  6
CONTINUOUS
 62
     0
100
AcDbLine
 10
96.018932
 20
138.00163
 30
0.0
 11
98.23148
 21
140.214177
 31
0.0
  0
LINE
  5
2E39
100
AcDbEntity
  8
0
  6
CONTINUOUS
 62
     0
100
AcDbLine
 10
106.2405
 20
148.223198
 30
0.0
 11
109.2405
 21
151.223198
 31
0.0
  0
LINE
  5
2E3A
100
AcDbEntity
  8
0
  6
CONTINUOUS
 62
     0
100
AcDbLine
 10
96.126285
 20
137.884476
 30
0.0
 11
98.455986
 21
140.214177
 31
0.0
  0
LINE
  5
2E3B
100
AcDbEntity
  8
0
  6
CONTINUOUS
 62
     0
100
AcDbLine
 10
106.2405
 20
147.998691
 30
0.0
 11
109.2405
 21
150.998691
 31
0.0
  0
LINE
  5
2E3C
100
AcDbEntity
  8
0
  6
CONTINUOUS
 62
     0
100
AcDbLine
 10
96.236611
 20
137.770296
 30
0.0
 11
98.680492
 21
140.214177
 31
0.0
  0
LINE
  5
2E3D
100
AcDbEntity
  8
0
  6
CONTINUOUS
 62
     0
100
AcDbLine
 10
106.2405
 20
147.774185
 30
0.0
 11
109.2405
 21
150.774185
 31
0.0
  0
LINE
  5
2E3E
100
AcDbEntity
  8
0
  6
CONTINUOUS
 62
     0
100
AcDbLine
 10
96.355718
 20
137.664896
 30
0.0
 11
98.904999
 21
140.214177
 31
0.0
  0
LINE
  5
2E3F
100
AcDbEntity
  8
0
  6
CONTINUOUS
 62
     0
100
AcDbLine
 10
106.2405
 20
147.549678
 30
0.0
 11
109.2405
 21
150.549678
 31
0.0
  0
LINE
  5
2E40
100
AcDbEntity
  8
0
  6
CONTINUOUS
 62
     0
100
AcDbLine
 10
96.483886
 20
137.568558
 30
0.0
 11
99.129505
 21
140.214177
 31
0.0
  0
LINE
  5
2E41
100
AcDbEntity
  8
0
  6
CONTINUOUS
 62
     0
100
AcDbLine
 10
106.2405
 20
147.325172
 30
0.0
 11
109.2405
 21
150.325172
 31
0.0
  0
LINE
  5
2E42
100
AcDbEntity
  8
0
  6
CONTINUOUS
 62
     0
100
AcDbLine
 10
96.621434
 20
137.481599
 30
0.0
 11
99.354012
 21
140.214177
 31
0.0
  0
LINE
  5
2E43
100
AcDbEntity
  8
0
  6
CONTINUOUS
 62
     0
100
AcDbLine
 10
106.2405
 20
147.100666
 30
0.0
 11
109.2405
 21
150.100666
 31
0.0
  0
LINE
  5
2E44
100
AcDbEntity
  8
0
  6
CONTINUOUS
 62
     0
100
AcDbLine
 10
96.768895
 20
137.404554
 30
0.0
 11
99.578518
 21
140.214177
 31
0.0
  0
LINE
  5
2E45
100
AcDbEntity
  8
0
  6
CONTINUOUS
 62
     0
100
AcDbLine
 10
106.2405
 20
146.876159
 30
0.0
 11
109.2405
 21
149.876159
 31
0.0
  0
LINE
  5
2E46
100
AcDbEntity
  8
0
  6
CONTINUOUS
 62
     0
100
AcDbLine
 10
96.927085
 20
137.338238
 30
0.0
 11
99.803024
 21
140.214177
 31
0.0
  0
LINE
  5
2E47
100
AcDbEntity
  8
0
  6
CONTINUOUS
 62
     0
100
AcDbLine
 10
106.2405
 20
146.651653
 30
0.0
 11
109.2405
 21
149.651653
 31
0.0
  0
LINE
  5
2E48
100
AcDbEntity
  8
0
  6
CONTINUOUS
 62
     0
100
AcDbLine
 10
97.097209
 20
137.283855
 30
0.0
 11
100.027531
 21
140.214177
 31
0.0
  0
LINE
  5
2E49
100
AcDbEntity
  8
0
  6
CONTINUOUS
 62
     0
100
AcDbLine
 10
106.2405
 20
146.427146
 30
0.0
 11
109.2405
 21
149.427146
 31
0.0
  0
LINE
  5
2E4A
100
AcDbEntity
  8
0
  6
CONTINUOUS
 62
     0
100
AcDbLine
 10
97.281057
 20
137.243196
 30
0.0
 11
100.252037
 21
140.214177
 31
0.0
  0
LINE
  5
2E4B
100
AcDbEntity
  8
0
  6
CONTINUOUS
 62
     0
100
AcDbLine
 10
106.2405
 20
146.20264
 30
0.0
 11
109.2405
 21
149.20264
 31
0.0
  0
LINE
  5
2E4C
100
AcDbEntity
  8
0
  6
CONTINUOUS
 62
     0
100
AcDbLine
 10
97.481389
 20
137.219022
 30
0.0
 11
100.476544
 21
140.214177
 31
0.0
  0
LINE
  5
2E4D
100
AcDbEntity
  8
0
  6
CONTINUOUS
 62
     0
100
AcDbLine
 10
106.2405
 20
145.978134
 30
0.0
 11
109.2405
 21
148.978134
 31
0.0
  0
LINE
  5
2E4E
100
AcDbEntity
  8
0
  6
CONTINUOUS
 62
     0
100
AcDbLine
 10
97.70105
 20
137.214177
 30
0.0
 11
100.70105
 21
140.214177
 31
0.0
  0
LINE
  5
2E4F
100
AcDbEntity
  8
0
  6
CONTINUOUS
 62
     0
100
AcDbLine
 10
106.2405
 20
145.753627
 30
0.0
 11
109.2405
 21
148.753627
 31
0.0
  0
LINE
  5
2E50
100
AcDbEntity
  8
0
  6
CONTINUOUS
 62
     0
100
AcDbLine
 10
97.925556
 20
137.214177
 30
0.0
 11
100.925556
 21
140.214177
 31
0.0
  0
LINE
  5
2E51
100
AcDbEntity
  8
0
  6
CONTINUOUS
 62
     0
100
AcDbLine
 10
106.2405
 20
145.529121
 30
0.0
 11
109.2405
 21
148.529121
 31
0.0
  0
LINE
  5
2E52
100
AcDbEntity
  8
0
  6
CONTINUOUS
 62
     0
100
AcDbLine
 10
98.150063
 20
137.214177
 30
0.0
 11
101.150063
 21
140.214177
 31
0.0
  0
LINE
  5
2E53
100
AcDbEntity
  8
0
  6
CONTINUOUS
 62
     0
100
AcDbLine
 10
106.2405
 20
145.304614
 30
0.0
 11
109.2405
 21
148.304614
 31
0.0
  0
LINE
  5
2E54
100
AcDbEntity
  8
0
  6
CONTINUOUS
 62
     0
100
AcDbLine
 10
98.374569
 20
137.214177
 30
0.0
 11
101.374569
 21
140.214177
 31
0.0
  0
LINE
  5
2E55
100
AcDbEntity
  8
0
  6
CONTINUOUS
 62
     0
100
AcDbLine
 10
106.2405
 20
145.080108
 30
0.0
 11
109.2405
 21
148.080108
 31
0.0
  0
LINE
  5
2E56
100
AcDbEntity
  8
0
  6
CONTINUOUS
 62
     0
100
AcDbLine
 10
98.599076
 20
137.214177
 30
0.0
 11
101.599076
 21
140.214177
 31
0.0
  0
LINE
  5
2E57
100
AcDbEntity
  8
0
  6
CONTINUOUS
 62
     0
100
AcDbLine
 10
106.2405
 20
144.855601
 30
0.0
 11
109.2405
 21
147.855601
 31
0.0
  0
LINE
  5
2E58
100
AcDbEntity
  8
0
  6
CONTINUOUS
 62
     0
100
AcDbLine
 10
98.823582
 20
137.214177
 30
0.0
 11
101.823582
 21
140.214177
 31
0.0
  0
LINE
  5
2E59
100
AcDbEntity
  8
0
  6
CONTINUOUS
 62
     0
100
AcDbLine
 10
106.2405
 20
144.631095
 30
0.0
 11
109.2405
 21
147.631095
 31
0.0
  0
LINE
  5
2E5A
100
AcDbEntity
  8
0
  6
CONTINUOUS
 62
     0
100
AcDbLine
 10
99.048088
 20
137.214177
 30
0.0
 11
102.048088
 21
140.214177
 31
0.0
  0
LINE
  5
2E5B
100
AcDbEntity
  8
0
  6
CONTINUOUS
 62
     0
100
AcDbLine
 10
106.2405
 20
144.406589
 30
0.0
 11
109.2405
 21
147.406589
 31
0.0
  0
LINE
  5
2E5C
100
AcDbEntity
  8
0
  6
CONTINUOUS
 62
     0
100
AcDbLine
 10
99.272595
 20
137.214177
 30
0.0
 11
102.272595
 21
140.214177
 31
0.0
  0
LINE
  5
2E5D
100
AcDbEntity
  8
0
  6
CONTINUOUS
 62
     0
100
AcDbLine
 10
106.2405
 20
144.182082
 30
0.0
 11
109.2405
 21
147.182082
 31
0.0
  0
LINE
  5
2E5E
100
AcDbEntity
  8
0
  6
CONTINUOUS
 62
     0
100
AcDbLine
 10
99.497101
 20
137.214177
 30
0.0
 11
102.497101
 21
140.214177
 31
0.0
  0
LINE
  5
2E5F
100
AcDbEntity
  8
0
  6
CONTINUOUS
 62
     0
100
AcDbLine
 10
106.2405
 20
143.957576
 30
0.0
 11
109.2405
 21
146.957576
 31
0.0
  0
LINE
  5
2E60
100
AcDbEntity
  8
0
  6
CONTINUOUS
 62
     0
100
AcDbLine
 10
99.721608
 20
137.214177
 30
0.0
 11
102.721608
 21
140.214177
 31
0.0
  0
LINE
  5
2E61
100
AcDbEntity
  8
0
  6
CONTINUOUS
 62
     0
100
AcDbLine
 10
106.2405
 20
143.733069
 30
0.0
 11
109.2405
 21
146.733069
 31
0.0
  0
LINE
  5
2E62
100
AcDbEntity
  8
0
  6
CONTINUOUS
 62
     0
100
AcDbLine
 10
99.946114
 20
137.214177
 30
0.0
 11
102.946114
 21
140.214177
 31
0.0
  0
LINE
  5
2E63
100
AcDbEntity
  8
0
  6
CONTINUOUS
 62
     0
100
AcDbLine
 10
106.2405
 20
143.508563
 30
0.0
 11
109.2405
 21
146.508563
 31
0.0
  0
LINE
  5
2E64
100
AcDbEntity
  8
0
  6
CONTINUOUS
 62
     0
100
AcDbLine
 10
100.17062
 20
137.214177
 30
0.0
 11
103.17062
 21
140.214177
 31
0.0
  0
LINE
  5
2E65
100
AcDbEntity
  8
0
  6
CONTINUOUS
 62
     0
100
AcDbLine
 10
106.2405
 20
143.284057
 30
0.0
 11
109.2405
 21
146.284057
 31
0.0
  0
LINE
  5
2E66
100
AcDbEntity
  8
0
  6
CONTINUOUS
 62
     0
100
AcDbLine
 10
100.395127
 20
137.214177
 30
0.0
 11
103.395127
 21
140.214177
 31
0.0
  0
LINE
  5
2E67
100
AcDbEntity
  8
0
  6
CONTINUOUS
 62
     0
100
AcDbLine
 10
106.2405
 20
143.05955
 30
0.0
 11
109.2405
 21
146.05955
 31
0.0
  0
LINE
  5
2E68
100
AcDbEntity
  8
0
  6
CONTINUOUS
 62
     0
100
AcDbLine
 10
100.619633
 20
137.214177
 30
0.0
 11
103.619633
 21
140.214177
 31
0.0
  0
LINE
  5
2E69
100
AcDbEntity
  8
0
  6
CONTINUOUS
 62
     0
100
AcDbLine
 10
106.2405
 20
142.835044
 30
0.0
 11
109.2405
 21
145.835044
 31
0.0
  0
LINE
  5
2E6A
100
AcDbEntity
  8
0
  6
CONTINUOUS
 62
     0
100
AcDbLine
 10
100.84414
 20
137.214177
 30
0.0
 11
103.84414
 21
140.214177
 31
0.0
  0
LINE
  5
2E6B
100
AcDbEntity
  8
0
  6
CONTINUOUS
 62
     0
100
AcDbLine
 10
106.2405
 20
142.610537
 30
0.0
 11
109.2405
 21
145.610537
 31
0.0
  0
LINE
  5
2E6C
100
AcDbEntity
  8
0
  6
CONTINUOUS
 62
     0
100
AcDbLine
 10
101.068646
 20
137.214177
 30
0.0
 11
104.068646
 21
140.214177
 31
0.0
  0
LINE
  5
2E6D
100
AcDbEntity
  8
0
  6
CONTINUOUS
 62
     0
100
AcDbLine
 10
106.2405
 20
142.386031
 30
0.0
 11
109.2405
 21
145.386031
 31
0.0
  0
LINE
  5
2E6E
100
AcDbEntity
  8
0
  6
CONTINUOUS
 62
     0
100
AcDbLine
 10
101.293152
 20
137.214177
 30
0.0
 11
104.293152
 21
140.214177
 31
0.0
  0
LINE
  5
2E6F
100
AcDbEntity
  8
0
  6
CONTINUOUS
 62
     0
100
AcDbLine
 10
106.2405
 20
142.161525
 30
0.0
 11
109.2405
 21
145.161525
 31
0.0
  0
LINE
  5
2E70
100
AcDbEntity
  8
0
  6
CONTINUOUS
 62
     0
100
AcDbLine
 10
101.517659
 20
137.214177
 30
0.0
 11
104.517659
 21
140.214177
 31
0.0
  0
LINE
  5
2E71
100
AcDbEntity
  8
0
  6
CONTINUOUS
 62
     0
100
AcDbLine
 10
106.2405
 20
141.937018
 30
0.0
 11
109.2405
 21
144.937018
 31
0.0
  0
LINE
  5
2E72
100
AcDbEntity
  8
0
  6
CONTINUOUS
 62
     0
100
AcDbLine
 10
101.742165
 20
137.214177
 30
0.0
 11
104.742165
 21
140.214177
 31
0.0
  0
LINE
  5
2E73
100
AcDbEntity
  8
0
  6
CONTINUOUS
 62
     0
100
AcDbLine
 10
106.2405
 20
141.712512
 30
0.0
 11
109.2405
 21
144.712512
 31
0.0
  0
LINE
  5
2E74
100
AcDbEntity
  8
0
  6
CONTINUOUS
 62
     0
100
AcDbLine
 10
101.966672
 20
137.214177
 30
0.0
 11
104.966672
 21
140.214177
 31
0.0
  0
LINE
  5
2E75
100
AcDbEntity
  8
0
  6
CONTINUOUS
 62
     0
100
AcDbLine
 10
106.2405
 20
141.488005
 30
0.0
 11
109.2405
 21
144.488005
 31
0.0
  0
LINE
  5
2E76
100
AcDbEntity
  8
0
  6
CONTINUOUS
 62
     0
100
AcDbLine
 10
102.191178
 20
137.214177
 30
0.0
 11
105.191178
 21
140.214177
 31
0.0
  0
LINE
  5
2E77
100
AcDbEntity
  8
0
  6
CONTINUOUS
 62
     0
100
AcDbLine
 10
106.2405
 20
141.263499
 30
0.0
 11
109.2405
 21
144.263499
 31
0.0
  0
LINE
  5
2E78
100
AcDbEntity
  8
0
  6
CONTINUOUS
 62
     0
100
AcDbLine
 10
102.415684
 20
137.214177
 30
0.0
 11
105.415684
 21
140.214177
 31
0.0
  0
LINE
  5
2E79
100
AcDbEntity
  8
0
  6
CONTINUOUS
 62
     0
100
AcDbLine
 10
106.2405
 20
141.038993
 30
0.0
 11
109.2405
 21
144.038993
 31
0.0
  0
LINE
  5
2E7A
100
AcDbEntity
  8
0
  6
CONTINUOUS
 62
     0
100
AcDbLine
 10
102.640191
 20
137.214177
 30
0.0
 11
105.640191
 21
140.214177
 31
0.0
  0
LINE
  5
2E7B
100
AcDbEntity
  8
0
  6
CONTINUOUS
 62
     0
100
AcDbLine
 10
106.2405
 20
140.814486
 30
0.0
 11
109.2405
 21
143.814486
 31
0.0
  0
LINE
  5
2E7C
100
AcDbEntity
  8
0
  6
CONTINUOUS
 62
     0
100
AcDbLine
 10
102.864697
 20
137.214177
 30
0.0
 11
105.864697
 21
140.214177
 31
0.0
  0
LINE
  5
2E7D
100
AcDbEntity
  8
0
  6
CONTINUOUS
 62
     0
100
AcDbLine
 10
106.2405
 20
140.58998
 30
0.0
 11
109.2405
 21
143.58998
 31
0.0
  0
LINE
  5
2E7E
100
AcDbEntity
  8
0
  6
CONTINUOUS
 62
     0
100
AcDbLine
 10
103.089204
 20
137.214177
 30
0.0
 11
106.089204
 21
140.214177
 31
0.0
  0
LINE
  5
2E7F
100
AcDbEntity
  8
0
  6
CONTINUOUS
 62
     0
100
AcDbLine
 10
106.2405
 20
140.365473
 30
0.0
 11
109.2405
 21
143.365473
 31
0.0
  0
LINE
  5
2E80
100
AcDbEntity
  8
0
  6
CONTINUOUS
 62
     0
100
AcDbLine
 10
103.31371
 20
137.214177
 30
0.0
 11
109.2405
 21
143.140967
 31
0.0
  0
LINE
  5
2E81
100
AcDbEntity
  8
0
  6
CONTINUOUS
 62
     0
100
AcDbLine
 10
103.538216
 20
137.214177
 30
0.0
 11
109.2405
 21
142.916461
 31
0.0
  0
LINE
  5
2E82
100
AcDbEntity
  8
0
  6
CONTINUOUS
 62
     0
100
AcDbLine
 10
103.762723
 20
137.214177
 30
0.0
 11
109.2405
 21
142.691954
 31
0.0
  0
LINE
  5
2E83
100
AcDbEntity
  8
0
  6
CONTINUOUS
 62
     0
100
AcDbLine
 10
103.987229
 20
137.214177
 30
0.0
 11
109.2405
 21
142.467448
 31
0.0
  0
LINE
  5
2E84
100
AcDbEntity
  8
0
  6
CONTINUOUS
 62
     0
100
AcDbLine
 10
104.211736
 20
137.214177
 30
0.0
 11
109.2405
 21
142.242941
 31
0.0
  0
LINE
  5
2E85
100
AcDbEntity
  8
0
  6
CONTINUOUS
 62
     0
100
AcDbLine
 10
104.436242
 20
137.214177
 30
0.0
 11
109.2405
 21
142.018435
 31
0.0
  0
LINE
  5
2E86
100
AcDbEntity
  8
0
  6
CONTINUOUS
 62
     0
100
AcDbLine
 10
104.660748
 20
137.214177
 30
0.0
 11
109.2405
 21
141.793929
 31
0.0
  0
LINE
  5
2E87
100
AcDbEntity
  8
0
  6
CONTINUOUS
 62
     0
100
AcDbLine
 10
104.885255
 20
137.214177
 30
0.0
 11
109.2405
 21
141.569422
 31
0.0
  0
LINE
  5
2E88
100
AcDbEntity
  8
0
  6
CONTINUOUS
 62
     0
100
AcDbLine
 10
105.109761
 20
137.214177
 30
0.0
 11
109.2405
 21
141.344916
 31
0.0
  0
LINE
  5
2E89
100
AcDbEntity
  8
0
  6
CONTINUOUS
 62
     0
100
AcDbLine
 10
105.334268
 20
137.214177
 30
0.0
 11
109.2405
 21
141.120409
 31
0.0
  0
LINE
  5
2E8A
100
AcDbEntity
  8
0
  6
CONTINUOUS
 62
     0
100
AcDbLine
 10
105.558774
 20
137.214177
 30
0.0
 11
109.2405
 21
140.895903
 31
0.0
  0
LINE
  5
2E8B
100
AcDbEntity
  8
0
  6
CONTINUOUS
 62
     0
100
AcDbLine
 10
105.783281
 20
137.214177
 30
0.0
 11
109.2405
 21
140.671397
 31
0.0
  0
LINE
  5
2E8C
100
AcDbEntity
  8
0
  6
CONTINUOUS
 62
     0
100
AcDbLine
 10
106.007787
 20
137.214177
 30
0.0
 11
109.2405
 21
140.44689
 31
0.0
  0
LINE
  5
2E8D
100
AcDbEntity
  8
0
  6
CONTINUOUS
 62
     0
100
AcDbLine
 10
106.232293
 20
137.214177
 30
0.0
 11
109.2405
 21
140.222384
 31
0.0
  0
LINE
  5
2E8E
100
AcDbEntity
  8
0
  6
CONTINUOUS
 62
     0
100
AcDbLine
 10
106.4568
 20
137.214177
 30
0.0
 11
109.2405
 21
139.997877
 31
0.0
  0
LINE
  5
2E8F
100
AcDbEntity
  8
0
  6
CONTINUOUS
 62
     0
100
AcDbLine
 10
106.681306
 20
137.214177
 30
0.0
 11
109.2405
 21
139.773371
 31
0.0
  0
LINE
  5
2E90
100
AcDbEntity
  8
0
  6
CONTINUOUS
 62
     0
100
AcDbLine
 10
106.905813
 20
137.214177
 30
0.0
 11
109.2405
 21
139.548865
 31
0.0
  0
LINE
  5
2E91
100
AcDbEntity
  8
0
  6
CONTINUOUS
 62
     0
100
AcDbLine
 10
107.130319
 20
137.214177
 30
0.0
 11
109.2405
 21
139.324358
 31
0.0
  0
LINE
  5
2E92
100
AcDbEntity
  8
0
  6
CONTINUOUS
 62
     0
100
AcDbLine
 10
107.354825
 20
137.214177
 30
0.0
 11
109.2405
 21
139.099852
 31
0.0
  0
LINE
  5
2E93
100
AcDbEntity
  8
0
  6
CONTINUOUS
 62
     0
100
AcDbLine
 10
107.579332
 20
137.214177
 30
0.0
 11
109.2405
 21
138.875345
 31
0.0
  0
LINE
  5
2E94
100
AcDbEntity
  8
0
  6
CONTINUOUS
 62
     0
100
AcDbLine
 10
107.803838
 20
137.214177
 30
0.0
 11
109.2405
 21
138.650839
 31
0.0
  0
LINE
  5
2E95
100
AcDbEntity
  8
0
  6
CONTINUOUS
 62
     0
100
AcDbLine
 10
108.028345
 20
137.214177
 30
0.0
 11
109.2405
 21
138.426333
 31
0.0
  0
ENDBLK
  5
2E97
100
AcDbEntity
  8
0
100
AcDbBlockEnd
  0
BLOCK
  5
2F25
100
AcDbEntity
  8
0
100
AcDbBlockBegin
  2
*X4
 70
    65
 10
0.0
 20
0.0
 30
0.0
  3
*X4
  1

  0
LINE
  5
2E99
100
AcDbEntity
  8
0
  6
CONTINUOUS
 62
     0
100
AcDbLine
 10
49.61183
 20
137.842847
 30
0.0
 11
52.2405
 21
140.471517
 31
0.0
  0
LINE
  5
2E9A
100
AcDbEntity
  8
0
  6
CONTINUOUS
 62
     0
100
AcDbLine
 10
49.499577
 20
137.9551
 30
0.0
 11
52.2405
 21
140.696023
 31
0.0
  0
LINE
  5
2E9B
100
AcDbEntity
  8
0
  6
CONTINUOUS
 62
     0
100
AcDbLine
 10
49.387324
 20
138.067353
 30
0.0
 11
52.2405
 21
140.920529
 31
0.0
  0
LINE
  5
2E9C
100
AcDbEntity
  8
0
  6
CONTINUOUS
 62
     0
100
AcDbLine
 10
49.275071
 20
138.179606
 30
0.0
 11
52.2405
 21
141.145036
 31
0.0
  0
LINE
  5
2E9D
100
AcDbEntity
  8
0
  6
CONTINUOUS
 62
     0
100
AcDbLine
 10
49.2405
 20
138.369542
 30
0.0
 11
52.2405
 21
141.369542
 31
0.0
  0
LINE
  5
2E9E
100
AcDbEntity
  8
0
  6
CONTINUOUS
 62
     0
100
AcDbLine
 10
49.2405
 20
138.594049
 30
0.0
 11
52.2405
 21
141.594049
 31
0.0
  0
LINE
  5
2E9F
100
AcDbEntity
  8
0
  6
CONTINUOUS
 62
     0
100
AcDbLine
 10
49.2405
 20
138.818555
 30
0.0
 11
52.2405
 21
141.818555
 31
0.0
  0
LINE
  5
2EA0
100
AcDbEntity
  8
0
  6
CONTINUOUS
 62
     0
100
AcDbLine
 10
49.2405
 20
139.043061
 30
0.0
 11
52.2405
 21
142.043061
 31
0.0
  0
LINE
  5
2EA1
100
AcDbEntity
  8
0
  6
CONTINUOUS
 62
     0
100
AcDbLine
 10
49.2405
 20
139.267568
 30
0.0
 11
52.2405
 21
142.267568
 31
0.0
  0
LINE
  5
2EA2
100
AcDbEntity
  8
0
  6
CONTINUOUS
 62
     0
100
AcDbLine
 10
49.2405
 20
139.492074
 30
0.0
 11
52.2405
 21
142.492074
 31
0.0
  0
LINE
  5
2EA3
100
AcDbEntity
  8
0
  6
CONTINUOUS
 62
     0
100
AcDbLine
 10
49.2405
 20
139.716581
 30
0.0
 11
52.2405
 21
142.716581
 31
0.0
  0
LINE
  5
2EA4
100
AcDbEntity
  8
0
  6
CONTINUOUS
 62
     0
100
AcDbLine
 10
49.2405
 20
139.941087
 30
0.0
 11
52.2405
 21
142.941087
 31
0.0
  0
LINE
  5
2EA5
100
AcDbEntity
  8
0
  6
CONTINUOUS
 62
     0
100
AcDbLine
 10
49.2405
 20
140.165593
 30
0.0
 11
52.2405
 21
143.165593
 31
0.0
  0
LINE
  5
2EA6
100
AcDbEntity
  8
0
  6
CONTINUOUS
 62
     0
100
AcDbLine
 10
49.2405
 20
140.3901
 30
0.0
 11
52.2405
 21
143.3901
 31
0.0
  0
LINE
  5
2EA7
100
AcDbEntity
  8
0
  6
CONTINUOUS
 62
     0
100
AcDbLine
 10
49.2405
 20
140.614606
 30
0.0
 11
52.2405
 21
143.614606
 31
0.0
  0
LINE
  5
2EA8
100
AcDbEntity
  8
0
  6
CONTINUOUS
 62
     0
100
AcDbLine
 10
49.2405
 20
140.839113
 30
0.0
 11
52.2405
 21
143.839113
 31
0.0
  0
LINE
  5
2EA9
100
AcDbEntity
  8
0
  6
CONTINUOUS
 62
     0
100
AcDbLine
 10
49.2405
 20
141.063619
 30
0.0
 11
52.2405
 21
144.063619
 31
0.0
  0
LINE
  5
2EAA
100
AcDbEntity
  8
0
  6
CONTINUOUS
 62
     0
100
AcDbLine
 10
49.2405
 20
141.288125
 30
0.0
 11
52.2405
 21
144.288125
 31
0.0
  0
LINE
  5
2EAB
100
AcDbEntity
  8
0
  6
CONTINUOUS
 62
     0
100
AcDbLine
 10
49.2405
 20
141.512632
 30
0.0
 11
52.2405
 21
144.512632
 31
0.0
  0
LINE
  5
2EAC
100
AcDbEntity
  8
0
  6
CONTINUOUS
 62
     0
100
AcDbLine
 10
49.2405
 20
141.737138
 30
0.0
 11
52.2405
 21
144.737138
 31
0.0
  0
LINE
  5
2EAD
100
AcDbEntity
  8
0
  6
CONTINUOUS
 62
     0
100
AcDbLine
 10
49.2405
 20
141.961645
 30
0.0
 11
52.2405
 21
144.961645
 31
0.0
  0
LINE
  5
2EAE
100
AcDbEntity
  8
0
  6
CONTINUOUS
 62
     0
100
AcDbLine
 10
49.2405
 20
142.186151
 30
0.0
 11
52.2405
 21
145.186151
 31
0.0
  0
LINE
  5
2EAF
100
AcDbEntity
  8
0
  6
CONTINUOUS
 62
     0
100
AcDbLine
 10
49.2405
 20
142.410657
 30
0.0
 11
52.2405
 21
145.410657
 31
0.0
  0
LINE
  5
2EB0
100
AcDbEntity
  8
0
  6
CONTINUOUS
 62
     0
100
AcDbLine
 10
49.2405
 20
142.635164
 30
0.0
 11
52.2405
 21
145.635164
 31
0.0
  0
LINE
  5
2EB1
100
AcDbEntity
  8
0
  6
CONTINUOUS
 62
     0
100
AcDbLine
 10
49.2405
 20
142.85967
 30
0.0
 11
52.2405
 21
145.85967
 31
0.0
  0
LINE
  5
2EB2
100
AcDbEntity
  8
0
  6
CONTINUOUS
 62
     0
100
AcDbLine
 10
49.2405
 20
143.084177
 30
0.0
 11
52.2405
 21
146.084177
 31
0.0
  0
LINE
  5
2EB3
100
AcDbEntity
  8
0
  6
CONTINUOUS
 62
     0
100
AcDbLine
 10
49.2405
 20
143.308683
 30
0.0
 11
52.2405
 21
146.308683
 31
0.0
  0
LINE
  5
2EB4
100
AcDbEntity
  8
0
  6
CONTINUOUS
 62
     0
100
AcDbLine
 10
49.2405
 20
143.533189
 30
0.0
 11
52.2405
 21
146.533189
 31
0.0
  0
LINE
  5
2EB5
100
AcDbEntity
  8
0
  6
CONTINUOUS
 62
     0
100
AcDbLine
 10
49.2405
 20
143.757696
 30
0.0
 11
52.2405
 21
146.757696
 31
0.0
  0
LINE
  5
2EB6
100
AcDbEntity
  8
0
  6
CONTINUOUS
 62
     0
100
AcDbLine
 10
49.2405
 20
143.982202
 30
0.0
 11
52.2405
 21
146.982202
 31
0.0
  0
LINE
  5
2EB7
100
AcDbEntity
  8
0
  6
CONTINUOUS
 62
     0
100
AcDbLine
 10
49.2405
 20
144.206709
 30
0.0
 11
52.2405
 21
147.206709
 31
0.0
  0
LINE
  5
2EB8
100
AcDbEntity
  8
0
  6
CONTINUOUS
 62
     0
100
AcDbLine
 10
49.2405
 20
144.431215
 30
0.0
 11
52.2405
 21
147.431215
 31
0.0
  0
LINE
  5
2EB9
100
AcDbEntity
  8
0
  6
CONTINUOUS
 62
     0
100
AcDbLine
 10
49.2405
 20
144.655721
 30
0.0
 11
52.2405
 21
147.655721
 31
0.0
  0
LINE
  5
2EBA
100
AcDbEntity
  8
0
  6
CONTINUOUS
 62
     0
100
AcDbLine
 10
49.2405
 20
144.880228
 30
0.0
 11
52.2405
 21
147.880228
 31
0.0
  0
LINE
  5
2EBB
100
AcDbEntity
  8
0
  6
CONTINUOUS
 62
     0
100
AcDbLine
 10
49.2405
 20
145.104734
 30
0.0
 11
52.2405
 21
148.104734
 31
0.0
  0
LINE
  5
2EBC
100
AcDbEntity
  8
0
  6
CONTINUOUS
 62
     0
100
AcDbLine
 10
49.2405
 20
145.329241
 30
0.0
 11
52.2405
 21
148.329241
 31
0.0
  0
LINE
  5
2EBD
100
AcDbEntity
  8
0
  6
CONTINUOUS
 62
     0
100
AcDbLine
 10
49.2405
 20
145.553747
 30
0.0
 11
52.2405
 21
148.553747
 31
0.0
  0
LINE
  5
2EBE
100
AcDbEntity
  8
0
  6
CONTINUOUS
 62
     0
100
AcDbLine
 10
49.2405
 20
145.778253
 30
0.0
 11
52.2405
 21
148.778253
 31
0.0
  0
LINE
  5
2EBF
100
AcDbEntity
  8
0
  6
CONTINUOUS
 62
     0
100
AcDbLine
 10
49.2405
 20
146.00276
 30
0.0
 11
52.2405
 21
149.00276
 31
0.0
  0
LINE
  5
2EC0
100
AcDbEntity
  8
0
  6
CONTINUOUS
 62
     0
100
AcDbLine
 10
49.2405
 20
146.227266
 30
0.0
 11
52.2405
 21
149.227266
 31
0.0
  0
LINE
  5
2EC1
100
AcDbEntity
  8
0
  6
CONTINUOUS
 62
     0
100
AcDbLine
 10
49.2405
 20
146.451773
 30
0.0
 11
52.2405
 21
149.451773
 31
0.0
  0
LINE
  5
2EC2
100
AcDbEntity
  8
0
  6
CONTINUOUS
 62
     0
100
AcDbLine
 10
49.2405
 20
146.676279
 30
0.0
 11
52.2405
 21
149.676279
 31
0.0
  0
LINE
  5
2EC3
100
AcDbEntity
  8
0
  6
CONTINUOUS
 62
     0
100
AcDbLine
 10
49.2405
 20
146.900785
 30
0.0
 11
52.2405
 21
149.900785
 31
0.0
  0
LINE
  5
2EC4
100
AcDbEntity
  8
0
  6
CONTINUOUS
 62
     0
100
AcDbLine
 10
49.2405
 20
147.125292
 30
0.0
 11
52.2405
 21
150.125292
 31
0.0
  0
LINE
  5
2EC5
100
AcDbEntity
  8
0
  6
CONTINUOUS
 62
     0
100
AcDbLine
 10
49.2405
 20
147.349798
 30
0.0
 11
52.2405
 21
150.349798
 31
0.0
  0
LINE
  5
2EC6
100
AcDbEntity
  8
0
  6
CONTINUOUS
 62
     0
100
AcDbLine
 10
49.2405
 20
147.574305
 30
0.0
 11
52.2405
 21
150.574305
 31
0.0
  0
LINE
  5
2EC7
100
AcDbEntity
  8
0
  6
CONTINUOUS
 62
     0
100
AcDbLine
 10
49.2405
 20
147.798811
 30
0.0
 11
52.2405
 21
150.798811
 31
0.0
  0
LINE
  5
2EC8
100
AcDbEntity
  8
0
  6
CONTINUOUS
 62
     0
100
AcDbLine
 10
49.2405
 20
148.023317
 30
0.0
 11
52.2405
 21
151.023317
 31
0.0
  0
LINE
  5
2EC9
100
AcDbEntity
  8
0
  6
CONTINUOUS
 62
     0
100
AcDbLine
 10
49.2405
 20
148.247824
 30
0.0
 11
52.2405
 21
151.247824
 31
0.0
  0
LINE
  5
2ECA
100
AcDbEntity
  8
0
  6
CONTINUOUS
 62
     0
100
AcDbLine
 10
49.2405
 20
148.47233
 30
0.0
 11
52.2405
 21
151.47233
 31
0.0
  0
LINE
  5
2ECB
100
AcDbEntity
  8
0
  6
CONTINUOUS
 62
     0
100
AcDbLine
 10
49.2405
 20
148.696837
 30
0.0
 11
52.2405
 21
151.696837
 31
0.0
  0
LINE
  5
2ECC
100
AcDbEntity
  8
0
  6
CONTINUOUS
 62
     0
100
AcDbLine
 10
49.2405
 20
148.921343
 30
0.0
 11
52.2405
 21
151.921343
 31
0.0
  0
LINE
  5
2ECD
100
AcDbEntity
  8
0
  6
CONTINUOUS
 62
     0
100
AcDbLine
 10
49.2405
 20
149.14585
 30
0.0
 11
52.2405
 21
152.14585
 31
0.0
  0
LINE
  5
2ECE
100
AcDbEntity
  8
0
  6
CONTINUOUS
 62
     0
100
AcDbLine
 10
49.2405
 20
149.370356
 30
0.0
 11
52.2405
 21
152.370356
 31
0.0
  0
LINE
  5
2ECF
100
AcDbEntity
  8
0
  6
CONTINUOUS
 62
     0
100
AcDbLine
 10
49.2405
 20
149.594862
 30
0.0
 11
52.2405
 21
152.594862
 31
0.0
  0
LINE
  5
2ED0
100
AcDbEntity
  8
0
  6
CONTINUOUS
 62
     0
100
AcDbLine
 10
49.2405
 20
149.819369
 30
0.0
 11
52.2405
 21
152.819369
 31
0.0
  0
LINE
  5
2ED1
100
AcDbEntity
  8
0
  6
CONTINUOUS
 62
     0
100
AcDbLine
 10
49.2405
 20
150.043875
 30
0.0
 11
52.2405
 21
153.043875
 31
0.0
  0
LINE
  5
2ED2
100
AcDbEntity
  8
0
  6
CONTINUOUS
 62
     0
100
AcDbLine
 10
49.2405
 20
150.268382
 30
0.0
 11
52.2405
 21
153.268382
 31
0.0
  0
LINE
  5
2ED3
100
AcDbEntity
  8
0
  6
CONTINUOUS
 62
     0
100
AcDbLine
 10
49.2405
 20
150.492888
 30
0.0
 11
52.2405
 21
153.492888
 31
0.0
  0
LINE
  5
2ED4
100
AcDbEntity
  8
0
  6
CONTINUOUS
 62
     0
100
AcDbLine
 10
49.2405
 20
150.717394
 30
0.0
 11
52.2405
 21
153.717394
 31
0.0
  0
LINE
  5
2ED5
100
AcDbEntity
  8
0
  6
CONTINUOUS
 62
     0
100
AcDbLine
 10
49.2405
 20
150.941901
 30
0.0
 11
52.2405
 21
153.941901
 31
0.0
  0
LINE
  5
2ED6
100
AcDbEntity
  8
0
  6
CONTINUOUS
 62
     0
100
AcDbLine
 10
49.2405
 20
151.166407
 30
0.0
 11
52.2405
 21
154.166407
 31
0.0
  0
LINE
  5
2ED7
100
AcDbEntity
  8
0
  6
CONTINUOUS
 62
     0
100
AcDbLine
 10
49.2405
 20
151.390914
 30
0.0
 11
52.2405
 21
154.390914
 31
0.0
  0
LINE
  5
2ED8
100
AcDbEntity
  8
0
  6
CONTINUOUS
 62
     0
100
AcDbLine
 10
49.2405
 20
151.61542
 30
0.0
 11
52.2405
 21
154.61542
 31
0.0
  0
LINE
  5
2ED9
100
AcDbEntity
  8
0
  6
CONTINUOUS
 62
     0
100
AcDbLine
 10
49.2405
 20
151.839926
 30
0.0
 11
52.2405
 21
154.839926
 31
0.0
  0
LINE
  5
2EDA
100
AcDbEntity
  8
0
  6
CONTINUOUS
 62
     0
100
AcDbLine
 10
49.2405
 20
152.064433
 30
0.0
 11
52.2405
 21
155.064433
 31
0.0
  0
LINE
  5
2EDB
100
AcDbEntity
  8
0
  6
CONTINUOUS
 62
     0
100
AcDbLine
 10
49.2405
 20
152.288939
 30
0.0
 11
52.2405
 21
155.288939
 31
0.0
  0
LINE
  5
2EDC
100
AcDbEntity
  8
0
  6
CONTINUOUS
 62
     0
100
AcDbLine
 10
49.2405
 20
152.513446
 30
0.0
 11
52.2405
 21
155.513446
 31
0.0
  0
LINE
  5
2EDD
100
AcDbEntity
  8
0
  6
CONTINUOUS
 62
     0
100
AcDbLine
 10
49.2405
 20
152.737952
 30
0.0
 11
52.2405
 21
155.737952
 31
0.0
  0
LINE
  5
2EDE
100
AcDbEntity
  8
0
  6
CONTINUOUS
 62
     0
100
AcDbLine
 10
49.2405
 20
152.962458
 30
0.0
 11
52.262961
 21
155.984919
 31
0.0
  0
LINE
  5
2EDF
100
AcDbEntity
  8
0
  6
CONTINUOUS
 62
     0
100
AcDbLine
 10
49.2405
 20
153.186965
 30
0.0
 11
52.502475
 21
156.44894
 31
0.0
  0
LINE
  5
2EE0
100
AcDbEntity
  8
0
  6
CONTINUOUS
 62
     0
100
AcDbLine
 10
49.2405
 20
153.411471
 30
0.0
 11
53.367893
 21
157.538864
 31
0.0
  0
LINE
  5
2EE1
100
AcDbEntity
  8
0
  6
CONTINUOUS
 62
     0
100
AcDbLine
 10
49.2405
 20
153.635978
 30
0.0
 11
54.171124
 21
158.566602
 31
0.0
  0
LINE
  5
2EE2
100
AcDbEntity
  8
0
  6
CONTINUOUS
 62
     0
100
AcDbLine
 10
49.2405
 20
153.860484
 30
0.0
 11
54.974355
 21
159.594339
 31
0.0
  0
LINE
  5
2EE3
100
AcDbEntity
  8
0
  6
CONTINUOUS
 62
     0
100
AcDbLine
 10
49.2405
 20
154.08499
 30
0.0
 11
55.777586
 21
160.622076
 31
0.0
  0
LINE
  5
2EE4
100
AcDbEntity
  8
0
  6
CONTINUOUS
 62
     0
100
AcDbLine
 10
49.2405
 20
154.309497
 30
0.0
 11
56.580817
 21
161.649813
 31
0.0
  0
LINE
  5
2EE5
100
AcDbEntity
  8
0
  6
CONTINUOUS
 62
     0
100
AcDbLine
 10
49.2405
 20
154.534003
 30
0.0
 11
57.384048
 21
162.677551
 31
0.0
  0
LINE
  5
2EE6
100
AcDbEntity
  8
0
  6
CONTINUOUS
 62
     0
100
AcDbLine
 10
49.2405
 20
154.75851
 30
0.0
 11
58.187279
 21
163.705288
 31
0.0
  0
LINE
  5
2EE7
100
AcDbEntity
  8
0
  6
CONTINUOUS
 62
     0
100
AcDbLine
 10
49.2405
 20
154.983016
 30
0.0
 11
58.99051
 21
164.733025
 31
0.0
  0
LINE
  5
2EE8
100
AcDbEntity
  8
0
  6
CONTINUOUS
 62
     0
100
AcDbLine
 10
49.2405
 20
155.207522
 30
0.0
 11
59.79374
 21
165.760763
 31
0.0
  0
LINE
  5
2EE9
100
AcDbEntity
  8
0
  6
CONTINUOUS
 62
     0
100
AcDbLine
 10
49.2405
 20
155.432029
 30
0.0
 11
58.588643
 21
164.780172
 31
0.0
  0
LINE
  5
2EEA
100
AcDbEntity
  8
0
  6
CONTINUOUS
 62
     0
100
AcDbLine
 10
49.2405
 20
155.656535
 30
0.0
 11
55.905369
 21
162.321404
 31
0.0
  0
LINE
  5
2EEB
100
AcDbEntity
  8
0
  6
CONTINUOUS
 62
     0
100
AcDbLine
 10
49.246941
 20
155.887483
 30
0.0
 11
53.222095
 21
159.862636
 31
0.0
  0
LINE
  5
2EEC
100
AcDbEntity
  8
0
  6
CONTINUOUS
 62
     0
100
AcDbLine
 10
49.336365
 20
156.201413
 30
0.0
 11
50.53882
 21
157.403868
 31
0.0
  0
LINE
  5
2EED
100
AcDbEntity
  8
0
  6
CONTINUOUS
 62
     0
100
AcDbLine
 10
49.724084
 20
137.730594
 30
0.0
 11
52.2405
 21
140.24701
 31
0.0
  0
LINE
  5
2EEE
100
AcDbEntity
  8
0
  6
CONTINUOUS
 62
     0
100
AcDbLine
 10
49.836337
 20
137.61834
 30
0.0
 11
52.432173
 21
140.214177
 31
0.0
  0
LINE
  5
2EEF
100
AcDbEntity
  8
0
  6
CONTINUOUS
 62
     0
100
AcDbLine
 10
49.94859
 20
137.506087
 30
0.0
 11
52.65668
 21
140.214177
 31
0.0
  0
LINE
  5
2EF0
100
AcDbEntity
  8
0
  6
CONTINUOUS
 62
     0
100
AcDbLine
 10
50.060843
 20
137.393834
 30
0.0
 11
52.881186
 21
140.214177
 31
0.0
  0
LINE
  5
2EF1
100
AcDbEntity
  8
0
  6
CONTINUOUS
 62
     0
100
AcDbLine
 10
50.173096
 20
137.281581
 30
0.0
 11
53.105693
 21
140.214177
 31
0.0
  0
LINE
  5
2EF2
100
AcDbEntity
  8
0
  6
CONTINUOUS
 62
     0
100
AcDbLine
 10
50.330199
 20
137.214177
 30
0.0
 11
53.330199
 21
140.214177
 31
0.0
  0
LINE
  5
2EF3
100
AcDbEntity
  8
0
  6
CONTINUOUS
 62
     0
100
AcDbLine
 10
50.554705
 20
137.214177
 30
0.0
 11
53.554705
 21
140.214177
 31
0.0
  0
LINE
  5
2EF4
100
AcDbEntity
  8
0
  6
CONTINUOUS
 62
     0
100
AcDbLine
 10
50.779212
 20
137.214177
 30
0.0
 11
53.779212
 21
140.214177
 31
0.0
  0
LINE
  5
2EF5
100
AcDbEntity
  8
0
  6
CONTINUOUS
 62
     0
100
AcDbLine
 10
51.003718
 20
137.214177
 30
0.0
 11
54.003718
 21
140.214177
 31
0.0
  0
LINE
  5
2EF6
100
AcDbEntity
  8
0
  6
CONTINUOUS
 62
     0
100
AcDbLine
 10
51.228225
 20
137.214177
 30
0.0
 11
54.228225
 21
140.214177
 31
0.0
  0
LINE
  5
2EF7
100
AcDbEntity
  8
0
  6
CONTINUOUS
 62
     0
100
AcDbLine
 10
51.452731
 20
137.214177
 30
0.0
 11
54.452731
 21
140.214177
 31
0.0
  0
LINE
  5
2EF8
100
AcDbEntity
  8
0
  6
CONTINUOUS
 62
     0
100
AcDbLine
 10
51.677237
 20
137.214177
 30
0.0
 11
54.677237
 21
140.214177
 31
0.0
  0
LINE
  5
2EF9
100
AcDbEntity
  8
0
  6
CONTINUOUS
 62
     0
100
AcDbLine
 10
51.901744
 20
137.214177
 30
0.0
 11
54.901744
 21
140.214177
 31
0.0
  0
LINE
  5
2EFA
100
AcDbEntity
  8
0
  6
CONTINUOUS
 62
     0
100
AcDbLine
 10
52.12625
 20
137.214177
 30
0.0
 11
55.12625
 21
140.214177
 31
0.0
  0
LINE
  5
2EFB
100
AcDbEntity
  8
0
  6
CONTINUOUS
 62
     0
100
AcDbLine
 10
52.350757
 20
137.214177
 30
0.0
 11
55.350757
 21
140.214177
 31
0.0
  0
LINE
  5
2EFC
100
AcDbEntity
  8
0
  6
CONTINUOUS
 62
     0
100
AcDbLine
 10
52.575263
 20
137.214177
 30
0.0
 11
55.575263
 21
140.214177
 31
0.0
  0
LINE
  5
2EFD
100
AcDbEntity
  8
0
  6
CONTINUOUS
 62
     0
100
AcDbLine
 10
52.799769
 20
137.214177
 30
0.0
 11
55.799769
 21
140.214177
 31
0.0
  0
LINE
  5
2EFE
100
AcDbEntity
  8
0
  6
CONTINUOUS
 62
     0
100
AcDbLine
 10
53.024276
 20
137.214177
 30
0.0
 11
56.024276
 21
140.214177
 31
0.0
  0
LINE
  5
2EFF
100
AcDbEntity
  8
0
  6
CONTINUOUS
 62
     0
100
AcDbLine
 10
53.248782
 20
137.214177
 30
0.0
 11
56.248782
 21
140.214177
 31
0.0
  0
LINE
  5
2F00
100
AcDbEntity
  8
0
  6
CONTINUOUS
 62
     0
100
AcDbLine
 10
53.473289
 20
137.214177
 30
0.0
 11
56.473289
 21
140.214177
 31
0.0
  0
LINE
  5
2F01
100
AcDbEntity
  8
0
  6
CONTINUOUS
 62
     0
100
AcDbLine
 10
53.697795
 20
137.214177
 30
0.0
 11
56.697795
 21
140.214177
 31
0.0
  0
LINE
  5
2F02
100
AcDbEntity
  8
0
  6
CONTINUOUS
 62
     0
100
AcDbLine
 10
53.922301
 20
137.214177
 30
0.0
 11
56.922301
 21
140.214177
 31
0.0
  0
LINE
  5
2F03
100
AcDbEntity
  8
0
  6
CONTINUOUS
 62
     0
100
AcDbLine
 10
54.146808
 20
137.214177
 30
0.0
 11
57.146808
 21
140.214177
 31
0.0
  0
LINE
  5
2F04
100
AcDbEntity
  8
0
  6
CONTINUOUS
 62
     0
100
AcDbLine
 10
54.371314
 20
137.214177
 30
0.0
 11
57.371314
 21
140.214177
 31
0.0
  0
LINE
  5
2F05
100
AcDbEntity
  8
0
  6
CONTINUOUS
 62
     0
100
AcDbLine
 10
54.595821
 20
137.214177
 30
0.0
 11
57.595821
 21
140.214177
 31
0.0
  0
LINE
  5
2F06
100
AcDbEntity
  8
0
  6
CONTINUOUS
 62
     0
100
AcDbLine
 10
54.820327
 20
137.214177
 30
0.0
 11
57.820327
 21
140.214177
 31
0.0
  0
LINE
  5
2F07
100
AcDbEntity
  8
0
  6
CONTINUOUS
 62
     0
100
AcDbLine
 10
55.044833
 20
137.214177
 30
0.0
 11
58.044833
 21
140.214177
 31
0.0
  0
LINE
  5
2F08
100
AcDbEntity
  8
0
  6
CONTINUOUS
 62
     0
100
AcDbLine
 10
55.26934
 20
137.214177
 30
0.0
 11
58.26934
 21
140.214177
 31
0.0
  0
LINE
  5
2F09
100
AcDbEntity
  8
0
  6
CONTINUOUS
 62
     0
100
AcDbLine
 10
55.493846
 20
137.214177
 30
0.0
 11
58.493846
 21
140.214177
 31
0.0
  0
LINE
  5
2F0A
100
AcDbEntity
  8
0
  6
CONTINUOUS
 62
     0
100
AcDbLine
 10
55.718353
 20
137.214177
 30
0.0
 11
58.718353
 21
140.214177
 31
0.0
  0
LINE
  5
2F0B
100
AcDbEntity
  8
0
  6
CONTINUOUS
 62
     0
100
AcDbLine
 10
55.942859
 20
137.214177
 30
0.0
 11
58.942859
 21
140.214177
 31
0.0
  0
LINE
  5
2F0C
100
AcDbEntity
  8
0
  6
CONTINUOUS
 62
     0
100
AcDbLine
 10
56.167365
 20
137.214177
 30
0.0
 11
59.167365
 21
140.214177
 31
0.0
  0
LINE
  5
2F0D
100
AcDbEntity
  8
0
  6
CONTINUOUS
 62
     0
100
AcDbLine
 10
56.391872
 20
137.214177
 30
0.0
 11
59.391872
 21
140.214177
 31
0.0
  0
LINE
  5
2F0E
100
AcDbEntity
  8
0
  6
CONTINUOUS
 62
     0
100
AcDbLine
 10
56.616378
 20
137.214177
 30
0.0
 11
59.616378
 21
140.214177
 31
0.0
  0
LINE
  5
2F0F
100
AcDbEntity
  8
0
  6
CONTINUOUS
 62
     0
100
AcDbLine
 10
56.840885
 20
137.214177
 30
0.0
 11
59.840885
 21
140.214177
 31
0.0
  0
LINE
  5
2F10
100
AcDbEntity
  8
0
  6
CONTINUOUS
 62
     0
100
AcDbLine
 10
57.065391
 20
137.214177
 30
0.0
 11
60.065391
 21
140.214177
 31
0.0
  0
LINE
  5
2F11
100
AcDbEntity
  8
0
  6
CONTINUOUS
 62
     0
100
AcDbLine
 10
57.289897
 20
137.214177
 30
0.0
 11
60.289897
 21
140.214177
 31
0.0
  0
LINE
  5
2F12
100
AcDbEntity
  8
0
  6
CONTINUOUS
 62
     0
100
AcDbLine
 10
57.514404
 20
137.214177
 30
0.0
 11
60.514404
 21
140.214177
 31
0.0
  0
LINE
  5
2F13
100
AcDbEntity
  8
0
  6
CONTINUOUS
 62
     0
100
AcDbLine
 10
57.73891
 20
137.214177
 30
0.0
 11
60.73891
 21
140.214177
 31
0.0
  0
LINE
  5
2F14
100
AcDbEntity
  8
0
  6
CONTINUOUS
 62
     0
100
AcDbLine
 10
57.963417
 20
137.214177
 30
0.0
 11
60.966214
 21
140.216974
 31
0.0
  0
LINE
  5
2F15
100
AcDbEntity
  8
0
  6
CONTINUOUS
 62
     0
100
AcDbLine
 10
58.187923
 20
137.214177
 30
0.0
 11
61.220615
 21
140.246869
 31
0.0
  0
LINE
  5
2F16
100
AcDbEntity
  8
0
  6
CONTINUOUS
 62
     0
100
AcDbLine
 10
58.412429
 20
137.214177
 30
0.0
 11
61.526629
 21
140.328376
 31
0.0
  0
LINE
  5
2F17
100
AcDbEntity
  8
0
  6
CONTINUOUS
 62
     0
100
AcDbLine
 10
58.636936
 20
137.214177
 30
0.0
 11
61.978852
 21
140.556093
 31
0.0
  0
LINE
  5
2F18
100
AcDbEntity
  8
0
  6
CONTINUOUS
 62
     0
100
AcDbLine
 10
58.861442
 20
137.214177
 30
0.0
 11
64.012995
 21
142.365729
 31
0.0
  0
LINE
  5
2F19
100
AcDbEntity
  8
0
  6
CONTINUOUS
 62
     0
100
AcDbLine
 10
59.085949
 20
137.214177
 30
0.0
 11
66.162838
 21
144.291066
 31
0.0
  0
LINE
  5
2F1A
100
AcDbEntity
  8
0
  6
CONTINUOUS
 62
     0
100
AcDbLine
 10
59.310455
 20
137.214177
 30
0.0
 11
68.312681
 21
146.216403
 31
0.0
  0
LINE
  5
2F1B
100
AcDbEntity
  8
0
  6
CONTINUOUS
 62
     0
100
AcDbLine
 10
59.534961
 20
137.214177
 30
0.0
 11
70.462525
 21
148.14174
 31
0.0
  0
LINE
  5
2F1C
100
AcDbEntity
  8
0
  6
CONTINUOUS
 62
     0
100
AcDbLine
 10
59.759468
 20
137.214177
 30
0.0
 11
72.612368
 21
150.067077
 31
0.0
  0
LINE
  5
2F1D
100
AcDbEntity
  8
0
  6
CONTINUOUS
 62
     0
100
AcDbLine
 10
59.983974
 20
137.214177
 30
0.0
 11
74.762212
 21
151.992414
 31
0.0
  0
LINE
  5
2F1E
100
AcDbEntity
  8
0
  6
CONTINUOUS
 62
     0
100
AcDbLine
 10
60.208481
 20
137.214177
 30
0.0
 11
76.912055
 21
153.917751
 31
0.0
  0
LINE
  5
2F1F
100
AcDbEntity
  8
0
  6
CONTINUOUS
 62
     0
100
AcDbLine
 10
60.432987
 20
137.214177
 30
0.0
 11
76.06023
 21
152.84142
 31
0.0
  0
LINE
  5
2F20
100
AcDbEntity
  8
0
  6
CONTINUOUS
 62
     0
100
AcDbLine
 10
60.657493
 20
137.214177
 30
0.0
 11
73.601462
 21
150.158146
 31
0.0
  0
LINE
  5
2F21
100
AcDbEntity
  8
0
  6
CONTINUOUS
 62
     0
100
AcDbLine
 10
60.882117
 20
137.214294
 30
0.0
 11
71.142694
 21
147.474871
 31
0.0
  0
LINE
  5
2F22
100
AcDbEntity
  8
0
  6
CONTINUOUS
 62
     0
100
AcDbLine
 10
61.123934
 20
137.231605
 30
0.0
 11
68.683927
 21
144.791597
 31
0.0
  0
LINE
  5
2F23
100
AcDbEntity
  8
0
  6
CONTINUOUS
 62
     0
100
AcDbLine
 10
61.407185
 20
137.290349
 30
0.0
 11
66.225159
 21
142.108323
 31
0.0
  0
LINE
  5
2F24
100
AcDbEntity
  8
0
  6
CONTINUOUS
 62
     0
100
AcDbLine
 10
61.778826
 20
137.437483
 30
0.0
 11
63.766391
 21
139.425049
 31
0.0
  0
ENDBLK
  5
2F26
100
AcDbEntity
  8
0
100
AcDbBlockEnd
  0
BLOCK
  5
2F7C
100
AcDbEntity
  8
OGGETTO
  6
CONTINUOUS
100
AcDbBlockBegin
  2
A$CF260
 70
     0
 10
0.0
 20
0.0
 30
0.0
  3
A$CF260
  1

  0
INSERT
  5
2F28
100
AcDbEntity
  8
OGGETTO
  6
CONTINUOUS
100
AcDbBlockReference
  2
*X3
 10
-48.951397
 20
-136.850763
 30
0.0
1001
ACAD
1000
HATCH
1002
{
1070
    19
1000
ANSI31
1040
0.05
1040
0.0
1000
ASC_BOUNDS
1070
     1
1070
     2
1070
    13
1005
2F29
1005
2F2A
1005
2F6A
1005
2F69
1005
2F68
1005
2F67
1005
2F66
1005
2F65
1005
2F6C
1005
2F6D
1005
2F61
1005
2F62
1005
2F6B
1000
ASC_SEEDPOINT
1011
-48.951397
1021
-136.850763
1031
0.0
1002
}
  0
LINE
  5
2F29
100
AcDbEntity
  8
OGGETTO
  6
CONTINUOUS
100
AcDbLine
 10
31.662571
 20
17.962435
 30
0.0
 11
47.194569
 21
4.012234
 31
0.0
1001
ACAD
1000
ASC_BOUNDS
1002
{
1070
    19
1005
2F28
1002
}
  0
LINE
  5
2F2A
100
AcDbEntity
  8
OGGETTO
  6
CONTINUOUS
100
AcDbLine
 10
47.194569
 20
1.012234
 30
0.0
 11
31.662571
 21
17.962435
 31
0.0
1001
ACAD
1000
ASC_BOUNDS
1002
{
1070
    19
1005
2F28
1002
}
  0
INSERT
  5
2F2B
100
AcDbEntity
  8
OGGETTO
  6
CONTINUOUS
100
AcDbBlockReference
  2
*X2
 10
-48.951397
 20
-136.850763
 30
0.0
1001
ACAD
1000
HATCH
1002
{
1070
    19
1000
ANSI31
1040
0.05
1040
0.0
1000
ASC_BOUNDS
1070
     1
1070
     2
1070
    13
1005
2F6E
1005
2F72
1005
2F7B
1005
2F75
1005
2F71
1005
2F7A
1005
2F6F
1005
2F78
1005
2F77
1005
2F79
1005
2F76
1005
2F2C
1005
2F2D
1000
ASC_SEEDPOINT
1011
-48.951397
1021
-136.850763
1031
0.0
1002
}
  0
LINE
  5
2F2C
100
AcDbEntity
  8
OGGETTO
  6
CONTINUOUS
100
AcDbLine
 10
54.694569
 20
59.714594
 30
0.0
 11
33.053336
 21
36.097332
 31
0.0
1001
ACAD
1000
ASC_BOUNDS
1002
{
1070
    19
1005
2F2B
1002
}
  0
LINE
  5
2F2D
100
AcDbEntity
  8
OGGETTO
  6
CONTINUOUS
100
AcDbLine
 10
33.053336
 20
36.097332
 30
0.0
 11
54.694569
 21
56.714594
 31
0.0
1001
ACAD
1000
ASC_BOUNDS
1002
{
1070
    19
1005
2F2B
1002
}
  0
LINE
  5
2F2E
100
AcDbEntity
  8
OGGETTO
  6
CONTINUOUS
100
AcDbLine
 10
47.194569
 20
4.012234
 30
0.0
 11
31.662571
 21
17.962435
 31
0.0
  0
LINE
  5
2F2F
100
AcDbEntity
  8
OGGETTO
  6
CONTINUOUS
100
AcDbLine
 10
54.694569
 20
56.714594
 30
0.0
 11
33.053336
 21
36.097332
 31
0.0
  0
LINE
  5
2F30
100
AcDbEntity
  8
OGGETTO
  6
CONTINUOUS
100
AcDbLine
 10
47.194569
 20
1.012234
 30
0.0
 11
31.02638
 21
18.656716
 31
0.0
  0
LINE
  5
2F31
100
AcDbEntity
  8
OGGETTO
  6
CONTINUOUS
100
AcDbLine
 10
54.694569
 20
59.714594
 30
0.0
 11
31.02638
 21
33.885299
 31
0.0
  0
INSERT
  5
2F32
100
AcDbEntity
  8
OGGETTO
  6
CONTINUOUS
100
AcDbBlockReference
  2
*X4
 10
-48.951397
 20
-136.850763
 30
0.0
1001
ACAD
1000
HATCH
1002
{
1070
    19
1000
ANSI31
1040
0.05
1040
0.0
1000
ASC_BOUNDS
1070
     1
1070
     2
1070
    14
1005
2F56
1005
2F58
1005
2F5C
1005
2F5D
1005
2F42
1005
2F3E
1005
2F46
1005
2F48
1005
2F47
1005
2F33
1005
2F34
1005
2F4A
1005
2F49
1005
2F4B
1000
ASC_SEEDPOINT
1011
-48.951397
1021
-136.850763
1031
0.0
1002
}
  0
LINE
  5
2F33
100
AcDbEntity
  8
OGGETTO
  6
CONTINUOUS
100
AcDbLine
 10
11.18289
 20
29.34573
 30
0.0
 11
3.613513
 21
19.660681
 31
0.0
1001
ACAD
1000
ASC_BOUNDS
1002
{
1070
    19
1005
2F32
1002
}
  0
LINE
  5
2F34
100
AcDbEntity
  8
OGGETTO
  6
CONTINUOUS
100
AcDbLine
 10
1.289103
 20
20.279745
 30
0.0
 11
11.18289
 21
29.34573
 31
0.0
1001
ACAD
1000
ASC_BOUNDS
1002
{
1070
    19
1005
2F32
1002
}
  0
INSERT
  5
2F35
100
AcDbEntity
  8
OGGETTO
  6
CONTINUOUS
100
AcDbBlockReference
  2
*X1
 10
-48.951397
 20
-136.850763
 30
0.0
1001
ACAD
1000
HATCH
1002
{
1070
    19
1000
ANSI31
1040
0.05
1040
0.0
1000
ASC_BOUNDS
1070
     1
1070
     2
1070
    14
1005
2F39
1005
2F38
1005
2F4F
1005
2F4E
1005
2F50
1005
2F4C
1005
2F4D
1005
2F55
1005
2F54
1005
2F53
1005
2F52
1005
2F51
1005
2F36
1005
2F37
1000
ASC_SEEDPOINT
1011
-48.951397
1021
-136.850763
1031
0.0
1002
}
  0
LINE
  5
2F36
100
AcDbEntity
  8
OGGETTO
  6
CONTINUOUS
100
AcDbLine
 10
27.182471
 20
36.470995
 30
0.0
 11
5.883637
 21
59.714594
 31
0.0
1001
ACAD
1000
ASC_BOUNDS
1002
{
1070
    19
1005
2F35
1002
}
  0
LINE
  5
2F37
100
AcDbEntity
  8
OGGETTO
  6
CONTINUOUS
100
AcDbLine
 10
5.883637
 20
56.714594
 30
0.0
 11
27.182471
 21
36.470995
 31
0.0
1001
ACAD
1000
ASC_BOUNDS
1002
{
1070
    19
1005
2F35
1002
}
  0
LINE
  5
2F38
100
AcDbEntity
  8
OGGETTO
  6
CONTINUOUS
100
AcDbLine
 10
3.613513
 20
41.066147
 30
0.0
 11
10.95598
 21
31.589022
 31
0.0
1001
ACAD
1000
ASC_BOUNDS
1002
{
1070
    19
1005
2F35
1002
}
  0
LINE
  5
2F39
100
AcDbEntity
  8
OGGETTO
  6
CONTINUOUS
100
AcDbLine
 10
10.95598
 20
31.589022
 30
0.0
 11
1.289103
 21
40.447083
 31
0.0
1001
ACAD
1000
ASC_BOUNDS
1002
{
1070
    19
1005
2F35
1002
}
  0
LINE
  5
2F3A
100
AcDbEntity
  8
OGGETTO
  6
CONTINUOUS
100
AcDbLine
 10
10.95598
 20
31.589022
 30
0.0
 11
3.613513
 21
41.066147
 31
0.0
  0
LINE
  5
2F3B
100
AcDbEntity
  8
OGGETTO
  6
CONTINUOUS
100
AcDbLine
 10
1.289103
 20
40.447083
 30
0.0
 11
10.95598
 21
31.589022
 31
0.0
  0
LINE
  5
2F3C
100
AcDbEntity
  8
OGGETTO
  6
CONTINUOUS
100
AcDbLine
 10
27.182471
 20
36.470995
 30
0.0
 11
7.121765
 21
58.363414
 31
0.0
  0
LINE
  5
2F3D
100
AcDbEntity
  8
OGGETTO
  6
CONTINUOUS
100
AcDbLine
 10
5.883637
 20
56.714594
 30
0.0
 11
27.182471
 21
36.470995
 31
0.0
  0
LINE
  5
2F3E
100
AcDbEntity
  8
OGGETTO
  6
CONTINUOUS
100
AcDbLine
 10
11.909082
 20
3.363414
 30
0.0
 11
3.289103
 21
3.363414
 31
0.0
1001
ACAD
1000
ASC_BOUNDS
1002
{
1070
    19
1005
2F32
1002
}
  0
LINE
  5
2F3F
100
AcDbEntity
  8
OGGETTO
  6
CONTINUOUS
100
AcDbLine
 10
3.613513
 20
41.066147
 30
0.0
 11
10.95598
 21
31.589022
 31
0.0
  0
LINE
  5
2F40
100
AcDbEntity
  8
OGGETTO
  6
CONTINUOUS
100
AcDbLine
 10
3.613513
 20
19.660681
 30
0.0
 11
11.18289
 21
29.34573
 31
0.0
  0
LINE
  5
2F41
100
AcDbEntity
  8
OGGETTO
  6
CONTINUOUS
100
AcDbLine
 10
5.883637
 20
56.714594
 30
0.0
 11
27.182471
 21
36.470995
 31
0.0
  0
LINE
  5
2F42
100
AcDbEntity
  8
OGGETTO
  6
CONTINUOUS
100
AcDbLine
 10
11.909082
 20
0.363414
 30
0.0
 11
1.289103
 21
0.363414
 31
0.0
1001
ACAD
1000
ASC_BOUNDS
1002
{
1070
    19
1005
2F32
1002
}
  0
LINE
  5
2F43
100
AcDbEntity
  8
OGGETTO
  6
CONTINUOUS
100
AcDbLine
 10
0.613513
 20
19.660681
 30
0.0
 11
11.649819
 21
29.773592
 31
0.0
  0
LINE
  5
2F44
100
AcDbEntity
  8
OGGETTO
  6
CONTINUOUS
100
AcDbLine
 10
0.613513
 20
41.066147
 30
0.0
 11
11.649819
 21
30.953236
 31
0.0
  0
LINE
  5
2F45
100
AcDbEntity
  8
OGGETTO
  6
CONTINUOUS
100
AcDbLine
 10
5.883637
 20
59.714594
 30
0.0
 11
29.551826
 21
33.885299
 31
0.0
  0
LINE
  5
2F46
100
AcDbEntity
  8
OGGETTO
  6
CONTINUOUS
100
AcDbLine
 10
3.289103
 20
3.363414
 30
0.0
 11
3.289103
 21
18.923404
 31
0.0
1001
ACAD
1000
ASC_BOUNDS
1002
{
1070
    19
1005
2F32
1002
}
  0
LINE
  5
2F47
100
AcDbEntity
  8
OGGETTO
  6
CONTINUOUS
100
AcDbLine
 10
0.289103
 20
1.363414
 30
0.0
 11
0.289103
 21
18.923404
 31
0.0
1001
ACAD
1000
ASC_BOUNDS
1002
{
1070
    19
1005
2F32
1002
}
  0
LINE
  5
2F48
100
AcDbEntity
  8
OGGETTO
  6
CONTINUOUS
100
AcDbLine
 10
0.289103
 20
1.363414
 30
0.0
 11
1.289103
 21
0.363414
 31
0.0
1001
ACAD
1000
ASC_BOUNDS
1002
{
1070
    19
1005
2F32
1002
}
  0
ARC
  5
2F49
100
AcDbEntity
  8
OGGETTO
  6
CONTINUOUS
100
AcDbCircle
 10
1.289103
 20
18.923404
 30
0.0
 40
1.0
100
AcDbArc
 50
132.5
 51
180.0
1001
ACAD
1000
ASC_BOUNDS
1002
{
1070
    19
1005
2F32
1002
}
  0
LINE
  5
2F4A
100
AcDbEntity
  8
OGGETTO
  6
CONTINUOUS
100
AcDbLine
 10
1.289103
 20
20.279745
 30
0.0
 11
0.613513
 21
19.660681
 31
0.0
1001
ACAD
1000
ASC_BOUNDS
1002
{
1070
    19
1005
2F32
1002
}
  0
ARC
  5
2F4B
100
AcDbEntity
  8
OGGETTO
  6
CONTINUOUS
100
AcDbCircle
 10
4.289103
 20
18.923404
 30
0.0
 40
1.0
100
AcDbArc
 50
132.5
 51
180.0
1001
ACAD
1000
ASC_BOUNDS
1002
{
1070
    19
1005
2F32
1002
}
  0
LINE
  5
2F4C
100
AcDbEntity
  8
OGGETTO
  6
CONTINUOUS
100
AcDbLine
 10
3.289103
 20
41.803425
 30
0.0
 11
3.289103
 21
57.363414
 31
0.0
1001
ACAD
1000
ASC_BOUNDS
1002
{
1070
    19
1005
2F35
1002
}
  0
LINE
  5
2F4D
100
AcDbEntity
  8
OGGETTO
  6
CONTINUOUS
100
AcDbLine
 10
0.289103
 20
41.803425
 30
0.0
 11
0.289103
 21
59.363414
 31
0.0
1001
ACAD
1000
ASC_BOUNDS
1002
{
1070
    19
1005
2F35
1002
}
  0
ARC
  5
2F4E
100
AcDbEntity
  8
OGGETTO
  6
CONTINUOUS
100
AcDbCircle
 10
1.289103
 20
41.803425
 30
0.0
 40
1.0
100
AcDbArc
 50
180.0
 51
227.5
1001
ACAD
1000
ASC_BOUNDS
1002
{
1070
    19
1005
2F35
1002
}
  0
LINE
  5
2F4F
100
AcDbEntity
  8
OGGETTO
  6
CONTINUOUS
100
AcDbLine
 10
0.613513
 20
41.066147
 30
0.0
 11
1.289103
 21
40.447083
 31
0.0
1001
ACAD
1000
ASC_BOUNDS
1002
{
1070
    19
1005
2F35
1002
}
  0
ARC
  5
2F50
100
AcDbEntity
  8
OGGETTO
  6
CONTINUOUS
100
AcDbCircle
 10
4.289103
 20
41.803425
 30
0.0
 40
1.0
100
AcDbArc
 50
180.0
 51
227.5
1001
ACAD
1000
ASC_BOUNDS
1002
{
1070
    19
1005
2F35
1002
}
  0
ARC
  5
2F51
100
AcDbEntity
  8
OGGETTO
  6
CONTINUOUS
100
AcDbCircle
 10
4.409082
 20
55.363414
 30
0.0
 40
2.0
100
AcDbArc
 50
42.5
 51
90.0
1001
ACAD
1000
ASC_BOUNDS
1002
{
1070
    19
1005
2F35
1002
}
  0
ARC
  5
2F52
100
AcDbEntity
  8
OGGETTO
  6
CONTINUOUS
100
AcDbCircle
 10
4.409082
 20
58.363414
 30
0.0
 40
2.0
100
AcDbArc
 50
42.5
 51
90.0
1001
ACAD
1000
ASC_BOUNDS
1002
{
1070
    19
1005
2F35
1002
}
  0
LINE
  5
2F53
100
AcDbEntity
  8
OGGETTO
  6
CONTINUOUS
100
AcDbLine
 10
1.289103
 20
60.363414
 30
0.0
 11
4.409082
 21
60.363414
 31
0.0
1001
ACAD
1000
ASC_BOUNDS
1002
{
1070
    19
1005
2F35
1002
}
  0
LINE
  5
2F54
100
AcDbEntity
  8
OGGETTO
  6
CONTINUOUS
100
AcDbLine
 10
1.289103
 20
60.363414
 30
0.0
 11
0.289103
 21
59.363414
 31
0.0
1001
ACAD
1000
ASC_BOUNDS
1002
{
1070
    19
1005
2F35
1002
}
  0
LINE
  5
2F55
100
AcDbEntity
  8
OGGETTO
  6
CONTINUOUS
100
AcDbLine
 10
3.289103
 20
57.363414
 30
0.0
 11
4.409082
 21
57.363414
 31
0.0
1001
ACAD
1000
ASC_BOUNDS
1002
{
1070
    19
1005
2F35
1002
}
  0
LINE
  5
2F56
100
AcDbEntity
  8
OGGETTO
  6
CONTINUOUS
100
AcDbLine
 10
13.383637
 20
1.012234
 30
0.0
 11
28.710271
 21
17.73832
 31
0.0
1001
ACAD
1000
ASC_BOUNDS
1002
{
1070
    19
1005
2F32
1002
}
  0
LINE
  5
2F57
100
AcDbEntity
  8
OGGETTO
  6
CONTINUOUS
100
AcDbLine
 10
28.710271
 20
17.73832
 30
0.0
 11
13.730675
 21
1.39426
 31
0.0
  0
LINE
  5
2F58
100
AcDbEntity
  8
OGGETTO
  6
CONTINUOUS
100
AcDbLine
 10
13.383637
 20
4.012234
 30
0.0
 11
28.710271
 21
17.73832
 31
0.0
1001
ACAD
1000
ASC_BOUNDS
1002
{
1070
    19
1005
2F32
1002
}
  0
LINE
  5
2F59
100
AcDbEntity
  8
OGGETTO
  6
CONTINUOUS
100
AcDbLine
 10
13.383637
 20
4.012234
 30
0.0
 11
28.710271
 21
17.73832
 31
0.0
  0
LINE
  5
2F5A
100
AcDbEntity
  8
OGGETTO
  6
CONTINUOUS
100
AcDbLine
 10
13.383637
 20
4.012234
 30
0.0
 11
28.710271
 21
17.73832
 31
0.0
  0
LINE
  5
2F5B
100
AcDbEntity
  8
OGGETTO
  6
CONTINUOUS
100
AcDbLine
 10
13.383637
 20
1.012234
 30
0.0
 11
29.551826
 21
18.656716
 31
0.0
  0
ARC
  5
2F5C
100
AcDbEntity
  8
OGGETTO
  6
CONTINUOUS
100
AcDbCircle
 10
11.909082
 20
5.363414
 30
0.0
 40
2.0
100
AcDbArc
 50
270.0
 51
317.5
1001
ACAD
1000
ASC_BOUNDS
1002
{
1070
    19
1005
2F32
1002
}
  0
ARC
  5
2F5D
100
AcDbEntity
  8
OGGETTO
  6
CONTINUOUS
100
AcDbCircle
 10
11.909082
 20
2.363414
 30
0.0
 40
2.0
100
AcDbArc
 50
270.0
 51
317.5
1001
ACAD
1000
ASC_BOUNDS
1002
{
1070
    19
1005
2F32
1002
}
  0
ARC
  5
2F5E
100
AcDbEntity
  8
OGGETTO
  6
CONTINUOUS
100
AcDbCircle
 10
30.289103
 20
17.981126
 30
0.0
 40
1.0
100
AcDbArc
 50
42.5
 51
137.5
  0
ARC
  5
2F5F
100
AcDbEntity
  8
OGGETTO
  6
CONTINUOUS
100
AcDbCircle
 10
11.109347
 20
30.363414
 30
0.0
 40
0.8
100
AcDbArc
 50
312.5
 51
47.5
  0
ARC
  5
2F60
100
AcDbEntity
  8
OGGETTO
  6
CONTINUOUS
100
AcDbCircle
 10
30.289103
 20
34.560889
 30
0.0
 40
1.0
100
AcDbArc
 50
222.5
 51
317.5
  0
LINE
  5
2F61
100
AcDbEntity
  8
OGGETTO
  6
CONTINUOUS
100
AcDbLine
 10
52.317621
 20
29.667931
 30
0.0
 11
59.964693
 21
22.660681
 31
0.0
1001
ACAD
1000
ASC_BOUNDS
1002
{
1070
    19
1005
2F28
1002
}
  0
LINE
  5
2F62
100
AcDbEntity
  8
OGGETTO
  6
CONTINUOUS
100
AcDbLine
 10
56.964693
 20
22.660681
 30
0.0
 11
52.317621
 21
29.667931
 31
0.0
1001
ACAD
1000
ASC_BOUNDS
1002
{
1070
    19
1005
2F28
1002
}
  0
LINE
  5
2F63
100
AcDbEntity
  8
OGGETTO
  6
CONTINUOUS
100
AcDbLine
 10
56.964693
 20
22.660681
 30
0.0
 11
52.317621
 21
29.667931
 31
0.0
  0
LINE
  5
2F64
100
AcDbEntity
  8
OGGETTO
  6
CONTINUOUS
100
AcDbLine
 10
59.964693
 20
22.660681
 30
0.0
 11
51.960933
 21
29.994775
 31
0.0
  0
LINE
  5
2F65
100
AcDbEntity
  8
OGGETTO
  6
CONTINUOUS
100
AcDbLine
 10
59.289103
 20
0.363414
 30
0.0
 11
60.289103
 21
1.363414
 31
0.0
1001
ACAD
1000
ASC_BOUNDS
1002
{
1070
    19
1005
2F28
1002
}
  0
LINE
  5
2F66
100
AcDbEntity
  8
OGGETTO
  6
CONTINUOUS
100
AcDbLine
 10
57.289103
 20
21.923404
 30
0.0
 11
57.289103
 21
3.363414
 31
0.0
1001
ACAD
1000
ASC_BOUNDS
1002
{
1070
    19
1005
2F28
1002
}
  0
LINE
  5
2F67
100
AcDbEntity
  8
OGGETTO
  6
CONTINUOUS
100
AcDbLine
 10
57.289103
 20
3.363414
 30
0.0
 11
48.669124
 21
3.363414
 31
0.0
1001
ACAD
1000
ASC_BOUNDS
1002
{
1070
    19
1005
2F28
1002
}
  0
LINE
  5
2F68
100
AcDbEntity
  8
OGGETTO
  6
CONTINUOUS
100
AcDbLine
 10
59.289103
 20
0.363414
 30
0.0
 11
48.669124
 21
0.363414
 31
0.0
1001
ACAD
1000
ASC_BOUNDS
1002
{
1070
    19
1005
2F28
1002
}
  0
ARC
  5
2F69
100
AcDbEntity
  8
OGGETTO
  6
CONTINUOUS
100
AcDbCircle
 10
48.669124
 20
2.363414
 30
0.0
 40
2.0
100
AcDbArc
 50
222.5
 51
270.0
1001
ACAD
1000
ASC_BOUNDS
1002
{
1070
    19
1005
2F28
1002
}
  0
ARC
  5
2F6A
100
AcDbEntity
  8
OGGETTO
  6
CONTINUOUS
100
AcDbCircle
 10
48.669124
 20
5.363414
 30
0.0
 40
2.0
100
AcDbArc
 50
222.5
 51
270.0
1001
ACAD
1000
ASC_BOUNDS
1002
{
1070
    19
1005
2F28
1002
}
  0
ARC
  5
2F6B
100
AcDbEntity
  8
OGGETTO
  6
CONTINUOUS
100
AcDbCircle
 10
56.289103
 20
21.923404
 30
0.0
 40
1.0
100
AcDbArc
 50
0.0
 51
47.5
1001
ACAD
1000
ASC_BOUNDS
1002
{
1070
    19
1005
2F28
1002
}
  0
LINE
  5
2F6C
100
AcDbEntity
  8
OGGETTO
  6
CONTINUOUS
100
AcDbLine
 10
60.289103
 20
21.923404
 30
0.0
 11
60.289103
 21
1.363414
 31
0.0
1001
ACAD
1000
ASC_BOUNDS
1002
{
1070
    19
1005
2F28
1002
}
  0
ARC
  5
2F6D
100
AcDbEntity
  8
OGGETTO
  6
CONTINUOUS
100
AcDbCircle
 10
59.289103
 20
21.923404
 30
0.0
 40
1.0
100
AcDbArc
 50
0.0
 51
47.5
1001
ACAD
1000
ASC_BOUNDS
1002
{
1070
    19
1005
2F28
1002
}
  0
LINE
  5
2F6E
100
AcDbEntity
  8
OGGETTO
  6
CONTINUOUS
100
AcDbLine
 10
52.315713
 20
31.057148
 30
0.0
 11
59.849732
 21
37.946723
 31
0.0
1001
ACAD
1000
ASC_BOUNDS
1002
{
1070
    19
1005
2F2B
1002
}
  0
LINE
  5
2F6F
100
AcDbEntity
  8
OGGETTO
  6
CONTINUOUS
100
AcDbLine
 10
59.289103
 20
60.363414
 30
0.0
 11
60.289103
 21
59.363414
 31
0.0
1001
ACAD
1000
ASC_BOUNDS
1002
{
1070
    19
1005
2F2B
1002
}
  0
LINE
  5
2F70
100
AcDbEntity
  8
OGGETTO
  6
CONTINUOUS
100
AcDbLine
 10
59.964693
 20
38.066147
 30
0.0
 11
51.960933
 21
30.732053
 31
0.0
  0
LINE
  5
2F71
100
AcDbEntity
  8
OGGETTO
  6
CONTINUOUS
100
AcDbLine
 10
57.289103
 20
57.363414
 30
0.0
 11
57.289103
 21
38.803425
 31
0.0
1001
ACAD
1000
ASC_BOUNDS
1002
{
1070
    19
1005
2F2B
1002
}
  0
LINE
  5
2F72
100
AcDbEntity
  8
OGGETTO
  6
CONTINUOUS
100
AcDbLine
 10
56.964693
 20
38.066147
 30
0.0
 11
52.315713
 21
31.057148
 31
0.0
1001
ACAD
1000
ASC_BOUNDS
1002
{
1070
    19
1005
2F2B
1002
}
  0
LINE
  5
2F73
100
AcDbEntity
  8
OGGETTO
  6
CONTINUOUS
100
AcDbLine
 10
56.964693
 20
38.066147
 30
0.0
 11
52.315713
 21
31.057148
 31
0.0
  0
ARC
  5
2F74
100
AcDbEntity
  8
OGGETTO
  6
CONTINUOUS
100
AcDbCircle
 10
52.298729
 20
30.363414
 30
0.0
 40
0.5
100
AcDbArc
 50
132.5
 51
227.5
  0
ARC
  5
2F75
100
AcDbEntity
  8
OGGETTO
  6
CONTINUOUS
100
AcDbCircle
 10
56.289103
 20
38.803425
 30
0.0
 40
1.0
100
AcDbArc
 50
312.5
 51
0.0
1001
ACAD
1000
ASC_BOUNDS
1002
{
1070
    19
1005
2F2B
1002
}
  0
ARC
  5
2F76
100
AcDbEntity
  8
OGGETTO
  6
CONTINUOUS
100
AcDbCircle
 10
56.169124
 20
55.363414
 30
0.0
 40
2.0
100
AcDbArc
 50
90.0
 51
137.5
1001
ACAD
1000
ASC_BOUNDS
1002
{
1070
    19
1005
2F2B
1002
}
  0
ARC
  5
2F77
100
AcDbEntity
  8
OGGETTO
  6
CONTINUOUS
100
AcDbCircle
 10
56.169124
 20
58.363414
 30
0.0
 40
2.0
100
AcDbArc
 50
90.0
 51
137.5
1001
ACAD
1000
ASC_BOUNDS
1002
{
1070
    19
1005
2F2B
1002
}
  0
LINE
  5
2F78
100
AcDbEntity
  8
OGGETTO
  6
CONTINUOUS
100
AcDbLine
 10
56.169124
 20
60.363414
 30
0.0
 11
59.289103
 21
60.363414
 31
0.0
1001
ACAD
1000
ASC_BOUNDS
1002
{
1070
    19
1005
2F2B
1002
}
  0
LINE
  5
2F79
100
AcDbEntity
  8
OGGETTO
  6
CONTINUOUS
100
AcDbLine
 10
56.169124
 20
57.363414
 30
0.0
 11
57.289103
 21
57.363414
 31
0.0
1001
ACAD
1000
ASC_BOUNDS
1002
{
1070
    19
1005
2F2B
1002
}
  0
LINE
  5
2F7A
100
AcDbEntity
  8
OGGETTO
  6
CONTINUOUS
100
AcDbLine
 10
60.289103
 20
59.363414
 30
0.0
 11
60.289103
 21
38.803425
 31
0.0
1001
ACAD
1000
ASC_BOUNDS
1002
{
1070
    19
1005
2F2B
1002
}
  0
ARC
  5
2F7B
100
AcDbEntity
  8
OGGETTO
  6
CONTINUOUS
100
AcDbCircle
 10
59.289103
 20
38.803425
 30
0.0
 40
1.0
100
AcDbArc
 50
312.5
 51
0.0
1001
ACAD
1000
ASC_BOUNDS
1002
{
1070
    19
1005
2F2B
1002
}
  0
ENDBLK
  5
2F7D
100
AcDbEntity
  8
OGGETTO
  6
CONTINUOUS
100
AcDbBlockEnd
  0
BLOCK
  5
4773
100
AcDbEntity
  8
OGGETTO
  6
CONTINUOUS
100
AcDbBlockBegin
  2
A$C81A2
 70
     0
 10
0.0
 20
0.0
 30
0.0
  3
A$C81A2
  1

  0
LINE
  5
4768
100
AcDbEntity
  8
OGGETTO
  6
CONTINUOUS
100
AcDbLine
 10
46.706167
 20
0.343698
 30
0.0
 11
41.148464
 21
6.098867
 31
0.0
  0
LINE
  5
4769
100
AcDbEntity
  8
OGGETTO
  6
CONTINUOUS
100
AcDbLine
 10
0.506167
 20
6.55688
 30
0.0
 11
16.281692
 21
6.55688
 31
0.0
  0
LINE
  5
476A
100
AcDbEntity
  8
OGGETTO
  6
CONTINUOUS
100
AcDbLine
 10
40.069455
 20
6.55688
 30
0.0
 11
25.130642
 21
6.55688
 31
0.0
  0
LINE
  5
476B
100
AcDbEntity
  8
OGGETTO
  6
CONTINUOUS
100
AcDbLine
 10
17.001032
 20
6.251538
 30
0.0
 11
20.706167
 21
2.414758
 31
0.0
  0
ARC
  5
476C
100
AcDbEntity
  8
OGGETTO
  6
CONTINUOUS
100
AcDbCircle
 10
16.281692
 20
5.55688
 30
0.0
 40
1.0
100
AcDbArc
 50
44.0
 51
90.0
  0
LINE
  5
476D
100
AcDbEntity
  8
OGGETTO
  6
CONTINUOUS
100
AcDbLine
 10
20.706167
 20
2.414758
 30
0.0
 11
24.411302
 21
6.251538
 31
0.0
  0
ARC
  5
476E
100
AcDbEntity
  8
OGGETTO
  6
CONTINUOUS
100
AcDbCircle
 10
25.130642
 20
5.55688
 30
0.0
 40
1.0
100
AcDbArc
 50
90.0
 51
136.0
  0
ARC
  5
476F
100
AcDbEntity
  8
OGGETTO
  6
CONTINUOUS
100
AcDbCircle
 10
40.069455
 20
5.05688
 30
0.0
 40
1.5
100
AcDbArc
 50
44.0
 51
90.0
  0
LINE
  5
4770
100
AcDbEntity
  8
OGGETTO
  6
CONTINUOUS
100
AcDbLine
 10
83.906167
 20
6.55688
 30
0.0
 11
53.342879
 21
6.55688
 31
0.0
  0
LINE
  5
4771
100
AcDbEntity
  8
OGGETTO
  6
CONTINUOUS
100
AcDbLine
 10
52.263869
 20
6.098867
 30
0.0
 11
46.706167
 21
0.343698
 31
0.0
  0
ARC
  5
4772
100
AcDbEntity
  8
OGGETTO
  6
CONTINUOUS
100
AcDbCircle
 10
53.342879
 20
5.05688
 30
0.0
 40
1.5
100
AcDbArc
 50
90.0
 51
136.0
  0
ENDBLK
  5
4774
100
AcDbEntity
  8
OGGETTO
  6
CONTINUOUS
100
AcDbBlockEnd
  0
BLOCK
  5
4812
100
AcDbEntity
  8
0
100
AcDbBlockBegin
  2
*D7
 70
    65
 10
0.0
 20
0.0
 30
0.0
  3
*D7
  1

  0
LINE
  5
4813
100
AcDbEntity
  8
0
  6
BYBLOCK
 62
     0
100
AcDbLine
 10
-5.784022
 20
87.8881
 30
0.0
 11
-5.784022
 21
65.696473
 31
0.0
  0
LINE
  5
4814
100
AcDbEntity
  8
0
  6
BYBLOCK
 62
     0
100
AcDbLine
 10
33.215978
 20
87.8881
 30
0.0
 11
33.215978
 21
65.696473
 31
0.0
  0
LINE
  5
4815
100
AcDbEntity
  8
0
  6
BYBLOCK
 62
     0
100
AcDbLine
 10
-3.184022
 20
66.746473
 30
0.0
 11
30.615978
 21
66.746473
 31
0.0
  0
SOLID
  5
4816
100
AcDbEntity
  8
0
  6
BYBLOCK
 62
     0
100
AcDbTrace
 10
-3.184022
 20
67.179806
 30
0.0
 11
-3.184022
 21
66.31314
 31
0.0
 12
-5.784022
 22
66.746473
 32
0.0
 13
-5.784022
 23
66.746473
 33
0.0
  0
SOLID
  5
4817
100
AcDbEntity
  8
0
  6
BYBLOCK
 62
     0
100
AcDbTrace
 10
30.615978
 20
67.179806
 30
0.0
 11
30.615978
 21
66.31314
 31
0.0
 12
33.215978
 22
66.746473
 32
0.0
 13
33.215978
 23
66.746473
 33
0.0
  0
MTEXT
  5
4818
100
AcDbEntity
  8
0
  6
BYBLOCK
 62
     0
100
AcDbMText
 10
13.715978
 20
69.776473
 30
0.0
 40
5.0
 41
0.0
 71
     5
 72
     1
  1
\A1;39
  0
POINT
  5
4819
100
AcDbEntity
  8
DEFPOINTS
  6
BYBLOCK
 62
     0
100
AcDbPoint
 10
-5.784022
 20
88.4181
 30
0.0
  0
POINT
  5
481A
100
AcDbEntity
  8
DEFPOINTS
  6
BYBLOCK
 62
     0
100
AcDbPoint
 10
33.215978
 20
88.4181
 30
0.0
  0
POINT
  5
481B
100
AcDbEntity
  8
DEFPOINTS
  6
BYBLOCK
 62
     0
100
AcDbPoint
 10
33.215978
 20
66.746473
 30
0.0
  0
ENDBLK
  5
481C
100
AcDbEntity
  8
0
100
AcDbBlockEnd
  0
BLOCK
  5
47AF
100
AcDbEntity
  8
0
100
AcDbBlockBegin
  2
*D8
 70
    65
 10
0.0
 20
0.0
 30
0.0
  3
*D8
  1

  0
LINE
  5
47B0
100
AcDbEntity
  8
0
  6
BYBLOCK
 62
     0
100
AcDbLine
 10
-5.814022
 20
87.9181
 30
0.0
 11
-19.058935
 21
87.9181
 31
0.0
  0
LINE
  5
47B1
100
AcDbEntity
  8
0
  6
BYBLOCK
 62
     0
100
AcDbLine
 10
-6.014022
 20
133.9181
 30
0.0
 11
-19.058935
 21
133.9181
 31
0.0
  0
LINE
  5
47B2
100
AcDbEntity
  8
0
  6
BYBLOCK
 62
     0
100
AcDbLine
 10
-18.008935
 20
90.5181
 30
0.0
 11
-18.008935
 21
131.3181
 31
0.0
  0
SOLID
  5
47B3
100
AcDbEntity
  8
0
  6
BYBLOCK
 62
     0
100
AcDbTrace
 10
-18.442268
 20
90.5181
 30
0.0
 11
-17.575601
 21
90.5181
 31
0.0
 12
-18.008935
 22
87.9181
 32
0.0
 13
-18.008935
 23
87.9181
 33
0.0
  0
SOLID
  5
47B4
100
AcDbEntity
  8
0
  6
BYBLOCK
 62
     0
100
AcDbTrace
 10
-18.442268
 20
131.3181
 30
0.0
 11
-17.575601
 21
131.3181
 31
0.0
 12
-18.008935
 22
133.9181
 32
0.0
 13
-18.008935
 23
133.9181
 33
0.0
  0
MTEXT
  5
47B5
100
AcDbEntity
  8
0
  6
BYBLOCK
 62
     0
100
AcDbMText
 10
-21.038935
 20
110.9181
 30
0.0
 40
5.0
 41
0.0
 71
     5
 72
     1
  1
\A1;46
 11
0.0
 21
1.0
 31
0.0
  0
POINT
  5
47B6
100
AcDbEntity
  8
DEFPOINTS
  6
BYBLOCK
 62
     0
100
AcDbPoint
 10
-5.284022
 20
87.9181
 30
0.0
  0
POINT
  5
47B7
100
AcDbEntity
  8
DEFPOINTS
  6
BYBLOCK
 62
     0
100
AcDbPoint
 10
-5.484022
 20
133.9181
 30
0.0
  0
POINT
  5
47B8
100
AcDbEntity
  8
DEFPOINTS
  6
BYBLOCK
 62
     0
100
AcDbPoint
 10
-18.008935
 20
133.9181
 30
0.0
  0
ENDBLK
  5
47B9
100
AcDbEntity
  8
0
100
AcDbBlockEnd
  0
BLOCK
  5
47FA
100
AcDbEntity
  8
0
100
AcDbBlockBegin
  2
*D9
 70
    65
 10
0.0
 20
0.0
 30
0.0
  3
*D9
  1

  0
LINE
  5
47FB
100
AcDbEntity
  8
0
  6
BYBLOCK
 62
     0
100
AcDbLine
 10
-4.284022
 20
134.4481
 30
0.0
 11
-4.284022
 21
147.43795
 31
0.0
  0
LINE
  5
47FC
100
AcDbEntity
  8
0
  6
BYBLOCK
 62
     0
100
AcDbLine
 10
3.715978
 20
134.4481
 30
0.0
 11
3.715978
 21
147.43795
 31
0.0
  0
LINE
  5
47FD
100
AcDbEntity
  8
0
  6
BYBLOCK
 62
     0
100
AcDbLine
 10
-6.884022
 20
146.38795
 30
0.0
 11
-9.484022
 21
146.38795
 31
0.0
  0
LINE
  5
47FE
100
AcDbEntity
  8
0
  6
BYBLOCK
 62
     0
100
AcDbLine
 10
6.315978
 20
146.38795
 30
0.0
 11
8.915978
 21
146.38795
 31
0.0
  0
LINE
  5
47FF
100
AcDbEntity
  8
0
  6
BYBLOCK
 62
     0
100
AcDbLine
 10
-4.284022
 20
146.38795
 30
0.0
 11
3.715978
 21
146.38795
 31
0.0
  0
SOLID
  5
4800
100
AcDbEntity
  8
0
  6
BYBLOCK
 62
     0
100
AcDbTrace
 10
-6.884022
 20
146.821283
 30
0.0
 11
-6.884022
 21
145.954617
 31
0.0
 12
-4.284022
 22
146.38795
 32
0.0
 13
-4.284022
 23
146.38795
 33
0.0
  0
SOLID
  5
4801
100
AcDbEntity
  8
0
  6
BYBLOCK
 62
     0
100
AcDbTrace
 10
6.315978
 20
146.821283
 30
0.0
 11
6.315978
 21
145.954617
 31
0.0
 12
3.715978
 22
146.38795
 32
0.0
 13
3.715978
 23
146.38795
 33
0.0
  0
MTEXT
  5
4802
100
AcDbEntity
  8
0
  6
BYBLOCK
 62
     0
100
AcDbMText
 10
-0.284022
 20
149.41795
 30
0.0
 40
5.0
 41
0.0
 71
     5
 72
     1
  1
\A1;8
  0
POINT
  5
4803
100
AcDbEntity
  8
DEFPOINTS
  6
BYBLOCK
 62
     0
100
AcDbPoint
 10
-4.284022
 20
133.9181
 30
0.0
  0
POINT
  5
4804
100
AcDbEntity
  8
DEFPOINTS
  6
BYBLOCK
 62
     0
100
AcDbPoint
 10
3.715978
 20
133.9181
 30
0.0
  0
POINT
  5
4805
100
AcDbEntity
  8
DEFPOINTS
  6
BYBLOCK
 62
     0
100
AcDbPoint
 10
3.715978
 20
146.38795
 30
0.0
  0
ENDBLK
  5
4806
100
AcDbEntity
  8
0
100
AcDbBlockEnd
  0
BLOCK
  5
4807
100
AcDbEntity
  8
0
100
AcDbBlockBegin
  2
*D10
 70
    65
 10
0.0
 20
0.0
 30
0.0
  3
*D10
  1

  0
LINE
  5
4808
100
AcDbEntity
  8
0
  6
BYBLOCK
 62
     0
100
AcDbLine
 10
19.715978
 20
134.4481
 30
0.0
 11
19.715978
 21
147.43795
 31
0.0
  0
LINE
  5
4809
100
AcDbEntity
  8
0
  6
BYBLOCK
 62
     0
100
AcDbLine
 10
31.715978
 20
134.4481
 30
0.0
 11
31.715978
 21
147.43795
 31
0.0
  0
LINE
  5
480A
100
AcDbEntity
  8
0
  6
BYBLOCK
 62
     0
100
AcDbLine
 10
22.315978
 20
146.38795
 30
0.0
 11
29.115978
 21
146.38795
 31
0.0
  0
SOLID
  5
480B
100
AcDbEntity
  8
0
  6
BYBLOCK
 62
     0
100
AcDbTrace
 10
22.315978
 20
146.821283
 30
0.0
 11
22.315978
 21
145.954617
 31
0.0
 12
19.715978
 22
146.38795
 32
0.0
 13
19.715978
 23
146.38795
 33
0.0
  0
SOLID
  5
480C
100
AcDbEntity
  8
0
  6
BYBLOCK
 62
     0
100
AcDbTrace
 10
29.115978
 20
146.821283
 30
0.0
 11
29.115978
 21
145.954617
 31
0.0
 12
31.715978
 22
146.38795
 32
0.0
 13
31.715978
 23
146.38795
 33
0.0
  0
MTEXT
  5
480D
100
AcDbEntity
  8
0
  6
BYBLOCK
 62
     0
100
AcDbMText
 10
25.715978
 20
149.418442
 30
0.0
 40
5.0
 41
0.0
 71
     5
 72
     1
  1
\A1;12
  0
POINT
  5
480E
100
AcDbEntity
  8
DEFPOINTS
  6
BYBLOCK
 62
     0
100
AcDbPoint
 10
19.715978
 20
133.9181
 30
0.0
  0
POINT
  5
480F
100
AcDbEntity
  8
DEFPOINTS
  6
BYBLOCK
 62
     0
100
AcDbPoint
 10
31.715978
 20
133.9181
 30
0.0
  0
POINT
  5
4810
100
AcDbEntity
  8
DEFPOINTS
  6
BYBLOCK
 62
     0
100
AcDbPoint
 10
31.715978
 20
146.38795
 30
0.0
  0
ENDBLK
  5
4811
100
AcDbEntity
  8
0
100
AcDbBlockEnd
  0
BLOCK
  5
48AE
100
AcDbEntity
  8
0
100
AcDbBlockBegin
  2
*D11
 70
    65
 10
0.0
 20
0.0
 30
0.0
  3
*D11
  1

  0
LINE
  5
48AF
100
AcDbEntity
  8
0
  6
BYBLOCK
 62
     0
100
AcDbLine
 10
-5.784022
 20
87.8881
 30
0.0
 11
-5.784022
 21
76.133484
 31
0.0
  0
LINE
  5
48B0
100
AcDbEntity
  8
0
  6
BYBLOCK
 62
     0
100
AcDbLine
 10
-0.284022
 20
87.3881
 30
0.0
 11
-0.284022
 21
76.133484
 31
0.0
  0
LINE
  5
48B1
100
AcDbEntity
  8
0
  6
BYBLOCK
 62
     0
100
AcDbLine
 10
2.315978
 20
77.183484
 30
0.0
 11
4.915978
 21
77.183484
 31
0.0
  0
LINE
  5
48B2
100
AcDbEntity
  8
0
  6
BYBLOCK
 62
     0
100
AcDbLine
 10
-8.384022
 20
77.183484
 30
0.0
 11
-17.181129
 21
77.183484
 31
0.0
  0
LINE
  5
48B3
100
AcDbEntity
  8
0
  6
BYBLOCK
 62
     0
100
AcDbLine
 10
-0.284022
 20
77.183484
 30
0.0
 11
-5.784022
 21
77.183484
 31
0.0
  0
SOLID
  5
48B4
100
AcDbEntity
  8
0
  6
BYBLOCK
 62
     0
100
AcDbTrace
 10
2.315978
 20
77.616817
 30
0.0
 11
2.315978
 21
76.750151
 31
0.0
 12
-0.284022
 22
77.183484
 32
0.0
 13
-0.284022
 23
77.183484
 33
0.0
  0
SOLID
  5
48B5
100
AcDbEntity
  8
0
  6
BYBLOCK
 62
     0
100
AcDbTrace
 10
-8.384022
 20
77.616817
 30
0.0
 11
-8.384022
 21
76.750151
 31
0.0
 12
-5.784022
 22
77.183484
 32
0.0
 13
-5.784022
 23
77.183484
 33
0.0
  0
MTEXT
  5
48B6
100
AcDbEntity
  8
0
  6
BYBLOCK
 62
     0
100
AcDbMText
 10
-13.047576
 20
80.213484
 30
0.0
 40
5.0
 41
0.0
 71
     5
 72
     1
  1
\A1;5.5
  0
POINT
  5
48B7
100
AcDbEntity
  8
DEFPOINTS
  6
BYBLOCK
 62
     0
100
AcDbPoint
 10
-5.784022
 20
88.4181
 30
0.0
  0
POINT
  5
48B8
100
AcDbEntity
  8
DEFPOINTS
  6
BYBLOCK
 62
     0
100
AcDbPoint
 10
-0.284022
 20
87.9181
 30
0.0
  0
POINT
  5
48B9
100
AcDbEntity
  8
DEFPOINTS
  6
BYBLOCK
 62
     0
100
AcDbPoint
 10
-0.284022
 20
77.183484
 30
0.0
  0
ENDBLK
  5
48BA
100
AcDbEntity
  8
0
100
AcDbBlockEnd
  0
BLOCK
  5
48BB
100
AcDbEntity
  8
0
100
AcDbBlockBegin
  2
*D12
 70
    65
 10
0.0
 20
0.0
 30
0.0
  3
*D12
  1

  0
LINE
  5
48BC
100
AcDbEntity
  8
0
  6
BYBLOCK
 62
     0
100
AcDbLine
 10
-0.284022
 20
87.3881
 30
0.0
 11
-0.284022
 21
76.133484
 31
0.0
  0
LINE
  5
48BD
100
AcDbEntity
  8
0
  6
BYBLOCK
 62
     0
100
AcDbLine
 10
25.715978
 20
87.3881
 30
0.0
 11
25.715978
 21
76.133484
 31
0.0
  0
LINE
  5
48BE
100
AcDbEntity
  8
0
  6
BYBLOCK
 62
     0
100
AcDbLine
 10
2.315978
 20
77.183484
 30
0.0
 11
23.115978
 21
77.183484
 31
0.0
  0
SOLID
  5
48BF
100
AcDbEntity
  8
0
  6
BYBLOCK
 62
     0
100
AcDbTrace
 10
2.315978
 20
77.616817
 30
0.0
 11
2.315978
 21
76.750151
 31
0.0
 12
-0.284022
 22
77.183484
 32
0.0
 13
-0.284022
 23
77.183484
 33
0.0
  0
SOLID
  5
48C0
100
AcDbEntity
  8
0
  6
BYBLOCK
 62
     0
100
AcDbTrace
 10
23.115978
 20
77.616817
 30
0.0
 11
23.115978
 21
76.750151
 31
0.0
 12
25.715978
 22
77.183484
 32
0.0
 13
25.715978
 23
77.183484
 33
0.0
  0
MTEXT
  5
48C1
100
AcDbEntity
  8
0
  6
BYBLOCK
 62
     0
100
AcDbMText
 10
12.715978
 20
80.213484
 30
0.0
 40
5.0
 41
0.0
 71
     5
 72
     1
  1
\A1;26
  0
POINT
  5
48C2
100
AcDbEntity
  8
DEFPOINTS
  6
BYBLOCK
 62
     0
100
AcDbPoint
 10
-0.284022
 20
87.9181
 30
0.0
  0
POINT
  5
48C3
100
AcDbEntity
  8
DEFPOINTS
  6
BYBLOCK
 62
     0
100
AcDbPoint
 10
25.715978
 20
87.9181
 30
0.0
  0
POINT
  5
48C4
100
AcDbEntity
  8
DEFPOINTS
  6
BYBLOCK
 62
     0
100
AcDbPoint
 10
25.715978
 20
77.183484
 30
0.0
  0
ENDBLK
  5
48C5
100
AcDbEntity
  8
0
100
AcDbBlockEnd
  0
BLOCK
  5
48C6
100
AcDbEntity
  8
0
100
AcDbBlockBegin
  2
*D13
 70
    65
 10
0.0
 20
0.0
 30
0.0
  3
*D13
  1

  0
LINE
  5
48C7
100
AcDbEntity
  8
0
  6
BYBLOCK
 62
     0
100
AcDbLine
 10
25.715978
 20
87.3881
 30
0.0
 11
25.715978
 21
76.133484
 31
0.0
  0
LINE
  5
48C8
100
AcDbEntity
  8
0
  6
BYBLOCK
 62
     0
100
AcDbLine
 10
33.215978
 20
87.8881
 30
0.0
 11
33.215978
 21
76.133484
 31
0.0
  0
LINE
  5
48C9
100
AcDbEntity
  8
0
  6
BYBLOCK
 62
     0
100
AcDbLine
 10
28.315978
 20
77.183484
 30
0.0
 11
30.615978
 21
77.183484
 31
0.0
  0
LINE
  5
48CA
100
AcDbEntity
  8
0
  6
BYBLOCK
 62
     0
100
AcDbLine
 10
33.215978
 20
77.183484
 30
0.0
 11
44.083084
 21
77.183484
 31
0.0
  0
SOLID
  5
48CB
100
AcDbEntity
  8
0
  6
BYBLOCK
 62
     0
100
AcDbTrace
 10
28.315978
 20
77.616817
 30
0.0
 11
28.315978
 21
76.750151
 31
0.0
 12
25.715978
 22
77.183484
 32
0.0
 13
25.715978
 23
77.183484
 33
0.0
  0
SOLID
  5
48CC
100
AcDbEntity
  8
0
  6
BYBLOCK
 62
     0
100
AcDbTrace
 10
30.615978
 20
77.616817
 30
0.0
 11
30.615978
 21
76.750151
 31
0.0
 12
33.215978
 22
77.183484
 32
0.0
 13
33.215978
 23
77.183484
 33
0.0
  0
MTEXT
  5
48CD
100
AcDbEntity
  8
0
  6
BYBLOCK
 62
     0
100
AcDbMText
 10
39.949531
 20
80.213484
 30
0.0
 40
5.0
 41
0.0
 71
     5
 72
     1
  1
\A1;7.5
  0
POINT
  5
48CE
100
AcDbEntity
  8
DEFPOINTS
  6
BYBLOCK
 62
     0
100
AcDbPoint
 10
25.715978
 20
87.9181
 30
0.0
  0
POINT
  5
48CF
100
AcDbEntity
  8
DEFPOINTS
  6
BYBLOCK
 62
     0
100
AcDbPoint
 10
33.215978
 20
88.4181
 30
0.0
  0
POINT
  5
48D0
100
AcDbEntity
  8
DEFPOINTS
  6
BYBLOCK
 62
     0
100
AcDbPoint
 10
33.215978
 20
77.183484
 30
0.0
  0
ENDBLK
  5
48D1
100
AcDbEntity
  8
0
100
AcDbBlockEnd
  0
BLOCK
  5
4888
100
AcDbEntity
  8
0
100
AcDbBlockBegin
  2
*D14
 70
    65
 10
0.0
 20
0.0
 30
0.0
  3
*D14
  1

  0
LINE
  5
4889
100
AcDbEntity
  8
0
  6
BYBLOCK
 62
     0
100
AcDbLine
 10
5.215978
 20
94.4481
 30
0.0
 11
5.215978
 21
101.47754
 31
0.0
  0
LINE
  5
488A
100
AcDbEntity
  8
0
  6
BYBLOCK
 62
     0
100
AcDbLine
 10
20.215978
 20
94.4481
 30
0.0
 11
20.215978
 21
101.47754
 31
0.0
  0
LINE
  5
488B
100
AcDbEntity
  8
0
  6
BYBLOCK
 62
     0
100
AcDbLine
 10
7.815978
 20
100.42754
 30
0.0
 11
17.615978
 21
100.42754
 31
0.0
  0
SOLID
  5
488C
100
AcDbEntity
  8
0
  6
BYBLOCK
 62
     0
100
AcDbTrace
 10
7.815978
 20
100.860874
 30
0.0
 11
7.815978
 21
99.994207
 31
0.0
 12
5.215978
 22
100.42754
 32
0.0
 13
5.215978
 23
100.42754
 33
0.0
  0
SOLID
  5
488D
100
AcDbEntity
  8
0
  6
BYBLOCK
 62
     0
100
AcDbTrace
 10
17.615978
 20
100.860874
 30
0.0
 11
17.615978
 21
99.994207
 31
0.0
 12
20.215978
 22
100.42754
 32
0.0
 13
20.215978
 23
100.42754
 33
0.0
  0
MTEXT
  5
488E
100
AcDbEntity
  8
0
  6
BYBLOCK
 62
     0
100
AcDbMText
 10
12.715978
 20
103.45754
 30
0.0
 40
5.0
 41
0.0
 71
     5
 72
     1
  1
\A1;15
  0
POINT
  5
488F
100
AcDbEntity
  8
DEFPOINTS
  6
BYBLOCK
 62
     0
100
AcDbPoint
 10
5.215978
 20
93.9181
 30
0.0
  0
POINT
  5
4890
100
AcDbEntity
  8
DEFPOINTS
  6
BYBLOCK
 62
     0
100
AcDbPoint
 10
20.215978
 20
93.9181
 30
0.0
  0
POINT
  5
4891
100
AcDbEntity
  8
DEFPOINTS
  6
BYBLOCK
 62
     0
100
AcDbPoint
 10
20.215978
 20
100.42754
 30
0.0
  0
ENDBLK
  5
4892
100
AcDbEntity
  8
0
100
AcDbBlockEnd
  0
BLOCK
  5
48A0
100
AcDbEntity
  8
0
100
AcDbBlockBegin
  2
*D15
 70
    65
 10
0.0
 20
0.0
 30
0.0
  3
*D15
  1

  0
LINE
  5
48A1
100
AcDbEntity
  8
0
  6
BYBLOCK
 62
     0
100
AcDbLine
 10
20.745978
 20
93.9181
 30
0.0
 11
46.778143
 21
93.9181
 31
0.0
  0
LINE
  5
48A2
100
AcDbEntity
  8
0
  6
BYBLOCK
 62
     0
100
AcDbLine
 10
33.245978
 20
87.9181
 30
0.0
 11
46.778143
 21
87.9181
 31
0.0
  0
LINE
  5
48A3
100
AcDbEntity
  8
0
  6
BYBLOCK
 62
     0
100
AcDbLine
 10
45.728143
 20
85.3181
 30
0.0
 11
45.728143
 21
82.7181
 31
0.0
  0
LINE
  5
48A4
100
AcDbEntity
  8
0
  6
BYBLOCK
 62
     0
100
AcDbLine
 10
45.728143
 20
96.5181
 30
0.0
 11
45.728143
 21
101.252465
 31
0.0
  0
LINE
  5
48A5
100
AcDbEntity
  8
0
  6
BYBLOCK
 62
     0
100
AcDbLine
 10
45.728143
 20
87.9181
 30
0.0
 11
45.728143
 21
93.9181
 31
0.0
  0
SOLID
  5
48A6
100
AcDbEntity
  8
0
  6
BYBLOCK
 62
     0
100
AcDbTrace
 10
45.29481
 20
85.3181
 30
0.0
 11
46.161477
 21
85.3181
 31
0.0
 12
45.728143
 22
87.9181
 32
0.0
 13
45.728143
 23
87.9181
 33
0.0
  0
SOLID
  5
48A7
100
AcDbEntity
  8
0
  6
BYBLOCK
 62
     0
100
AcDbTrace
 10
45.29481
 20
96.5181
 30
0.0
 11
46.161477
 21
96.5181
 31
0.0
 12
45.728143
 22
93.9181
 32
0.0
 13
45.728143
 23
93.9181
 33
0.0
  0
MTEXT
  5
48A8
100
AcDbEntity
  8
0
  6
BYBLOCK
 62
     0
100
AcDbMText
 10
42.698143
 20
99.448843
 30
0.0
 40
5.0
 41
0.0
 71
     5
 72
     1
  1
\A1;6
 11
0.0
 21
1.0
 31
0.0
  0
POINT
  5
48A9
100
AcDbEntity
  8
DEFPOINTS
  6
BYBLOCK
 62
     0
100
AcDbPoint
 10
20.215978
 20
93.9181
 30
0.0
  0
POINT
  5
48AA
100
AcDbEntity
  8
DEFPOINTS
  6
BYBLOCK
 62
     0
100
AcDbPoint
 10
32.715978
 20
87.9181
 30
0.0
  0
POINT
  5
48AB
100
AcDbEntity
  8
DEFPOINTS
  6
BYBLOCK
 62
     0
100
AcDbPoint
 10
45.728143
 20
87.9181
 30
0.0
  0
ENDBLK
  5
48AC
100
AcDbEntity
  8
0
100
AcDbBlockEnd
  0
BLOCK
  5
48E8
100
AcDbEntity
  8
QUOTE
  6
CONTINUOUS
100
AcDbBlockBegin
  2
A$CA3A4
 70
     0
 10
0.0
 20
0.0
 30
0.0
  3
A$CA3A4
  1

  0
LINE
  5
48DB
100
AcDbEntity
  8
MARCHIO
  6
CONTINUOUS
100
AcDbLine
 10
34.025263
 20
1.018208
 30
0.0
 11
37.081494
 21
9.415134
 31
0.0
1001
ACAD
1000
ASC_BOUNDS
1002
{
1070
    19
1002
}
  0
LINE
  5
48DC
100
AcDbEntity
  8
MARCHIO
  6
CONTINUOUS
100
AcDbLine
 10
34.72547
 20
0.018208
 30
0.0
 11
38.145672
 21
9.415134
 31
0.0
1001
ACAD
1000
ASC_BOUNDS
1002
{
1070
    19
1002
}
  0
TEXT
  5
48DD
100
AcDbEntity
  8
OGGETTO
  6
CONTINUOUS
100
AcDbText
 10
12.300669
 20
2.561529
 30
0.0
 40
8.0
  1
30°
  7
ARIAL
100
AcDbText
  0
LINE
  5
48DE
100
AcDbEntity
  8
MARCHIO
  6
CONTINUOUS
100
AcDbLine
 10
1.421567
 20
3.776978
 30
0.0
 11
2.425678
 21
1.018208
 31
0.0
1001
ACAD
1000
ASC_BOUNDS
1002
{
1070
    19
1002
}
  0
LINE
  5
48DF
100
AcDbEntity
  8
MARCHIO
  6
CONTINUOUS
100
AcDbLine
 10
0.35739
 20
3.776978
 30
0.0
 11
1.72547
 21
0.018208
 31
0.0
1001
ACAD
1000
ASC_BOUNDS
1002
{
1070
    19
1002
}
  0
LINE
  5
48E0
100
AcDbEntity
  8
MARCHIO
  6
CONTINUOUS
100
AcDbLine
 10
1.72547
 20
0.018208
 30
0.0
 11
34.72547
 21
0.018208
 31
0.0
1001
ACAD
1000
ASC_BOUNDS
1002
{
1070
    19
1002
}
  0
LINE
  5
48E1
100
AcDbEntity
  8
MARCHIO
  6
CONTINUOUS
100
AcDbLine
 10
2.425678
 20
1.018208
 30
0.0
 11
34.025263
 21
1.018208
 31
0.0
1001
ACAD
1000
ASC_BOUNDS
1002
{
1070
    19
1002
}
  0
LINE
  5
48E2
100
AcDbEntity
  8
MARCHIO
  6
CONTINUOUS
100
AcDbLine
 10
36.077383
 20
12.173904
 30
0.0
 11
4.477798
 21
12.173904
 31
0.0
1001
ACAD
1000
ASC_BOUNDS
1002
{
1070
    19
1002
}
  0
LINE
  5
48E3
100
AcDbEntity
  8
MARCHIO
  6
CONTINUOUS
100
AcDbLine
 10
36.777591
 20
13.173904
 30
0.0
 11
3.777591
 21
13.173904
 31
0.0
1001
ACAD
1000
ASC_BOUNDS
1002
{
1070
    19
1002
}
  0
LINE
  5
48E4
100
AcDbEntity
  8
MARCHIO
  6
CONTINUOUS
100
AcDbLine
 10
4.477798
 20
12.173904
 30
0.0
 11
1.421567
 21
3.776978
 31
0.0
1001
ACAD
1000
ASC_BOUNDS
1002
{
1070
    19
1002
}
  0
LINE
  5
48E5
100
AcDbEntity
  8
MARCHIO
  6
CONTINUOUS
100
AcDbLine
 10
3.777591
 20
13.173904
 30
0.0
 11
0.35739
 21
3.776978
 31
0.0
1001
ACAD
1000
ASC_BOUNDS
1002
{
1070
    19
1002
}
  0
LINE
  5
48E6
100
AcDbEntity
  8
MARCHIO
  6
CONTINUOUS
100
AcDbLine
 10
37.081494
 20
9.415134
 30
0.0
 11
36.077383
 21
12.173904
 31
0.0
1001
ACAD
1000
ASC_BOUNDS
1002
{
1070
    19
1002
}
  0
LINE
  5
48E7
100
AcDbEntity
  8
MARCHIO
  6
CONTINUOUS
100
AcDbLine
 10
38.145672
 20
9.415134
 30
0.0
 11
36.777591
 21
13.173904
 31
0.0
1001
ACAD
1000
ASC_BOUNDS
1002
{
1070
    19
1002
}
  0
ENDBLK
  5
48E9
100
AcDbEntity
  8
QUOTE
  6
CONTINUOUS
100
AcDbBlockEnd
  0
BLOCK
  5
4932
100
AcDbEntity
  8
0
100
AcDbBlockBegin
  2
*X17
 70
    65
 10
0.0
 20
0.0
 30
0.0
  3
*X17
  1

  0
LINE
  5
4934
100
AcDbEntity
  8
0
  6
CONTINUOUS
 62
     0
100
AcDbLine
 10
60.928421
 20
136.811586
 30
0.0
 11
62.928421
 21
138.811586
 31
0.0
  0
LINE
  5
4935
100
AcDbEntity
  8
0
  6
CONTINUOUS
 62
     0
100
AcDbLine
 10
60.703915
 20
136.811586
 30
0.0
 11
62.703915
 21
138.811586
 31
0.0
  0
LINE
  5
4936
100
AcDbEntity
  8
0
  6
CONTINUOUS
 62
     0
100
AcDbLine
 10
60.479408
 20
136.811586
 30
0.0
 11
62.479408
 21
138.811586
 31
0.0
  0
LINE
  5
4937
100
AcDbEntity
  8
0
  6
CONTINUOUS
 62
     0
100
AcDbLine
 10
60.254902
 20
136.811586
 30
0.0
 11
62.254902
 21
138.811586
 31
0.0
  0
LINE
  5
4938
100
AcDbEntity
  8
0
  6
CONTINUOUS
 62
     0
100
AcDbLine
 10
60.030396
 20
136.811586
 30
0.0
 11
62.030396
 21
138.811586
 31
0.0
  0
LINE
  5
4939
100
AcDbEntity
  8
0
  6
CONTINUOUS
 62
     0
100
AcDbLine
 10
59.805889
 20
136.811586
 30
0.0
 11
61.805889
 21
138.811586
 31
0.0
  0
LINE
  5
493A
100
AcDbEntity
  8
0
  6
CONTINUOUS
 62
     0
100
AcDbLine
 10
59.581383
 20
136.811586
 30
0.0
 11
61.581383
 21
138.811586
 31
0.0
  0
LINE
  5
493B
100
AcDbEntity
  8
0
  6
CONTINUOUS
 62
     0
100
AcDbLine
 10
59.356876
 20
136.811586
 30
0.0
 11
61.356876
 21
138.811586
 31
0.0
  0
LINE
  5
493C
100
AcDbEntity
  8
0
  6
CONTINUOUS
 62
     0
100
AcDbLine
 10
59.13237
 20
136.811586
 30
0.0
 11
61.13237
 21
138.811586
 31
0.0
  0
LINE
  5
493D
100
AcDbEntity
  8
0
  6
CONTINUOUS
 62
     0
100
AcDbLine
 10
58.907864
 20
136.811586
 30
0.0
 11
60.907864
 21
138.811586
 31
0.0
  0
LINE
  5
493E
100
AcDbEntity
  8
0
  6
CONTINUOUS
 62
     0
100
AcDbLine
 10
58.683357
 20
136.811586
 30
0.0
 11
60.683357
 21
138.811586
 31
0.0
  0
LINE
  5
493F
100
AcDbEntity
  8
0
  6
CONTINUOUS
 62
     0
100
AcDbLine
 10
58.458851
 20
136.811586
 30
0.0
 11
60.458851
 21
138.811586
 31
0.0
  0
LINE
  5
4940
100
AcDbEntity
  8
0
  6
CONTINUOUS
 62
     0
100
AcDbLine
 10
58.234344
 20
136.811586
 30
0.0
 11
60.234344
 21
138.811586
 31
0.0
  0
LINE
  5
4941
100
AcDbEntity
  8
0
  6
CONTINUOUS
 62
     0
100
AcDbLine
 10
58.009838
 20
136.811586
 30
0.0
 11
60.009838
 21
138.811586
 31
0.0
  0
LINE
  5
4942
100
AcDbEntity
  8
0
  6
CONTINUOUS
 62
     0
100
AcDbLine
 10
57.785332
 20
136.811586
 30
0.0
 11
59.785332
 21
138.811586
 31
0.0
  0
LINE
  5
4943
100
AcDbEntity
  8
0
  6
CONTINUOUS
 62
     0
100
AcDbLine
 10
57.560825
 20
136.811586
 30
0.0
 11
59.560825
 21
138.811586
 31
0.0
  0
LINE
  5
4944
100
AcDbEntity
  8
0
  6
CONTINUOUS
 62
     0
100
AcDbLine
 10
57.336319
 20
136.811586
 30
0.0
 11
59.336319
 21
138.811586
 31
0.0
  0
LINE
  5
4945
100
AcDbEntity
  8
0
  6
CONTINUOUS
 62
     0
100
AcDbLine
 10
57.111812
 20
136.811586
 30
0.0
 11
59.111812
 21
138.811586
 31
0.0
  0
LINE
  5
4946
100
AcDbEntity
  8
0
  6
CONTINUOUS
 62
     0
100
AcDbLine
 10
56.887306
 20
136.811586
 30
0.0
 11
58.887306
 21
138.811586
 31
0.0
  0
LINE
  5
4947
100
AcDbEntity
  8
0
  6
CONTINUOUS
 62
     0
100
AcDbLine
 10
56.6628
 20
136.811586
 30
0.0
 11
58.6628
 21
138.811586
 31
0.0
  0
LINE
  5
4948
100
AcDbEntity
  8
0
  6
CONTINUOUS
 62
     0
100
AcDbLine
 10
56.438293
 20
136.811586
 30
0.0
 11
58.438293
 21
138.811586
 31
0.0
  0
LINE
  5
4949
100
AcDbEntity
  8
0
  6
CONTINUOUS
 62
     0
100
AcDbLine
 10
56.213787
 20
136.811586
 30
0.0
 11
58.213787
 21
138.811586
 31
0.0
  0
LINE
  5
494A
100
AcDbEntity
  8
0
  6
CONTINUOUS
 62
     0
100
AcDbLine
 10
55.98928
 20
136.811586
 30
0.0
 11
57.98928
 21
138.811586
 31
0.0
  0
LINE
  5
494B
100
AcDbEntity
  8
0
  6
CONTINUOUS
 62
     0
100
AcDbLine
 10
55.764774
 20
136.811586
 30
0.0
 11
57.764774
 21
138.811586
 31
0.0
  0
LINE
  5
494C
100
AcDbEntity
  8
0
  6
CONTINUOUS
 62
     0
100
AcDbLine
 10
55.540268
 20
136.811586
 30
0.0
 11
57.540268
 21
138.811586
 31
0.0
  0
LINE
  5
494D
100
AcDbEntity
  8
0
  6
CONTINUOUS
 62
     0
100
AcDbLine
 10
55.315761
 20
136.811586
 30
0.0
 11
57.315761
 21
138.811586
 31
0.0
  0
LINE
  5
494E
100
AcDbEntity
  8
0
  6
CONTINUOUS
 62
     0
100
AcDbLine
 10
55.091255
 20
136.811586
 30
0.0
 11
57.091255
 21
138.811586
 31
0.0
  0
LINE
  5
494F
100
AcDbEntity
  8
0
  6
CONTINUOUS
 62
     0
100
AcDbLine
 10
54.866748
 20
136.811586
 30
0.0
 11
56.866748
 21
138.811586
 31
0.0
  0
LINE
  5
4950
100
AcDbEntity
  8
0
  6
CONTINUOUS
 62
     0
100
AcDbLine
 10
54.642242
 20
136.811586
 30
0.0
 11
56.642242
 21
138.811586
 31
0.0
  0
LINE
  5
4951
100
AcDbEntity
  8
0
  6
CONTINUOUS
 62
     0
100
AcDbLine
 10
54.417736
 20
136.811586
 30
0.0
 11
56.417736
 21
138.811586
 31
0.0
  0
LINE
  5
4952
100
AcDbEntity
  8
0
  6
CONTINUOUS
 62
     0
100
AcDbLine
 10
54.193229
 20
136.811586
 30
0.0
 11
56.193229
 21
138.811586
 31
0.0
  0
LINE
  5
4953
100
AcDbEntity
  8
0
  6
CONTINUOUS
 62
     0
100
AcDbLine
 10
53.968723
 20
136.811586
 30
0.0
 11
55.968723
 21
138.811586
 31
0.0
  0
LINE
  5
4954
100
AcDbEntity
  8
0
  6
CONTINUOUS
 62
     0
100
AcDbLine
 10
53.744216
 20
136.811586
 30
0.0
 11
55.744216
 21
138.811586
 31
0.0
  0
LINE
  5
4955
100
AcDbEntity
  8
0
  6
CONTINUOUS
 62
     0
100
AcDbLine
 10
53.51971
 20
136.811586
 30
0.0
 11
55.51971
 21
138.811586
 31
0.0
  0
LINE
  5
4956
100
AcDbEntity
  8
0
  6
CONTINUOUS
 62
     0
100
AcDbLine
 10
53.295204
 20
136.811586
 30
0.0
 11
55.295204
 21
138.811586
 31
0.0
  0
LINE
  5
4957
100
AcDbEntity
  8
0
  6
CONTINUOUS
 62
     0
100
AcDbLine
 10
53.070697
 20
136.811586
 30
0.0
 11
55.070697
 21
138.811586
 31
0.0
  0
LINE
  5
4958
100
AcDbEntity
  8
0
  6
CONTINUOUS
 62
     0
100
AcDbLine
 10
52.846191
 20
136.811586
 30
0.0
 11
54.846191
 21
138.811586
 31
0.0
  0
LINE
  5
4959
100
AcDbEntity
  8
0
  6
CONTINUOUS
 62
     0
100
AcDbLine
 10
52.621684
 20
136.811586
 30
0.0
 11
54.621684
 21
138.811586
 31
0.0
  0
LINE
  5
495A
100
AcDbEntity
  8
0
  6
CONTINUOUS
 62
     0
100
AcDbLine
 10
52.397178
 20
136.811586
 30
0.0
 11
54.397178
 21
138.811586
 31
0.0
  0
LINE
  5
495B
100
AcDbEntity
  8
0
  6
CONTINUOUS
 62
     0
100
AcDbLine
 10
52.172672
 20
136.811586
 30
0.0
 11
54.172672
 21
138.811586
 31
0.0
  0
LINE
  5
495C
100
AcDbEntity
  8
0
  6
CONTINUOUS
 62
     0
100
AcDbLine
 10
51.948165
 20
136.811586
 30
0.0
 11
53.948165
 21
138.811586
 31
0.0
  0
LINE
  5
495D
100
AcDbEntity
  8
0
  6
CONTINUOUS
 62
     0
100
AcDbLine
 10
51.723659
 20
136.811586
 30
0.0
 11
53.723659
 21
138.811586
 31
0.0
  0
LINE
  5
495E
100
AcDbEntity
  8
0
  6
CONTINUOUS
 62
     0
100
AcDbLine
 10
51.499152
 20
136.811586
 30
0.0
 11
53.499152
 21
138.811586
 31
0.0
  0
LINE
  5
495F
100
AcDbEntity
  8
0
  6
CONTINUOUS
 62
     0
100
AcDbLine
 10
51.274646
 20
136.811586
 30
0.0
 11
53.274646
 21
138.811586
 31
0.0
  0
LINE
  5
4960
100
AcDbEntity
  8
0
  6
CONTINUOUS
 62
     0
100
AcDbLine
 10
51.05014
 20
136.811586
 30
0.0
 11
53.05014
 21
138.811586
 31
0.0
  0
LINE
  5
4961
100
AcDbEntity
  8
0
  6
CONTINUOUS
 62
     0
100
AcDbLine
 10
50.825633
 20
136.811586
 30
0.0
 11
52.825633
 21
138.811586
 31
0.0
  0
LINE
  5
4962
100
AcDbEntity
  8
0
  6
CONTINUOUS
 62
     0
100
AcDbLine
 10
50.601127
 20
136.811586
 30
0.0
 11
52.601127
 21
138.811586
 31
0.0
  0
LINE
  5
4963
100
AcDbEntity
  8
0
  6
CONTINUOUS
 62
     0
100
AcDbLine
 10
50.37662
 20
136.811586
 30
0.0
 11
52.37662
 21
138.811586
 31
0.0
  0
LINE
  5
4964
100
AcDbEntity
  8
0
  6
CONTINUOUS
 62
     0
100
AcDbLine
 10
50.10405
 20
136.763522
 30
0.0
 11
52.152114
 21
138.811586
 31
0.0
  0
LINE
  5
4965
100
AcDbEntity
  8
0
  6
CONTINUOUS
 62
     0
100
AcDbLine
 10
49.668831
 20
136.552809
 30
0.0
 11
51.927608
 21
138.811586
 31
0.0
  0
LINE
  5
4966
100
AcDbEntity
  8
0
  6
CONTINUOUS
 62
     0
100
AcDbLine
 10
49.233613
 20
136.342097
 30
0.0
 11
51.703101
 21
138.811586
 31
0.0
  0
LINE
  5
4967
100
AcDbEntity
  8
0
  6
CONTINUOUS
 62
     0
100
AcDbLine
 10
48.798394
 20
136.131385
 30
0.0
 11
51.478595
 21
138.811586
 31
0.0
  0
LINE
  5
4968
100
AcDbEntity
  8
0
  6
CONTINUOUS
 62
     0
100
AcDbLine
 10
48.363175
 20
135.920672
 30
0.0
 11
51.254088
 21
138.811586
 31
0.0
  0
LINE
  5
4969
100
AcDbEntity
  8
0
  6
CONTINUOUS
 62
     0
100
AcDbLine
 10
47.927957
 20
135.70996
 30
0.0
 11
51.029582
 21
138.811586
 31
0.0
  0
LINE
  5
496A
100
AcDbEntity
  8
0
  6
CONTINUOUS
 62
     0
100
AcDbLine
 10
47.492738
 20
135.499248
 30
0.0
 11
50.805076
 21
138.811586
 31
0.0
  0
LINE
  5
496B
100
AcDbEntity
  8
0
  6
CONTINUOUS
 62
     0
100
AcDbLine
 10
47.057519
 20
135.288536
 30
0.0
 11
50.580569
 21
138.811586
 31
0.0
  0
LINE
  5
496C
100
AcDbEntity
  8
0
  6
CONTINUOUS
 62
     0
100
AcDbLine
 10
46.6223
 20
135.077823
 30
0.0
 11
50.356063
 21
138.811586
 31
0.0
  0
LINE
  5
496D
100
AcDbEntity
  8
0
  6
CONTINUOUS
 62
     0
100
AcDbLine
 10
46.187082
 20
134.867111
 30
0.0
 11
50.128774
 21
138.808803
 31
0.0
  0
LINE
  5
496E
100
AcDbEntity
  8
0
  6
CONTINUOUS
 62
     0
100
AcDbLine
 10
45.769408
 20
134.673943
 30
0.0
 11
45.772011
 21
134.676546
 31
0.0
  0
LINE
  5
496F
100
AcDbEntity
  8
0
  6
CONTINUOUS
 62
     0
100
AcDbLine
 10
46.170652
 20
135.075188
 30
0.0
 11
49.837885
 21
138.742421
 31
0.0
  0
LINE
  5
4970
100
AcDbEntity
  8
0
  6
CONTINUOUS
 62
     0
100
AcDbLine
 10
45.617134
 20
134.746176
 30
0.0
 11
45.661717
 21
134.790759
 31
0.0
  0
LINE
  5
4971
100
AcDbEntity
  8
0
  6
CONTINUOUS
 62
     0
100
AcDbLine
 10
45.464861
 20
134.81841
 30
0.0
 11
45.551423
 21
134.904971
 31
0.0
  0
LINE
  5
4972
100
AcDbEntity
  8
0
  6
CONTINUOUS
 62
     0
100
AcDbLine
 10
45.312588
 20
134.890643
 30
0.0
 11
45.441129
 21
135.019184
 31
0.0
  0
LINE
  5
4973
100
AcDbEntity
  8
0
  6
CONTINUOUS
 62
     0
100
AcDbLine
 10
45.160315
 20
134.962876
 30
0.0
 11
45.330835
 21
135.133397
 31
0.0
  0
LINE
  5
4974
100
AcDbEntity
  8
0
  6
CONTINUOUS
 62
     0
100
AcDbLine
 10
45.008042
 20
135.03511
 30
0.0
 11
45.220542
 21
135.247609
 31
0.0
  0
LINE
  5
4975
100
AcDbEntity
  8
0
  6
CONTINUOUS
 62
     0
100
AcDbLine
 10
44.855769
 20
135.107343
 30
0.0
 11
45.110248
 21
135.361822
 31
0.0
  0
LINE
  5
4976
100
AcDbEntity
  8
0
  6
CONTINUOUS
 62
     0
100
AcDbLine
 10
44.703496
 20
135.179576
 30
0.0
 11
44.999954
 21
135.476034
 31
0.0
  0
LINE
  5
4977
100
AcDbEntity
  8
0
  6
CONTINUOUS
 62
     0
100
AcDbLine
 10
44.551223
 20
135.251809
 30
0.0
 11
44.88966
 21
135.590247
 31
0.0
  0
LINE
  5
4978
100
AcDbEntity
  8
0
  6
CONTINUOUS
 62
     0
100
AcDbLine
 10
44.398949
 20
135.324043
 30
0.0
 11
44.779366
 21
135.704459
 31
0.0
  0
LINE
  5
4979
100
AcDbEntity
  8
0
  6
CONTINUOUS
 62
     0
100
AcDbLine
 10
44.246676
 20
135.396276
 30
0.0
 11
44.669072
 21
135.818672
 31
0.0
  0
LINE
  5
497A
100
AcDbEntity
  8
0
  6
CONTINUOUS
 62
     0
100
AcDbLine
 10
44.094403
 20
135.468509
 30
0.0
 11
44.558779
 21
135.932885
 31
0.0
  0
LINE
  5
497B
100
AcDbEntity
  8
0
  6
CONTINUOUS
 62
     0
100
AcDbLine
 10
43.94213
 20
135.540743
 30
0.0
 11
44.448485
 21
136.047097
 31
0.0
  0
LINE
  5
497C
100
AcDbEntity
  8
0
  6
CONTINUOUS
 62
     0
100
AcDbLine
 10
43.789857
 20
135.612976
 30
0.0
 11
44.338191
 21
136.16131
 31
0.0
  0
LINE
  5
497D
100
AcDbEntity
  8
0
  6
CONTINUOUS
 62
     0
100
AcDbLine
 10
43.637584
 20
135.685209
 30
0.0
 11
44.227897
 21
136.275522
 31
0.0
  0
LINE
  5
497E
100
AcDbEntity
  8
0
  6
CONTINUOUS
 62
     0
100
AcDbLine
 10
43.485311
 20
135.757442
 30
0.0
 11
44.117603
 21
136.389735
 31
0.0
  0
LINE
  5
497F
100
AcDbEntity
  8
0
  6
CONTINUOUS
 62
     0
100
AcDbLine
 10
43.333038
 20
135.829676
 30
0.0
 11
44.00731
 21
136.503948
 31
0.0
  0
LINE
  5
4980
100
AcDbEntity
  8
0
  6
CONTINUOUS
 62
     0
100
AcDbLine
 10
43.180765
 20
135.901909
 30
0.0
 11
43.897016
 21
136.61816
 31
0.0
  0
LINE
  5
4981
100
AcDbEntity
  8
0
  6
CONTINUOUS
 62
     0
100
AcDbLine
 10
43.028491
 20
135.974142
 30
0.0
 11
43.786722
 21
136.732373
 31
0.0
  0
LINE
  5
4982
100
AcDbEntity
  8
0
  6
CONTINUOUS
 62
     0
100
AcDbLine
 10
42.876218
 20
136.046376
 30
0.0
 11
43.676428
 21
136.846585
 31
0.0
  0
LINE
  5
4983
100
AcDbEntity
  8
0
  6
CONTINUOUS
 62
     0
100
AcDbLine
 10
42.723945
 20
136.118609
 30
0.0
 11
43.566134
 21
136.960798
 31
0.0
  0
LINE
  5
4984
100
AcDbEntity
  8
0
  6
CONTINUOUS
 62
     0
100
AcDbLine
 10
42.571672
 20
136.190842
 30
0.0
 11
43.45584
 21
137.075011
 31
0.0
  0
LINE
  5
4985
100
AcDbEntity
  8
0
  6
CONTINUOUS
 62
     0
100
AcDbLine
 10
42.419399
 20
136.263075
 30
0.0
 11
43.345547
 21
137.189223
 31
0.0
  0
LINE
  5
4986
100
AcDbEntity
  8
0
  6
CONTINUOUS
 62
     0
100
AcDbLine
 10
42.267126
 20
136.335309
 30
0.0
 11
43.235253
 21
137.303436
 31
0.0
  0
LINE
  5
4987
100
AcDbEntity
  8
0
  6
CONTINUOUS
 62
     0
100
AcDbLine
 10
42.114853
 20
136.407542
 30
0.0
 11
43.124959
 21
137.417648
 31
0.0
  0
LINE
  5
4988
100
AcDbEntity
  8
0
  6
CONTINUOUS
 62
     0
100
AcDbLine
 10
41.96258
 20
136.479775
 30
0.0
 11
43.014665
 21
137.531861
 31
0.0
  0
LINE
  5
4989
100
AcDbEntity
  8
0
  6
CONTINUOUS
 62
     0
100
AcDbLine
 10
41.810306
 20
136.552008
 30
0.0
 11
42.904371
 21
137.646073
 31
0.0
  0
LINE
  5
498A
100
AcDbEntity
  8
0
  6
CONTINUOUS
 62
     0
100
AcDbLine
 10
41.658033
 20
136.624242
 30
0.0
 11
42.794078
 21
137.760286
 31
0.0
  0
LINE
  5
498B
100
AcDbEntity
  8
0
  6
CONTINUOUS
 62
     0
100
AcDbLine
 10
41.50576
 20
136.696475
 30
0.0
 11
42.683784
 21
137.874499
 31
0.0
  0
LINE
  5
498C
100
AcDbEntity
  8
0
  6
CONTINUOUS
 62
     0
100
AcDbLine
 10
41.353487
 20
136.768708
 30
0.0
 11
42.57349
 21
137.988711
 31
0.0
  0
LINE
  5
498D
100
AcDbEntity
  8
0
  6
CONTINUOUS
 62
     0
100
AcDbLine
 10
41.171858
 20
136.811586
 30
0.0
 11
42.463196
 21
138.102924
 31
0.0
  0
LINE
  5
498E
100
AcDbEntity
  8
0
  6
CONTINUOUS
 62
     0
100
AcDbLine
 10
40.947351
 20
136.811586
 30
0.0
 11
42.352902
 21
138.217136
 31
0.0
  0
LINE
  5
498F
100
AcDbEntity
  8
0
  6
CONTINUOUS
 62
     0
100
AcDbLine
 10
40.722845
 20
136.811586
 30
0.0
 11
42.242609
 21
138.331349
 31
0.0
  0
LINE
  5
4990
100
AcDbEntity
  8
0
  6
CONTINUOUS
 62
     0
100
AcDbLine
 10
40.498339
 20
136.811586
 30
0.0
 11
42.132315
 21
138.445562
 31
0.0
  0
LINE
  5
4991
100
AcDbEntity
  8
0
  6
CONTINUOUS
 62
     0
100
AcDbLine
 10
40.27885
 20
136.816603
 30
0.0
 11
42.020063
 21
138.557816
 31
0.0
  0
LINE
  5
4992
100
AcDbEntity
  8
0
  6
CONTINUOUS
 62
     0
100
AcDbLine
 10
40.27885
 20
137.041109
 30
0.0
 11
41.892311
 21
138.654571
 31
0.0
  0
LINE
  5
4993
100
AcDbEntity
  8
0
  6
CONTINUOUS
 62
     0
100
AcDbLine
 10
40.27885
 20
137.265616
 30
0.0
 11
41.745259
 21
138.732025
 31
0.0
  0
LINE
  5
4994
100
AcDbEntity
  8
0
  6
CONTINUOUS
 62
     0
100
AcDbLine
 10
40.27885
 20
137.490122
 30
0.0
 11
41.575548
 21
138.78682
 31
0.0
  0
LINE
  5
4995
100
AcDbEntity
  8
0
  6
CONTINUOUS
 62
     0
100
AcDbLine
 10
40.27885
 20
137.714628
 30
0.0
 11
41.375582
 21
138.811361
 31
0.0
  0
LINE
  5
4996
100
AcDbEntity
  8
0
  6
CONTINUOUS
 62
     0
100
AcDbLine
 10
40.27885
 20
137.939135
 30
0.0
 11
41.1513
 21
138.811586
 31
0.0
  0
LINE
  5
4997
100
AcDbEntity
  8
0
  6
CONTINUOUS
 62
     0
100
AcDbLine
 10
40.27885
 20
138.163641
 30
0.0
 11
40.926794
 21
138.811586
 31
0.0
  0
LINE
  5
4998
100
AcDbEntity
  8
0
  6
CONTINUOUS
 62
     0
100
AcDbLine
 10
40.27885
 20
138.388148
 30
0.0
 11
40.702287
 21
138.811586
 31
0.0
  0
LINE
  5
4999
100
AcDbEntity
  8
0
  6
CONTINUOUS
 62
     0
100
AcDbLine
 10
61.152928
 20
136.811586
 30
0.0
 11
63.152928
 21
138.811586
 31
0.0
  0
LINE
  5
499A
100
AcDbEntity
  8
0
  6
CONTINUOUS
 62
     0
100
AcDbLine
 10
61.377434
 20
136.811586
 30
0.0
 11
63.377434
 21
138.811586
 31
0.0
  0
LINE
  5
499B
100
AcDbEntity
  8
0
  6
CONTINUOUS
 62
     0
100
AcDbLine
 10
61.60194
 20
136.811586
 30
0.0
 11
63.60194
 21
138.811586
 31
0.0
  0
LINE
  5
499C
100
AcDbEntity
  8
0
  6
CONTINUOUS
 62
     0
100
AcDbLine
 10
61.826447
 20
136.811586
 30
0.0
 11
63.826447
 21
138.811586
 31
0.0
  0
LINE
  5
499D
100
AcDbEntity
  8
0
  6
CONTINUOUS
 62
     0
100
AcDbLine
 10
62.050953
 20
136.811586
 30
0.0
 11
64.050953
 21
138.811586
 31
0.0
  0
LINE
  5
499E
100
AcDbEntity
  8
0
  6
CONTINUOUS
 62
     0
100
AcDbLine
 10
62.27546
 20
136.811586
 30
0.0
 11
64.27546
 21
138.811586
 31
0.0
  0
LINE
  5
499F
100
AcDbEntity
  8
0
  6
CONTINUOUS
 62
     0
100
AcDbLine
 10
62.499966
 20
136.811586
 30
0.0
 11
64.499966
 21
138.811586
 31
0.0
  0
LINE
  5
49A0
100
AcDbEntity
  8
0
  6
CONTINUOUS
 62
     0
100
AcDbLine
 10
62.724473
 20
136.811586
 30
0.0
 11
64.724473
 21
138.811586
 31
0.0
  0
LINE
  5
49A1
100
AcDbEntity
  8
0
  6
CONTINUOUS
 62
     0
100
AcDbLine
 10
62.948979
 20
136.811586
 30
0.0
 11
64.948979
 21
138.811586
 31
0.0
  0
LINE
  5
49A2
100
AcDbEntity
  8
0
  6
CONTINUOUS
 62
     0
100
AcDbLine
 10
63.173485
 20
136.811586
 30
0.0
 11
65.173164
 21
138.811265
 31
0.0
  0
LINE
  5
49A3
100
AcDbEntity
  8
0
  6
CONTINUOUS
 62
     0
100
AcDbLine
 10
63.397992
 20
136.811586
 30
0.0
 11
65.379149
 21
138.792742
 31
0.0
  0
LINE
  5
49A4
100
AcDbEntity
  8
0
  6
CONTINUOUS
 62
     0
100
AcDbLine
 10
63.622498
 20
136.811586
 30
0.0
 11
65.562417
 21
138.751504
 31
0.0
  0
LINE
  5
49A5
100
AcDbEntity
  8
0
  6
CONTINUOUS
 62
     0
100
AcDbLine
 10
63.847005
 20
136.811586
 30
0.0
 11
65.727902
 21
138.692483
 31
0.0
  0
LINE
  5
49A6
100
AcDbEntity
  8
0
  6
CONTINUOUS
 62
     0
100
AcDbLine
 10
64.071511
 20
136.811586
 30
0.0
 11
65.87839
 21
138.618464
 31
0.0
  0
LINE
  5
49A7
100
AcDbEntity
  8
0
  6
CONTINUOUS
 62
     0
100
AcDbLine
 10
64.296017
 20
136.811586
 30
0.0
 11
66.015524
 21
138.531092
 31
0.0
  0
LINE
  5
49A8
100
AcDbEntity
  8
0
  6
CONTINUOUS
 62
     0
100
AcDbLine
 10
64.520524
 20
136.811586
 30
0.0
 11
66.140246
 21
138.431308
 31
0.0
  0
LINE
  5
49A9
100
AcDbEntity
  8
0
  6
CONTINUOUS
 62
     0
100
AcDbLine
 10
64.74503
 20
136.811586
 30
0.0
 11
66.253507
 21
138.320063
 31
0.0
  0
LINE
  5
49AA
100
AcDbEntity
  8
0
  6
CONTINUOUS
 62
     0
100
AcDbLine
 10
64.969537
 20
136.811586
 30
0.0
 11
66.363801
 21
138.20585
 31
0.0
  0
LINE
  5
49AB
100
AcDbEntity
  8
0
  6
CONTINUOUS
 62
     0
100
AcDbLine
 10
65.173887
 20
136.79143
 30
0.0
 11
66.474095
 21
138.091638
 31
0.0
  0
LINE
  5
49AC
100
AcDbEntity
  8
0
  6
CONTINUOUS
 62
     0
100
AcDbLine
 10
65.311214
 20
136.70425
 30
0.0
 11
66.584389
 21
137.977425
 31
0.0
  0
LINE
  5
49AD
100
AcDbEntity
  8
0
  6
CONTINUOUS
 62
     0
100
AcDbLine
 10
65.448541
 20
136.617071
 30
0.0
 11
66.694683
 21
137.863212
 31
0.0
  0
LINE
  5
49AE
100
AcDbEntity
  8
0
  6
CONTINUOUS
 62
     0
100
AcDbLine
 10
65.585868
 20
136.529892
 30
0.0
 11
66.804977
 21
137.749
 31
0.0
  0
LINE
  5
49AF
100
AcDbEntity
  8
0
  6
CONTINUOUS
 62
     0
100
AcDbLine
 10
65.723196
 20
136.442712
 30
0.0
 11
66.91527
 21
137.634787
 31
0.0
  0
LINE
  5
49B0
100
AcDbEntity
  8
0
  6
CONTINUOUS
 62
     0
100
AcDbLine
 10
65.860523
 20
136.355533
 30
0.0
 11
67.025564
 21
137.520575
 31
0.0
  0
LINE
  5
49B1
100
AcDbEntity
  8
0
  6
CONTINUOUS
 62
     0
100
AcDbLine
 10
65.99785
 20
136.268354
 30
0.0
 11
67.135858
 21
137.406362
 31
0.0
  0
LINE
  5
49B2
100
AcDbEntity
  8
0
  6
CONTINUOUS
 62
     0
100
AcDbLine
 10
66.135177
 20
136.181175
 30
0.0
 11
67.246152
 21
137.29215
 31
0.0
  0
LINE
  5
49B3
100
AcDbEntity
  8
0
  6
CONTINUOUS
 62
     0
100
AcDbLine
 10
66.272504
 20
136.093995
 30
0.0
 11
67.356446
 21
137.177937
 31
0.0
  0
LINE
  5
49B4
100
AcDbEntity
  8
0
  6
CONTINUOUS
 62
     0
100
AcDbLine
 10
66.409831
 20
136.006816
 30
0.0
 11
67.466739
 21
137.063724
 31
0.0
  0
LINE
  5
49B5
100
AcDbEntity
  8
0
  6
CONTINUOUS
 62
     0
100
AcDbLine
 10
66.547158
 20
135.919637
 30
0.0
 11
67.577033
 21
136.949512
 31
0.0
  0
LINE
  5
49B6
100
AcDbEntity
  8
0
  6
CONTINUOUS
 62
     0
100
AcDbLine
 10
66.684485
 20
135.832457
 30
0.0
 11
67.687327
 21
136.835299
 31
0.0
  0
LINE
  5
49B7
100
AcDbEntity
  8
0
  6
CONTINUOUS
 62
     0
100
AcDbLine
 10
66.821812
 20
135.745278
 30
0.0
 11
67.797621
 21
136.721087
 31
0.0
  0
LINE
  5
49B8
100
AcDbEntity
  8
0
  6
CONTINUOUS
 62
     0
100
AcDbLine
 10
66.959139
 20
135.658099
 30
0.0
 11
67.907915
 21
136.606874
 31
0.0
  0
LINE
  5
49B9
100
AcDbEntity
  8
0
  6
CONTINUOUS
 62
     0
100
AcDbLine
 10
67.096466
 20
135.570919
 30
0.0
 11
68.018208
 21
136.492661
 31
0.0
  0
LINE
  5
49BA
100
AcDbEntity
  8
0
  6
CONTINUOUS
 62
     0
100
AcDbLine
 10
67.233794
 20
135.48374
 30
0.0
 11
68.128502
 21
136.378449
 31
0.0
  0
LINE
  5
49BB
100
AcDbEntity
  8
0
  6
CONTINUOUS
 62
     0
100
AcDbLine
 10
67.371121
 20
135.396561
 30
0.0
 11
68.238796
 21
136.264236
 31
0.0
  0
LINE
  5
49BC
100
AcDbEntity
  8
0
  6
CONTINUOUS
 62
     0
100
AcDbLine
 10
67.508448
 20
135.309381
 30
0.0
 11
68.34909
 21
136.150024
 31
0.0
  0
LINE
  5
49BD
100
AcDbEntity
  8
0
  6
CONTINUOUS
 62
     0
100
AcDbLine
 10
67.645775
 20
135.222202
 30
0.0
 11
68.459384
 21
136.035811
 31
0.0
  0
LINE
  5
49BE
100
AcDbEntity
  8
0
  6
CONTINUOUS
 62
     0
100
AcDbLine
 10
67.783102
 20
135.135023
 30
0.0
 11
68.569678
 21
135.921598
 31
0.0
  0
LINE
  5
49BF
100
AcDbEntity
  8
0
  6
CONTINUOUS
 62
     0
100
AcDbLine
 10
67.920429
 20
135.047843
 30
0.0
 11
68.679971
 21
135.807386
 31
0.0
  0
LINE
  5
49C0
100
AcDbEntity
  8
0
  6
CONTINUOUS
 62
     0
100
AcDbLine
 10
68.057756
 20
134.960664
 30
0.0
 11
68.790265
 21
135.693173
 31
0.0
  0
LINE
  5
49C1
100
AcDbEntity
  8
0
  6
CONTINUOUS
 62
     0
100
AcDbLine
 10
68.195083
 20
134.873485
 30
0.0
 11
68.900559
 21
135.578961
 31
0.0
  0
LINE
  5
49C2
100
AcDbEntity
  8
0
  6
CONTINUOUS
 62
     0
100
AcDbLine
 10
68.33241
 20
134.786306
 30
0.0
 11
69.010853
 21
135.464748
 31
0.0
  0
LINE
  5
49C3
100
AcDbEntity
  8
0
  6
CONTINUOUS
 62
     0
100
AcDbLine
 10
68.469737
 20
134.699126
 30
0.0
 11
69.121147
 21
135.350536
 31
0.0
  0
LINE
  5
49C4
100
AcDbEntity
  8
0
  6
CONTINUOUS
 62
     0
100
AcDbLine
 10
68.607064
 20
134.611947
 30
0.0
 11
69.23144
 21
135.236323
 31
0.0
  0
LINE
  5
49C5
100
AcDbEntity
  8
0
  6
CONTINUOUS
 62
     0
100
AcDbLine
 10
68.744392
 20
134.524768
 30
0.0
 11
69.341734
 21
135.12211
 31
0.0
  0
LINE
  5
49C6
100
AcDbEntity
  8
0
  6
CONTINUOUS
 62
     0
100
AcDbLine
 10
68.881719
 20
134.437588
 30
0.0
 11
69.452028
 21
135.007898
 31
0.0
  0
LINE
  5
49C7
100
AcDbEntity
  8
0
  6
CONTINUOUS
 62
     0
100
AcDbLine
 10
69.019046
 20
134.350409
 30
0.0
 11
69.562322
 21
134.893685
 31
0.0
  0
LINE
  5
49C8
100
AcDbEntity
  8
0
  6
CONTINUOUS
 62
     0
100
AcDbLine
 10
69.156373
 20
134.26323
 30
0.0
 11
69.672616
 21
134.779473
 31
0.0
  0
LINE
  5
49C9
100
AcDbEntity
  8
0
  6
CONTINUOUS
 62
     0
100
AcDbLine
 10
69.2937
 20
134.17605
 30
0.0
 11
69.78291
 21
134.66526
 31
0.0
  0
LINE
  5
49CA
100
AcDbEntity
  8
0
  6
CONTINUOUS
 62
     0
100
AcDbLine
 10
69.431027
 20
134.088871
 30
0.0
 11
69.893203
 21
134.551047
 31
0.0
  0
LINE
  5
49CB
100
AcDbEntity
  8
0
  6
CONTINUOUS
 62
     0
100
AcDbLine
 10
69.568354
 20
134.001692
 30
0.0
 11
70.003497
 21
134.436835
 31
0.0
  0
LINE
  5
49CC
100
AcDbEntity
  8
0
  6
CONTINUOUS
 62
     0
100
AcDbLine
 10
69.705681
 20
133.914512
 30
0.0
 11
70.113791
 21
134.322622
 31
0.0
  0
LINE
  5
49CD
100
AcDbEntity
  8
0
  6
CONTINUOUS
 62
     0
100
AcDbLine
 10
69.843008
 20
133.827333
 30
0.0
 11
70.224085
 21
134.20841
 31
0.0
  0
LINE
  5
49CE
100
AcDbEntity
  8
0
  6
CONTINUOUS
 62
     0
100
AcDbLine
 10
69.980335
 20
133.740154
 30
0.0
 11
70.334379
 21
134.094197
 31
0.0
  0
LINE
  5
49CF
100
AcDbEntity
  8
0
  6
CONTINUOUS
 62
     0
100
AcDbLine
 10
70.117662
 20
133.652974
 30
0.0
 11
70.444672
 21
133.979984
 31
0.0
  0
LINE
  5
49D0
100
AcDbEntity
  8
0
  6
CONTINUOUS
 62
     0
100
AcDbLine
 10
70.25499
 20
133.565795
 30
0.0
 11
70.554966
 21
133.865772
 31
0.0
  0
LINE
  5
49D1
100
AcDbEntity
  8
0
  6
CONTINUOUS
 62
     0
100
AcDbLine
 10
70.392317
 20
133.478616
 30
0.0
 11
70.66526
 21
133.751559
 31
0.0
  0
LINE
  5
49D2
100
AcDbEntity
  8
0
  6
CONTINUOUS
 62
     0
100
AcDbLine
 10
70.529644
 20
133.391437
 30
0.0
 11
70.775554
 21
133.637347
 31
0.0
  0
LINE
  5
49D3
100
AcDbEntity
  8
0
  6
CONTINUOUS
 62
     0
100
AcDbLine
 10
70.666971
 20
133.304257
 30
0.0
 11
70.885848
 21
133.523134
 31
0.0
  0
LINE
  5
49D4
100
AcDbEntity
  8
0
  6
CONTINUOUS
 62
     0
100
AcDbLine
 10
70.804298
 20
133.217078
 30
0.0
 11
70.996141
 21
133.408922
 31
0.0
  0
LINE
  5
49D5
100
AcDbEntity
  8
0
  6
CONTINUOUS
 62
     0
100
AcDbLine
 10
70.941625
 20
133.129899
 30
0.0
 11
71.106435
 21
133.294709
 31
0.0
  0
LINE
  5
49D6
100
AcDbEntity
  8
0
  6
CONTINUOUS
 62
     0
100
AcDbLine
 10
71.078952
 20
133.042719
 30
0.0
 11
71.216729
 21
133.180496
 31
0.0
  0
LINE
  5
49D7
100
AcDbEntity
  8
0
  6
CONTINUOUS
 62
     0
100
AcDbLine
 10
71.216279
 20
132.95554
 30
0.0
 11
71.327023
 21
133.066284
 31
0.0
  0
LINE
  5
49D8
100
AcDbEntity
  8
0
  6
CONTINUOUS
 62
     0
100
AcDbLine
 10
71.353606
 20
132.868361
 30
0.0
 11
71.437317
 21
132.952071
 31
0.0
  0
LINE
  5
49D9
100
AcDbEntity
  8
0
  6
CONTINUOUS
 62
     0
100
AcDbLine
 10
71.490933
 20
132.781181
 30
0.0
 11
71.547611
 21
132.837859
 31
0.0
  0
LINE
  5
49DA
100
AcDbEntity
  8
0
  6
CONTINUOUS
 62
     0
100
AcDbLine
 10
71.62826
 20
132.694002
 30
0.0
 11
71.657904
 21
132.723646
 31
0.0
  0
LINE
  5
49DB
100
AcDbEntity
  8
0
  6
CONTINUOUS
 62
     0
100
AcDbLine
 10
71.765588
 20
132.606823
 30
0.0
 11
71.768198
 21
132.609433
 31
0.0
  0
LINE
  5
49DC
100
AcDbEntity
  8
0
  6
CONTINUOUS
 62
     0
100
AcDbLine
 10
72.389064
 20
133.2303
 30
0.0
 11
77.866085
 21
138.70732
 31
0.0
  0
LINE
  5
49DD
100
AcDbEntity
  8
0
  6
CONTINUOUS
 62
     0
100
AcDbLine
 10
72.241665
 20
132.858394
 30
0.0
 11
78.175526
 21
138.792255
 31
0.0
  0
LINE
  5
49DE
100
AcDbEntity
  8
0
  6
CONTINUOUS
 62
     0
100
AcDbLine
 10
72.753953
 20
133.146175
 30
0.0
 11
78.419363
 21
138.811586
 31
0.0
  0
LINE
  5
49DF
100
AcDbEntity
  8
0
  6
CONTINUOUS
 62
     0
100
AcDbLine
 10
73.266241
 20
133.433957
 30
0.0
 11
78.643869
 21
138.811586
 31
0.0
  0
LINE
  5
49E0
100
AcDbEntity
  8
0
  6
CONTINUOUS
 62
     0
100
AcDbLine
 10
73.778529
 20
133.721739
 30
0.0
 11
78.868376
 21
138.811586
 31
0.0
  0
LINE
  5
49E1
100
AcDbEntity
  8
0
  6
CONTINUOUS
 62
     0
100
AcDbLine
 10
74.290817
 20
134.009521
 30
0.0
 11
79.035866
 21
138.754569
 31
0.0
  0
LINE
  5
49E2
100
AcDbEntity
  8
0
  6
CONTINUOUS
 62
     0
100
AcDbLine
 10
74.803106
 20
134.297302
 30
0.0
 11
79.148119
 21
138.642316
 31
0.0
  0
LINE
  5
49E3
100
AcDbEntity
  8
0
  6
CONTINUOUS
 62
     0
100
AcDbLine
 10
75.315394
 20
134.585084
 30
0.0
 11
79.260372
 21
138.530063
 31
0.0
  0
LINE
  5
49E4
100
AcDbEntity
  8
0
  6
CONTINUOUS
 62
     0
100
AcDbLine
 10
75.827682
 20
134.872866
 30
0.0
 11
79.27885
 21
138.324034
 31
0.0
  0
LINE
  5
49E5
100
AcDbEntity
  8
0
  6
CONTINUOUS
 62
     0
100
AcDbLine
 10
76.33997
 20
135.160648
 30
0.0
 11
79.27885
 21
138.099527
 31
0.0
  0
LINE
  5
49E6
100
AcDbEntity
  8
0
  6
CONTINUOUS
 62
     0
100
AcDbLine
 10
76.852258
 20
135.448429
 30
0.0
 11
79.27885
 21
137.875021
 31
0.0
  0
LINE
  5
49E7
100
AcDbEntity
  8
0
  6
CONTINUOUS
 62
     0
100
AcDbLine
 10
77.364546
 20
135.736211
 30
0.0
 11
79.27885
 21
137.650514
 31
0.0
  0
LINE
  5
49E8
100
AcDbEntity
  8
0
  6
CONTINUOUS
 62
     0
100
AcDbLine
 10
77.876835
 20
136.023993
 30
0.0
 11
79.27885
 21
137.426008
 31
0.0
  0
LINE
  5
49E9
100
AcDbEntity
  8
0
  6
CONTINUOUS
 62
     0
100
AcDbLine
 10
78.389123
 20
136.311775
 30
0.0
 11
79.27885
 21
137.201502
 31
0.0
  0
LINE
  5
49EA
100
AcDbEntity
  8
0
  6
CONTINUOUS
 62
     0
100
AcDbLine
 10
78.901411
 20
136.599557
 30
0.0
 11
79.27885
 21
136.976995
 31
0.0
  0
ENDBLK
  5
49EB
100
AcDbEntity
  8
0
100
AcDbBlockEnd
  0
ENDSEC
  0
SECTION
  2
ENTITIES
  0
MTEXT
  5
F7E
100
AcDbEntity
  8
TESTO
  6
CONTINUOUS
100
AcDbMText
 10
138.285367
 20
36.885825
 30
0.0
 40
2.6
 41
0.0
 71
     7
 72
     1
  1

  0
MTEXT
  5
1095
100
AcDbEntity
  8
TESTO
  6
CONTINUOUS
100
AcDbMText
 10
126.076483
 20
23.185707
 30
0.0
 40
2.6
 41
0.0
 71
     7
 72
     1
  1

  0
TEXT
  5
28E1
100
AcDbEntity
  8
SEZIONE
  6
CONTINUOUS
100
AcDbText
 10
210.657926
 20
174.687932
 30
0.0
 40
5.0
  1
 
  7
ARIAL
 72
     4
 11
211.618107
 21
174.687932
 31
0.0
100
AcDbText
  0
LINE
  5
4776
100
AcDbEntity
  8
OGGETTO
  6
CONTINUOUS
100
AcDbLine
 10
71.77885
 20
132.598404
 30
0.0
 11
66.221147
 21
138.353573
 31
0.0
1001
ACAD
1000
ASC_BOUNDS
1002
{
1070
    19
1002
}
  0
LINE
  5
4777
100
AcDbEntity
  8
OGGETTO
  6
CONTINUOUS
100
AcDbLine
 10
40.57885
 20
138.811586
 30
0.0
 11
41.354375
 21
138.811586
 31
0.0
1001
ACAD
1000
ASC_BOUNDS
1002
{
1070
    19
1002
}
  0
LINE
  5
4779
100
AcDbEntity
  8
OGGETTO
  6
CONTINUOUS
100
AcDbLine
 10
42.073715
 20
138.506244
 30
0.0
 11
45.77885
 21
134.669464
 31
0.0
1001
ACAD
1000
ASC_BOUNDS
1002
{
1070
    19
1002
}
  0
ARC
  5
477A
100
AcDbEntity
  8
OGGETTO
  6
CONTINUOUS
100
AcDbCircle
 10
41.354375
 20
137.811586
 30
0.0
 40
1.0
100
AcDbArc
 50
44.0
 51
90.0
1001
ACAD
1000
ASC_BOUNDS
1002
{
1070
    19
1002
}
  0
LINE
  5
477B
100
AcDbEntity
  8
OGGETTO
  6
CONTINUOUS
100
AcDbLine
 10
45.77885
 20
134.669464
 30
0.0
 11
49.483985
 21
138.506244
 31
0.0
1001
ACAD
1000
ASC_BOUNDS
1002
{
1070
    19
1002
}
  0
ARC
  5
477C
100
AcDbEntity
  8
OGGETTO
  6
CONTINUOUS
100
AcDbCircle
 10
50.203324
 20
137.811586
 30
0.0
 40
1.0
100
AcDbArc
 50
90.0
 51
136.0
1001
ACAD
1000
ASC_BOUNDS
1002
{
1070
    19
1002
}
  0
ARC
  5
477D
100
AcDbEntity
  8
OGGETTO
  6
CONTINUOUS
100
AcDbCircle
 10
65.142137
 20
137.311586
 30
0.0
 40
1.5
100
AcDbArc
 50
44.0
 51
90.0
1001
ACAD
1000
ASC_BOUNDS
1002
{
1070
    19
1002
}
  0
LINE
  5
477E
100
AcDbEntity
  8
OGGETTO
  6
CONTINUOUS
100
AcDbLine
 10
78.97885
 20
138.811586
 30
0.0
 11
78.415562
 21
138.811586
 31
0.0
1001
ACAD
1000
ASC_BOUNDS
1002
{
1070
    19
1002
}
  0
LINE
  5
477F
100
AcDbEntity
  8
OGGETTO
  6
CONTINUOUS
100
AcDbLine
 10
77.336552
 20
138.353573
 30
0.0
 11
71.77885
 21
132.598404
 31
0.0
1001
ACAD
1000
ASC_BOUNDS
1002
{
1070
    19
1002
}
  0
ARC
  5
4780
100
AcDbEntity
  8
OGGETTO
  6
CONTINUOUS
100
AcDbCircle
 10
78.415562
 20
137.311586
 30
0.0
 40
1.5
100
AcDbArc
 50
90.0
 51
136.0
1001
ACAD
1000
ASC_BOUNDS
1002
{
1070
    19
1002
}
  0
LINE
  5
4791
100
AcDbEntity
  8
OGGETTO
  6
BYBLOCK
100
AcDbLine
 10
79.27885
 20
93.311586
 30
0.0
 11
79.27885
 21
138.511586
 31
0.0
1001
ACAD
1000
ASC_BOUNDS
1002
{
1070
    19
1002
}
  0
LINE
  5
4792
100
AcDbEntity
  8
OGGETTO
  6
BYBLOCK
100
AcDbLine
 10
40.27885
 20
93.311586
 30
0.0
 11
40.27885
 21
138.511586
 31
0.0
1001
ACAD
1000
ASC_BOUNDS
1002
{
1070
    19
1002
}
  0
LINE
  5
4793
100
AcDbEntity
  8
OGGETTO
  6
CONTINUOUS
100
AcDbLine
 10
78.77885
 20
92.811586
 30
0.0
 11
66.77885
 21
92.811586
 31
0.0
  0
LINE
  5
4794
100
AcDbEntity
  8
OGGETTO
  6
BYBLOCK
100
AcDbLine
 10
66.27885
 20
93.311586
 30
0.0
 11
66.27885
 21
98.811586
 31
0.0
  0
LINE
  5
4795
100
AcDbEntity
  8
OGGETTO
  6
BYBLOCK
100
AcDbLine
 10
51.27885
 20
93.311586
 30
0.0
 11
51.27885
 21
98.811586
 31
0.0
  0
LINE
  5
4796
100
AcDbEntity
  8
OGGETTO
  6
CONTINUOUS
100
AcDbLine
 10
66.27885
 20
98.811586
 30
0.0
 11
51.27885
 21
98.811586
 31
0.0
  0
LINE
  5
4798
100
AcDbEntity
  8
OGGETTO
  6
CONTINUOUS
100
AcDbLine
 10
50.77885
 20
92.811586
 30
0.0
 11
40.77885
 21
92.811586
 31
0.0
  0
LINE
  5
4799
100
AcDbEntity
  8
OGGETTO
  6
CONTINUOUS
100
AcDbLine
 10
79.27885
 20
93.311586
 30
0.0
 11
78.77885
 21
92.811586
 31
0.0
  0
LINE
  5
479A
100
AcDbEntity
  8
OGGETTO
  6
CONTINUOUS
100
AcDbLine
 10
66.27885
 20
93.311586
 30
0.0
 11
66.77885
 21
92.811586
 31
0.0
  0
LINE
  5
479B
100
AcDbEntity
  8
OGGETTO
  6
CONTINUOUS
100
AcDbLine
 10
51.27885
 20
93.311586
 30
0.0
 11
50.77885
 21
92.811586
 31
0.0
  0
LINE
  5
479C
100
AcDbEntity
  8
OGGETTO
  6
CONTINUOUS
100
AcDbLine
 10
40.77885
 20
92.811586
 30
0.0
 11
40.27885
 21
93.311586
 31
0.0
  0
LINE
  5
479D
100
AcDbEntity
  8
OGGETTO
  6
CONTINUOUS
100
AcDbLine
 10
40.27885
 20
138.511586
 30
0.0
 11
40.57885
 21
138.811586
 31
0.0
1001
ACAD
1000
ASC_BOUNDS
1002
{
1070
    19
1002
}
  0
LINE
  5
479E
100
AcDbEntity
  8
OGGETTO
  6
CONTINUOUS
100
AcDbLine
 10
79.27885
 20
138.511586
 30
0.0
 11
78.97885
 21
138.811586
 31
0.0
1001
ACAD
1000
ASC_BOUNDS
1002
{
1070
    19
1002
}
  0
LINE
  5
47CE
100
AcDbEntity
  8
OGGETTO
  6
CONTINUOUS
100
AcDbLine
 10
50.203324
 20
138.811586
 30
0.0
 11
65.142137
 21
138.811586
 31
0.0
1001
ACAD
1000
ASC_BOUNDS
1002
{
1070
    19
1002
}
  0
VIEWPORT
  5
22
100
AcDbEntity
 67
     1
  8
0
100
AcDbViewport
 10
261.517699
 20
154.724298
 30
0.0
 40
523.035398
 41
309.448596
 68
    -1
 69
     1
1001
ACAD
1000
MVIEW
1002
{
1070
    16
1010
0.0
1020
0.0
1030
0.0
1010
0.0
1020
0.0
1030
1.0
1040
0.0
1040
309.448596
1040
261.517699
1040
154.724298
1040
50.0
1040
0.0
1040
0.0
1070
     0
1070
   100
1070
     1
1070
     0
1070
     0
1070
     0
1070
     0
1070
     0
1040
0.0
1040
0.0
1040
0.0
1040
1.0
1040
1.0
1040
10.0
1040
10.0
1070
     0
1002
{
1002
}
1002
}
  0
ENDSEC
  0
SECTION
  2
OBJECTS
  0
DICTIONARY
  5
C
100
AcDbDictionary
  3
ACAD_GROUP
350
D
  3
ACAD_MLINESTYLE
350
E
  0
DICTIONARY
  5
D
102
{ACAD_REACTORS
330
C
102
}
100
AcDbDictionary
  0
DICTIONARY
  5
E
102
{ACAD_REACTORS
330
C
102
}
100
AcDbDictionary
  3
STANDARD
350
13
  0
MLINESTYLE
  5
13
102
{ACAD_REACTORS
330
E
102
}
100
AcDbMlineStyle
  2
STANDARD
 70
     0
  3

 62
     0
 51
90.0
 52
90.0
 71
     2
 49
0.5
 62
   256
  6
BYLAYER
 49
-0.5
 62
   256
  6
BYLAYER
  0
ENDSEC
  0
EOF
